  0
SECTION
  2
HEADER
  9
$ACADVER
  1
AC1014
  9
$ACADMAINTVER
 70
     0
  9
$DWGCODEPAGE
  3
ANSI_932
  9
$INSBASE
 10
0.0
 20
0.0
 30
0.0
  9
$EXTMIN
 10
168.410389
 20
159.462696
 30
0.0
  9
$EXTMAX
 10
421.109599
 20
253.932431
 30
0.0
  9
$LIMMIN
 10
0.0
 20
0.0
  9
$LIMMAX
 10
594.0
 20
420.0
  9
$ORTHOMODE
 70
     1
  9
$REGENMODE
 70
     1
  9
$FILLMODE
 70
     1
  9
$QTEXTMODE
 70
     0
  9
$MIRRTEXT
 70
     1
  9
$DRAGMODE
 70
     2
  9
$LTSCALE
 40
0.25
  9
$OSMODE
 70
    37
  9
$ATTMODE
 70
     1
  9
$TEXTSIZE
 40
4.0
  9
$TRACEWID
 40
1.0
  9
$TEXTSTYLE
  7
STANDARD
  9
$CLAYER
  8
0
  9
$CELTYPE
  6
BYLAYER
  9
$CECOLOR
 62
   256
  9
$CELTSCALE
 40
1.0
  9
$DELOBJ
 70
     1
  9
$DISPSILH
 70
     0
  9
$DIMSCALE
 40
2.0
  9
$DIMASZ
 40
3.0
  9
$DIMEXO
 40
1.0
  9
$DIMDLI
 40
0.0
  9
$DIMRND
 40
0.0
  9
$DIMDLE
 40
0.0
  9
$DIMEXE
 40
1.0
  9
$DIMTP
 40
0.1
  9
$DIMTM
 40
0.0
  9
$DIMTXT
 40
3.2
  9
$DIMCEN
 40
0.0
  9
$DIMTSZ
 40
0.0
  9
$DIMTOL
 70
     0
  9
$DIMLIM
 70
     0
  9
$DIMTIH
 70
     0
  9
$DIMTOH
 70
     0
  9
$DIMSE1
 70
     0
  9
$DIMSE2
 70
     0
  9
$DIMTAD
 70
     0
  9
$DIMZIN
 70
     8
  9
$DIMBLK
  1

  9
$DIMASO
 70
     1
  9
$DIMSHO
 70
     1
  9
$DIMPOST
  1

  9
$DIMAPOST
  1

  9
$DIMALT
 70
     0
  9
$DIMALTD
 70
     2
  9
$DIMALTF
 40
0.04
  9
$DIMLFAC
 40
1.0
  9
$DIMTOFL
 70
     1
  9
$DIMTVP
 40
1.0
  9
$DIMTIX
 70
     1
  9
$DIMSOXD
 70
     0
  9
$DIMSAH
 70
     1
  9
$DIMBLK1
  1
DOT
  9
$DIMBLK2
  1
ARROW
  9
$DIMSTYLE
  2
DA1
  9
$DIMCLRD
 70
     0
  9
$DIMCLRE
 70
     0
  9
$DIMCLRT
 70
     0
  9
$DIMTFAC
 40
0.6
  9
$DIMGAP
 40
0.0
  9
$DIMJUST
 70
     0
  9
$DIMSD1
 70
     0
  9
$DIMSD2
 70
     0
  9
$DIMTOLJ
 70
     1
  9
$DIMTZIN
 70
     0
  9
$DIMALTZ
 70
     0
  9
$DIMALTTZ
 70
     0
  9
$DIMFIT
 70
     3
  9
$DIMUPT
 70
     0
  9
$DIMUNIT
 70
     2
  9
$DIMDEC
 70
     4
  9
$DIMTDEC
 70
     4
  9
$DIMALTU
 70
     2
  9
$DIMALTTD
 70
     2
  9
$DIMTXSTY
  7
STANDARD
  9
$DIMAUNIT
 70
     0
  9
$LUNITS
 70
     2
  9
$LUPREC
 70
     2
  9
$SKETCHINC
 40
1.0
  9
$FILLETRAD
 40
10.0
  9
$AUNITS
 70
     0
  9
$AUPREC
 70
     0
  9
$MENU
  1
acad
  9
$ELEVATION
 40
0.0
  9
$PELEVATION
 40
0.0
  9
$THICKNESS
 40
0.0
  9
$LIMCHECK
 70
     0
  9
$BLIPMODE
 70
     0
  9
$CHAMFERA
 40
0.0
  9
$CHAMFERB
 40
0.0
  9
$CHAMFERC
 40
0.0
  9
$CHAMFERD
 40
0.0
  9
$SKPOLY
 70
     0
  9
$TDCREATE
 40
2451466.824894213
  9
$TDUPDATE
 40
2452821.796003240
  9
$TDINDWG
 40
0.0028445833
  9
$TDUSRTIMER
 40
0.0028445833
  9
$USRTIMER
 70
     1
  9
$ANGBASE
 50
0.0
  9
$ANGDIR
 70
     0
  9
$PDMODE
 70
     1
  9
$PDSIZE
 40
0.0
  9
$PLINEWID
 40
0.0
  9
$COORDS
 70
     1
  9
$SPLFRAME
 70
     0
  9
$SPLINETYPE
 70
     6
  9
$SPLINESEGS
 70
     8
  9
$ATTDIA
 70
     0
  9
$ATTREQ
 70
     1
  9
$HANDLING
 70
     1
  9
$HANDSEED
  5
51B
  9
$SURFTAB1
 70
     6
  9
$SURFTAB2
 70
     6
  9
$SURFTYPE
 70
     6
  9
$SURFU
 70
     6
  9
$SURFV
 70
     6
  9
$UCSNAME
  2

  9
$UCSORG
 10
0.0
 20
0.0
 30
0.0
  9
$UCSXDIR
 10
1.0
 20
0.0
 30
0.0
  9
$UCSYDIR
 10
0.0
 20
1.0
 30
0.0
  9
$PUCSNAME
  2

  9
$PUCSORG
 10
0.0
 20
0.0
 30
0.0
  9
$PUCSXDIR
 10
1.0
 20
0.0
 30
0.0
  9
$PUCSYDIR
 10
0.0
 20
1.0
 30
0.0
  9
$USERI1
 70
     0
  9
$USERI2
 70
     0
  9
$USERI3
 70
     0
  9
$USERI4
 70
     0
  9
$USERI5
 70
     0
  9
$USERR1
 40
0.0
  9
$USERR2
 40
0.0
  9
$USERR3
 40
0.0
  9
$USERR4
 40
0.0
  9
$USERR5
 40
0.0
  9
$WORLDVIEW
 70
     1
  9
$SHADEDGE
 70
     3
  9
$SHADEDIF
 70
    70
  9
$TILEMODE
 70
     1
  9
$MAXACTVP
 70
    16
  9
$PINSBASE
 10
0.0
 20
0.0
 30
0.0
  9
$PLIMCHECK
 70
     0
  9
$PEXTMIN
 10
1.000000E+20
 20
1.000000E+20
 30
1.000000E+20
  9
$PEXTMAX
 10
-1.000000E+20
 20
-1.000000E+20
 30
-1.000000E+20
  9
$PLIMMIN
 10
0.0
 20
0.0
  9
$PLIMMAX
 10
420.0
 20
297.0
  9
$UNITMODE
 70
     0
  9
$VISRETAIN
 70
     0
  9
$PLINEGEN
 70
     0
  9
$PSLTSCALE
 70
     0
  9
$TREEDEPTH
 70
  3020
  9
$PICKSTYLE
 70
     1
  9
$CMLSTYLE
  2
STANDARD
  9
$CMLJUST
 70
     0
  9
$CMLSCALE
 40
1.0
  9
$PROXYGRAPHICS
 70
     1
  9
$MEASUREMENT
 70
     0
  0
ENDSEC
  0
SECTION
  2
CLASSES
  0
CLASS
  1
ACDBDICTIONARYWDFLT
  2
AcDbDictionaryWithDefault
  3
AutoCAD 2000
 90
        0
280
     0
281
     0
  0
CLASS
  1
ACDBPLACEHOLDER
  2
AcDbPlaceHolder
  3
AutoCAD 2000
 90
        0
280
     0
281
     0
  0
CLASS
  1
LAYOUT
  2
AcDbLayout
  3
AutoCAD 2000
 90
        0
280
     0
281
     0
  0
CLASS
  1
DICTIONARYVAR
  2
AcDbDictionaryVar
  3
"AutoCAD"
 90
        0
280
     0
281
     0
  0
CLASS
  1
LONG_TRANSACTION
  2
AcDbLongTransaction
  3
AutoCAD 2000
 90
        0
280
     0
281
     0
  0
CLASS
  1
LWPOLYLINE
  2
AcDbPolyline
  3
"AutoCAD"
 90
        0
280
     0
281
     1
  0
CLASS
  1
HATCH
  2
AcDbHatch
  3
"ACAD_SEDONA"
 90
        0
280
     0
281
     1
  0
CLASS
  1
XRECORD
  2
AcDbXrecord
  3
"<Built In>"
 90
        0
280
     0
281
     0
  0
ENDSEC
  0
SECTION
  2
TABLES
  0
TABLE
  2
VPORT
  5
34A
100
AcDbSymbolTable
 70
     1
  0
VPORT
  5
4E2
102
{ACAD_XDICTIONARY
360
4EB
102
}
100
AcDbSymbolTableRecord
100
AcDbViewportTableRecord
  2
*ACTIVE
 70
     0
 10
0.0
 20
0.0
 11
1.0
 21
1.0
 12
220.547517
 22
145.254335
 13
0.0
 23
0.0
 14
10.0
 24
10.0
 15
0.0
 25
0.0
 16
0.0
 26
0.0
 36
1.0
 17
0.0
 27
0.0
 37
0.0
 40
256.640711
 41
1.570997
 42
50.0
 43
0.0
 44
0.0
 50
0.0
 51
0.0
 71
     0
 72
   100
 73
     1
 74
     0
 75
     0
 76
     0
 77
     0
 78
     1
  0
ENDTAB
  0
TABLE
  2
LTYPE
  5
347
100
AcDbSymbolTable
 70
     3
  0
LTYPE
  5
355
102
{ACAD_XDICTIONARY
360
4E7
102
}
100
AcDbSymbolTableRecord
100
AcDbLinetypeTableRecord
  2
BYBLOCK
 70
     0
  3

 72
    65
 73
     0
 40
0.0
  0
LTYPE
  5
356
102
{ACAD_XDICTIONARY
360
4E9
102
}
100
AcDbSymbolTableRecord
100
AcDbLinetypeTableRecord
  2
BYLAYER
 70
     0
  3

 72
    65
 73
     0
 40
0.0
  0
LTYPE
  5
357
100
AcDbSymbolTableRecord
100
AcDbLinetypeTableRecord
  2
CONTINUOUS
 70
     0
  3
Solid line
 72
    65
 73
     0
 40
0.0
  0
LTYPE
  5
365
100
AcDbSymbolTableRecord
100
AcDbLinetypeTableRecord
  2
CENTER
 70
     0
  3
____ _ ____ _ ____ _ ____ _ ____ _ ____ _ ____ 
 72
    65
 73
     4
 40
50.8
 49
31.75
 74
     0
 49
-6.35
 74
     0
 49
6.35
 74
     0
 49
-6.35
 74
     0
  0
LTYPE
  5
366
100
AcDbSymbolTableRecord
100
AcDbLinetypeTableRecord
  2
DASHED
 70
     0
  3
Dashed __ __ __ __ __ __ __ __ __ __ __ __ __ _
 72
    65
 73
     2
 40
0.75
 49
0.5
 74
     0
 49
-0.25
 74
     0
  0
ENDTAB
  0
TABLE
  2
LAYER
  5
344
100
AcDbSymbolTable
 70
     3
  0
LAYER
  5
352
100
AcDbSymbolTableRecord
100
AcDbLayerTableRecord
  2
0
 70
     0
 62
     7
  6
CONTINUOUS
  0
LAYER
  5
367
100
AcDbSymbolTableRecord
100
AcDbLayerTableRecord
  2
DIMENSION
 70
     0
 62
    -4
  6
CONTINUOUS
  0
LAYER
  5
368
100
AcDbSymbolTableRecord
100
AcDbLayerTableRecord
  2
CENTER
 70
     0
 62
     1
  6
CENTER
  0
ENDTAB
  0
TABLE
  2
STYLE
  5
345
100
AcDbSymbolTable
 70
     1
  0
STYLE
  5
353
100
AcDbSymbolTableRecord
100
AcDbTextStyleTableRecord
  2
STANDARD
 70
     0
 40
0.0
 41
1.0
 50
0.0
 71
     0
 42
4.0
  3
txt
  4

  0
ENDTAB
  0
TABLE
  2
VIEW
  5
348
100
AcDbSymbolTable
 70
     0
  0
ENDTAB
  0
TABLE
  2
UCS
  5
349
100
AcDbSymbolTable
 70
     0
  0
ENDTAB
  0
TABLE
  2
APPID
  5
34B
100
AcDbSymbolTable
 70
     1
  0
APPID
  5
354
100
AcDbSymbolTableRecord
100
AcDbRegAppTableRecord
  2
ACAD
 70
     0
  0
ENDTAB
  0
TABLE
  2
DIMSTYLE
  5
34C
100
AcDbSymbolTable
 70
     1
  0
DIMSTYLE
105
369
102
{ACAD_XDICTIONARY
360
514
102
}
100
AcDbSymbolTableRecord
100
AcDbDimStyleTableRecord
  2
DA1
 70
     0
  3

  4

  5

  6

  7

 40
1.0
 41
3.0
 42
1.0
 43
0.0
 44
1.0
 45
0.0
 46
0.0
 47
0.0
 48
0.0
140
3.2
141
0.0
142
0.0
143
0.04
144
1.0
145
1.0
146
0.6
147
0.0
 71
     0
 72
     0
 73
     0
 74
     0
 75
     0
 76
     0
 77
     0
 78
     8
170
     0
171
     2
172
     1
173
     1
174
     1
175
     0
176
     0
177
     0
178
     0
270
     2
271
     2
272
     2
273
     2
274
     2
340
353
275
     0
280
     0
281
     0
282
     0
283
     1
284
     8
285
     8
286
     8
287
     5
288
     0
  0
ENDTAB
  0
TABLE
  2
BLOCK_RECORD
  5
343
100
AcDbSymbolTable
 70
     4
  0
BLOCK_RECORD
  5
360
102
{ACAD_XDICTIONARY
360
4E3
102
}
100
AcDbSymbolTableRecord
100
AcDbBlockTableRecord
  2
*MODEL_SPACE
  0
BLOCK_RECORD
  5
35C
102
{ACAD_XDICTIONARY
360
4E5
102
}
100
AcDbSymbolTableRecord
100
AcDbBlockTableRecord
  2
*PAPER_SPACE
  0
BLOCK_RECORD
  5
36B
100
AcDbSymbolTableRecord
100
AcDbBlockTableRecord
  2
$MODEL_SPACE
  0
BLOCK_RECORD
  5
36E
100
AcDbSymbolTableRecord
100
AcDbBlockTableRecord
  2
$PAPER_SPACE
  0
BLOCK_RECORD
  5
371
100
AcDbSymbolTableRecord
100
AcDbBlockTableRecord
  2
ARROW
  0
BLOCK_RECORD
  5
377
100
AcDbSymbolTableRecord
100
AcDbBlockTableRecord
  2
DOT
  0
ENDTAB
  0
ENDSEC
  0
SECTION
  2
BLOCKS
  0
BLOCK
  5
361
100
AcDbEntity
  8
0
100
AcDbBlockBegin
  2
*MODEL_SPACE
 70
     0
 10
0.0
 20
0.0
 30
0.0
  3
*MODEL_SPACE
  1

  0
ENDBLK
  5
362
100
AcDbEntity
  8
0
100
AcDbBlockEnd
  0
BLOCK
  5
35D
100
AcDbEntity
 67
     1
  8
0
100
AcDbBlockBegin
  2
*PAPER_SPACE
 70
     0
 10
0.0
 20
0.0
 30
0.0
  3
*PAPER_SPACE
  1

  0
ENDBLK
  5
35E
100
AcDbEntity
 67
     1
  8
0
100
AcDbBlockEnd
  0
BLOCK
  5
36C
100
AcDbEntity
  8
0
100
AcDbBlockBegin
  2
$MODEL_SPACE
 70
     0
 10
0.0
 20
0.0
 30
0.0
  3
$MODEL_SPACE
  1

  0
ENDBLK
  5
36D
100
AcDbEntity
  8
0
100
AcDbBlockEnd
  0
BLOCK
  5
36F
100
AcDbEntity
  8
0
100
AcDbBlockBegin
  2
$PAPER_SPACE
 70
     0
 10
0.0
 20
0.0
 30
0.0
  3
$PAPER_SPACE
  1

  0
ENDBLK
  5
370
100
AcDbEntity
  8
0
100
AcDbBlockEnd
  0
BLOCK
  5
372
100
AcDbEntity
  8
0
100
AcDbBlockBegin
  2
ARROW
 70
     0
 10
0.0
 20
0.0
 30
0.0
  3
ARROW
  1

  0
LINE
  5
373
100
AcDbEntity
  8
DIMENSION
100
AcDbLine
 10
0.0
 20
0.0
 30
0.0
 11
-1.0
 21
0.176327
 31
0.0
  0
LINE
  5
374
100
AcDbEntity
  8
DIMENSION
100
AcDbLine
 10
0.0
 20
0.0
 30
0.0
 11
-1.0
 21
-0.176327
 31
0.0
  0
LINE
  5
375
100
AcDbEntity
  8
DIMENSION
100
AcDbLine
 10
-1.0
 20
0.0
 30
0.0
 11
0.0
 21
0.0
 31
0.0
  0
ENDBLK
  5
376
100
AcDbEntity
  8
0
100
AcDbBlockEnd
  0
BLOCK
  5
378
100
AcDbEntity
  8
0
100
AcDbBlockBegin
  2
DOT
 70
     0
 10
0.0
 20
0.0
 30
0.0
  3
DOT
  1
DOT2
  0
LWPOLYLINE
  5
379
100
AcDbEntity
  8
DIMENSION
100
AcDbPolyline
 90
        2
 70
     1
 43
0.165
 10
-0.082512
 20
0.000018
 42
1.0
 10
0.082488
 20
0.000018
 42
1.0
  0
LINE
  5
37D
100
AcDbEntity
  8
DIMENSION
100
AcDbLine
 10
-0.000012
 20
0.000018
 30
0.0
 11
-1.000012
 21
0.000018
 31
0.0
  0
ENDBLK
  5
37E
100
AcDbEntity
  8
0
100
AcDbBlockEnd
  0
ENDSEC
  0
SECTION
  2
ENTITIES
  0
LINE
  5
37F
100
AcDbEntity
  8
0
100
AcDbLine
 10
191.138907
 20
184.797563
 30
0.0
 11
191.138907
 21
228.597563
 31
0.0
  0
LINE
  5
380
100
AcDbEntity
  8
0
100
AcDbLine
 10
175.188907
 20
231.447563
 30
0.0
 11
175.188907
 21
181.947563
 31
0.0
  0
LINE
  5
381
100
AcDbEntity
  8
0
100
AcDbLine
 10
177.138907
 20
231.447563
 30
0.0
 11
177.138907
 21
181.947563
 31
0.0
  0
LINE
  5
382
100
AcDbEntity
  8
0
100
AcDbLine
 10
236.188907
 20
231.447563
 30
0.0
 11
236.188907
 21
181.947563
 31
0.0
  0
LINE
  5
383
100
AcDbEntity
  8
0
100
AcDbLine
 10
234.238907
 20
231.447563
 30
0.0
 11
234.238907
 21
181.947563
 31
0.0
  0
LINE
  5
384
100
AcDbEntity
  8
0
100
AcDbLine
 10
220.238907
 20
184.797563
 30
0.0
 11
220.238907
 21
228.597563
 31
0.0
  0
LINE
  5
385
100
AcDbEntity
  8
0
100
AcDbLine
 10
238.188907
 20
179.697563
 30
0.0
 11
238.188907
 21
233.697563
 31
0.0
  0
LINE
  5
386
100
AcDbEntity
  8
0
100
AcDbLine
 10
173.188907
 20
179.697563
 30
0.0
 11
173.188907
 21
233.697563
 31
0.0
  0
LINE
  5
389
100
AcDbEntity
  8
CENTER
  6
CENTER
 62
     1
100
AcDbLine
 10
242.895646
 20
206.697563
 30
0.0
 11
168.410389
 21
206.697563
 31
0.0
  0
LINE
  5
38A
100
AcDbEntity
  8
CENTER
  6
CENTER
 62
     1
100
AcDbLine
 10
206.188907
 20
177.197563
 30
0.0
 11
191.188907
 21
177.197563
 31
0.0
  0
LINE
  5
38B
100
AcDbEntity
  8
0
  6
DASHED
 62
     3
100
AcDbLine
 10
204.188907
 20
171.697563
 30
0.0
 11
198.088907
 21
171.697563
 31
0.0
  0
LINE
  5
38C
100
AcDbEntity
  8
0
100
AcDbLine
 10
204.188907
 20
166.197563
 30
0.0
 11
193.188907
 21
166.197563
 31
0.0
  0
LINE
  5
38D
100
AcDbEntity
  8
0
  6
DASHED
 62
     3
100
AcDbLine
 10
204.188907
 20
182.697563
 30
0.0
 11
198.088907
 21
182.697563
 31
0.0
  0
LINE
  5
38E
100
AcDbEntity
  8
0
100
AcDbLine
 10
220.238907
 20
186.697563
 30
0.0
 11
191.138907
 21
186.697563
 31
0.0
  0
LINE
  5
38F
100
AcDbEntity
  8
0
100
AcDbLine
 10
193.188907
 20
166.197563
 30
0.0
 11
193.188907
 21
179.697563
 31
0.0
  0
LINE
  5
390
100
AcDbEntity
  8
0
  6
DASHED
 62
     3
100
AcDbLine
 10
198.088907
 20
171.697563
 30
0.0
 11
198.088907
 21
182.697563
 31
0.0
  0
LINE
  5
391
100
AcDbEntity
  8
0
  6
DASHED
 62
     3
100
AcDbLine
 10
198.088907
 20
173.897563
 30
0.0
 11
193.188907
 21
173.897563
 31
0.0
  0
LINE
  5
392
100
AcDbEntity
  8
0
100
AcDbLine
 10
179.47995
 20
191.897573
 30
0.0
 11
181.01666
 21
191.897573
 31
0.0
  0
LINE
  5
393
100
AcDbEntity
  8
0
100
AcDbLine
 10
179.298167
 20
186.997563
 30
0.0
 11
181.016652
 21
186.997563
 31
0.0
  0
LINE
  5
394
100
AcDbEntity
  8
0
100
AcDbLine
 10
189.538907
 20
196.697563
 30
0.0
 11
178.738907
 21
196.697563
 31
0.0
  0
CIRCLE
  5
395
100
AcDbEntity
  8
0
100
AcDbCircle
 10
184.138907
 20
189.447563
 30
0.0
 40
3.96875
  0
LINE
  5
396
100
AcDbEntity
  8
0
100
AcDbLine
 10
189.538907
 20
183.197563
 30
0.0
 11
177.138907
 21
183.197563
 31
0.0
  0
LINE
  5
397
100
AcDbEntity
  8
0
100
AcDbLine
 10
193.188907
 20
179.697563
 30
0.0
 11
173.188907
 21
179.697563
 31
0.0
  0
ARC
  5
398
100
AcDbEntity
  8
0
100
AcDbCircle
 10
178.522189
 20
185.957343
 30
0.0
 40
0.5
100
AcDbArc
 50
220.090214
 51
355.01295
  0
LINE
  5
399
100
AcDbEntity
  8
0
100
AcDbLine
 10
175.188907
 20
183.197563
 30
0.0
 11
173.188907
 21
183.197563
 31
0.0
  0
LINE
  5
39A
100
AcDbEntity
  8
0
100
AcDbLine
 10
175.188907
 20
181.947563
 30
0.0
 11
177.138907
 21
181.947563
 31
0.0
  0
ARC
  5
39B
100
AcDbEntity
  8
0
100
AcDbCircle
 10
178.738907
 20
184.797563
 30
0.0
 40
1.6
100
AcDbArc
 50
180.0
 51
270.0
  0
LINE
  5
39C
100
AcDbEntity
  8
0
100
AcDbLine
 10
175.188907
 20
186.447563
 30
0.0
 11
177.138907
 21
186.447563
 31
0.0
  0
LINE
  5
39D
100
AcDbEntity
  8
0
100
AcDbLine
 10
177.668907
 20
188.293573
 30
0.0
 11
177.668907
 21
192.097573
 31
0.0
  0
LINE
  5
39E
100
AcDbEntity
  8
0
100
AcDbLine
 10
177.968907
 20
188.417533
 30
0.0
 11
177.968907
 21
192.097573
 31
0.0
  0
ARC
  5
39F
100
AcDbEntity
  8
0
100
AcDbCircle
 10
177.338907
 20
192.897583
 30
0.0
 40
0.2
100
AcDbArc
 50
180.0
 51
270.0
  0
LINE
  5
3A0
100
AcDbEntity
  8
0
100
AcDbLine
 10
177.338907
 20
192.697583
 30
0.0
 11
177.838887
 21
192.697583
 31
0.0
  0
ARC
  5
3A1
100
AcDbEntity
  8
0
100
AcDbCircle
 10
177.968907
 20
192.097573
 30
0.0
 40
0.3
100
AcDbArc
 50
90.0
 51
180.0
  0
ARC
  5
3A2
100
AcDbEntity
  8
0
100
AcDbCircle
 10
177.338907
 20
185.697573
 30
0.0
 40
0.2
100
AcDbArc
 50
90.0
 51
180.0
  0
LINE
  5
3A3
100
AcDbEntity
  8
0
100
AcDbLine
 10
178.184908
 20
186.513582
 30
0.0
 11
177.955313
 21
186.320904
 31
0.0
  0
LINE
  5
3A4
100
AcDbEntity
  8
0
100
AcDbLine
 10
177.918654
 20
185.897905
 30
0.0
 11
178.139673
 21
185.635346
 31
0.0
  0
ARC
  5
3A5
100
AcDbEntity
  8
0
100
AcDbCircle
 10
178.148164
 20
186.091103
 30
0.0
 40
0.3
100
AcDbArc
 50
130.003724
 51
220.090214
  0
LINE
  5
3A6
100
AcDbEntity
  8
0
100
AcDbLine
 10
177.338907
 20
185.897573
 30
0.0
 11
177.918934
 21
185.897573
 31
0.0
  0
LINE
  5
3A7
100
AcDbEntity
  8
0
100
AcDbLine
 10
179.020296
 20
185.913878
 30
0.0
 11
179.098924
 21
186.81495
 31
0.0
  0
LINE
  5
3A8
100
AcDbEntity
  8
0
100
AcDbLine
 10
178.920897
 20
193.050453
 30
0.0
 11
179.291975
 21
192.029267
 31
0.0
  0
ARC
  5
3A9
100
AcDbEntity
  8
0
100
AcDbCircle
 10
179.47995
 20
192.097573
 30
0.0
 40
0.2
100
AcDbArc
 50
199.970128
 51
270.0
  0
ARC
  5
3AA
100
AcDbEntity
  8
0
100
AcDbCircle
 10
179.298167
 20
186.797563
 30
0.0
 40
0.2
100
AcDbArc
 50
90.0
 51
175.01295
  0
LINE
  5
3AB
100
AcDbEntity
  8
0
100
AcDbLine
 10
179.068907
 20
186.470573
 30
0.0
 11
179.068907
 21
187.317523
 31
0.0
  0
ARC
  5
3AC
100
AcDbEntity
  8
0
100
AcDbCircle
 10
178.636907
 20
192.647573
 30
0.0
 40
0.599648
100
AcDbArc
 50
87.195159
 51
135.0
  0
LINE
  5
3AD
100
AcDbEntity
  8
0
100
AcDbLine
 10
178.588907
 20
192.397573
 30
0.0
 11
178.588907
 21
192.097573
 31
0.0
  0
ARC
  5
3AE
100
AcDbEntity
  8
0
100
AcDbCircle
 10
178.638907
 20
192.947583
 30
0.0
 40
0.300167
100
AcDbArc
 50
19.970128
 51
94.462605
  0
LINE
  5
3AF
100
AcDbEntity
  8
0
100
AcDbLine
 10
178.717459
 20
185.954135
 30
0.0
 11
178.768875
 21
187.193615
 31
0.0
  0
ARC
  5
3B0
100
AcDbEntity
  8
0
100
AcDbCircle
 10
178.517631
 20
185.962425
 30
0.0
 40
0.2
100
AcDbArc
 50
220.007775
 51
357.62463
  0
LINE
  5
3B1
100
AcDbEntity
  8
0
100
AcDbLine
 10
179.068907
 20
187.317523
 30
0.0
 11
177.968907
 21
188.417533
 31
0.0
  0
LINE
  5
3B2
100
AcDbEntity
  8
0
100
AcDbLine
 10
177.968907
 20
192.397573
 30
0.0
 11
178.588907
 21
192.397573
 31
0.0
  0
LINE
  5
3B3
100
AcDbEntity
  8
0
100
AcDbLine
 10
178.588907
 20
192.097573
 30
0.0
 11
177.968907
 21
192.097573
 31
0.0
  0
LINE
  5
3B4
100
AcDbEntity
  8
0
100
AcDbLine
 10
177.838887
 20
192.697583
 30
0.0
 11
178.212917
 21
193.071613
 31
0.0
  0
LINE
  5
3B5
100
AcDbEntity
  8
0
100
AcDbLine
 10
178.148909
 20
186.090635
 30
0.0
 11
178.364439
 21
185.833846
 31
0.0
  0
LINE
  5
3B6
100
AcDbEntity
  8
0
100
AcDbLine
 10
178.377881
 20
186.28361
 30
0.0
 11
178.148909
 21
186.090635
 31
0.0
  0
LINE
  5
3B7
100
AcDbEntity
  8
0
100
AcDbLine
 10
178.184908
 20
186.513582
 30
0.0
 11
178.377881
 21
186.28361
 31
0.0
  0
LINE
  5
3B8
100
AcDbEntity
  8
0
100
AcDbLine
 10
178.768875
 20
187.193615
 30
0.0
 11
177.668907
 21
188.293573
 31
0.0
  0
ARC
  5
3B9
100
AcDbEntity
  8
0
100
AcDbCircle
 10
178.738907
 20
195.097563
 30
0.0
 40
1.6
100
AcDbArc
 50
90.0
 51
180.0
  0
ARC
  5
3BA
100
AcDbEntity
  8
0
100
AcDbCircle
 10
189.755625
 20
185.957343
 30
0.0
 40
0.5
100
AcDbArc
 50
184.98705
 51
319.909786
  0
ARC
  5
3BB
100
AcDbEntity
  8
0
100
AcDbCircle
 10
189.538907
 20
184.797563
 30
0.0
 40
1.6
100
AcDbArc
 50
270.0
 51
0.0
  0
LINE
  5
3BC
100
AcDbEntity
  8
0
100
AcDbLine
 10
188.797864
 20
191.897573
 30
0.0
 11
187.261154
 21
191.897573
 31
0.0
  0
LINE
  5
3BD
100
AcDbEntity
  8
0
100
AcDbLine
 10
188.979647
 20
186.997563
 30
0.0
 11
187.261162
 21
186.997563
 31
0.0
  0
LINE
  5
3BE
100
AcDbEntity
  8
0
100
AcDbLine
 10
189.356917
 20
193.050453
 30
0.0
 11
188.985838
 21
192.029267
 31
0.0
  0
ARC
  5
3BF
100
AcDbEntity
  8
0
100
AcDbCircle
 10
189.638907
 20
192.947583
 30
0.0
 40
0.300167
100
AcDbArc
 50
85.537395
 51
160.029872
  0
LINE
  5
3C0
100
AcDbEntity
  8
0
100
AcDbLine
 10
189.688907
 20
192.397573
 30
0.0
 11
189.688907
 21
192.097573
 31
0.0
  0
ARC
  5
3C1
100
AcDbEntity
  8
0
100
AcDbCircle
 10
188.797864
 20
192.097573
 30
0.0
 40
0.2
100
AcDbArc
 50
270.0
 51
340.029872
  0
LINE
  5
3C2
100
AcDbEntity
  8
0
100
AcDbLine
 10
189.560355
 20
185.954135
 30
0.0
 11
189.508939
 21
187.193615
 31
0.0
  0
LINE
  5
3C3
100
AcDbEntity
  8
0
100
AcDbLine
 10
189.257518
 20
185.913878
 30
0.0
 11
189.17889
 21
186.81495
 31
0.0
  0
LINE
  5
3C4
100
AcDbEntity
  8
0
100
AcDbLine
 10
189.208907
 20
186.470573
 30
0.0
 11
189.208907
 21
187.317523
 31
0.0
  0
ARC
  5
3C5
100
AcDbEntity
  8
0
100
AcDbCircle
 10
188.979647
 20
186.797563
 30
0.0
 40
0.2
100
AcDbArc
 50
4.98705
 51
90.0
  0
LINE
  5
3C6
100
AcDbEntity
  8
0
100
AcDbLine
 10
190.308907
 20
188.417533
 30
0.0
 11
190.308907
 21
192.097573
 31
0.0
  0
LINE
  5
3C7
100
AcDbEntity
  8
0
100
AcDbLine
 10
190.608907
 20
188.293573
 30
0.0
 11
190.608907
 21
192.097573
 31
0.0
  0
LINE
  5
3C8
100
AcDbEntity
  8
0
100
AcDbLine
 10
190.938907
 20
192.697583
 30
0.0
 11
190.438927
 21
192.697583
 31
0.0
  0
ARC
  5
3C9
100
AcDbEntity
  8
0
100
AcDbCircle
 10
190.308907
 20
192.097573
 30
0.0
 40
0.3
100
AcDbArc
 50
0.0
 51
90.0
  0
LINE
  5
3CA
100
AcDbEntity
  8
0
100
AcDbLine
 10
190.438927
 20
192.697583
 30
0.0
 11
190.064897
 21
193.071613
 31
0.0
  0
LINE
  5
3CB
100
AcDbEntity
  8
0
100
AcDbLine
 10
190.128905
 20
186.090635
 30
0.0
 11
189.913374
 21
185.833846
 31
0.0
  0
LINE
  5
3CC
100
AcDbEntity
  8
0
100
AcDbLine
 10
190.092906
 20
186.513582
 30
0.0
 11
189.899933
 21
186.28361
 31
0.0
  0
LINE
  5
3CD
100
AcDbEntity
  8
0
100
AcDbLine
 10
189.899933
 20
186.28361
 30
0.0
 11
190.128905
 21
186.090635
 31
0.0
  0
LINE
  5
3CE
100
AcDbEntity
  8
0
100
AcDbLine
 10
190.938907
 20
185.897573
 30
0.0
 11
190.35888
 21
185.897573
 31
0.0
  0
ARC
  5
3CF
100
AcDbEntity
  8
0
100
AcDbCircle
 10
190.12965
 20
186.091103
 30
0.0
 40
0.3
100
AcDbArc
 50
319.909786
 51
49.996276
  0
LINE
  5
3D0
100
AcDbEntity
  8
0
100
AcDbLine
 10
190.092906
 20
186.513582
 30
0.0
 11
190.322501
 21
186.320904
 31
0.0
  0
LINE
  5
3D1
100
AcDbEntity
  8
0
100
AcDbLine
 10
190.359159
 20
185.897905
 30
0.0
 11
190.138141
 21
185.635346
 31
0.0
  0
ARC
  5
3D2
100
AcDbEntity
  8
0
100
AcDbCircle
 10
190.938907
 20
192.897583
 30
0.0
 40
0.2
100
AcDbArc
 50
270.0
 51
0.0
  0
ARC
  5
3D3
100
AcDbEntity
  8
0
100
AcDbCircle
 10
190.938907
 20
185.697573
 30
0.0
 40
0.2
100
AcDbArc
 50
0.0
 51
90.0
  0
ARC
  5
3D4
100
AcDbEntity
  8
0
100
AcDbCircle
 10
189.640907
 20
192.647573
 30
0.0
 40
0.599648
100
AcDbArc
 50
45.0
 51
92.804841
  0
LINE
  5
3D5
100
AcDbEntity
  8
0
100
AcDbLine
 10
189.688907
 20
192.097573
 30
0.0
 11
190.308907
 21
192.097573
 31
0.0
  0
LINE
  5
3D6
100
AcDbEntity
  8
0
100
AcDbLine
 10
190.308907
 20
192.397573
 30
0.0
 11
189.688907
 21
192.397573
 31
0.0
  0
LINE
  5
3D7
100
AcDbEntity
  8
0
100
AcDbLine
 10
189.208907
 20
187.317523
 30
0.0
 11
190.308907
 21
188.417533
 31
0.0
  0
ARC
  5
3D8
100
AcDbEntity
  8
0
100
AcDbCircle
 10
189.760183
 20
185.962425
 30
0.0
 40
0.2
100
AcDbArc
 50
182.37537
 51
319.992225
  0
LINE
  5
3D9
100
AcDbEntity
  8
0
100
AcDbLine
 10
189.508939
 20
187.193615
 30
0.0
 11
190.608907
 21
188.293573
 31
0.0
  0
LINE
  5
3DA
100
AcDbEntity
  8
0
  6
DASHED
 62
     3
100
AcDbLine
 10
198.088907
 20
180.497563
 30
0.0
 11
193.188907
 21
180.497563
 31
0.0
  0
ARC
  5
3DB
100
AcDbEntity
  8
0
100
AcDbCircle
 10
189.538907
 20
195.097563
 30
0.0
 40
1.6
100
AcDbArc
 50
0.0
 51
90.0
  0
LINE
  5
3DC
100
AcDbEntity
  8
0
100
AcDbLine
 10
204.188907
 20
166.197563
 30
0.0
 11
204.188907
 21
179.697563
 31
0.0
  0
LINE
  5
3DD
100
AcDbEntity
  8
0
100
AcDbLine
 10
238.188907
 20
179.697563
 30
0.0
 11
204.188907
 21
179.697563
 31
0.0
  0
CIRCLE
  5
3DE
100
AcDbEntity
  8
0
100
AcDbCircle
 10
227.238907
 20
189.447563
 30
0.0
 40
3.96875
  0
LINE
  5
3DF
100
AcDbEntity
  8
0
100
AcDbLine
 10
221.838907
 20
196.697563
 30
0.0
 11
232.638907
 21
196.697563
 31
0.0
  0
LINE
  5
3E0
100
AcDbEntity
  8
0
100
AcDbLine
 10
221.838907
 20
183.197563
 30
0.0
 11
234.238907
 21
183.197563
 31
0.0
  0
ARC
  5
3E1
100
AcDbEntity
  8
0
100
AcDbCircle
 10
221.622189
 20
185.957343
 30
0.0
 40
0.5
100
AcDbArc
 50
220.090214
 51
355.01295
  0
ARC
  5
3E2
100
AcDbEntity
  8
0
100
AcDbCircle
 10
221.838907
 20
184.797563
 30
0.0
 40
1.6
100
AcDbArc
 50
180.0
 51
270.0
  0
LINE
  5
3E3
100
AcDbEntity
  8
0
100
AcDbLine
 10
221.868875
 20
187.193615
 30
0.0
 11
220.768907
 21
188.293573
 31
0.0
  0
ARC
  5
3E4
100
AcDbEntity
  8
0
100
AcDbCircle
 10
221.617631
 20
185.962425
 30
0.0
 40
0.2
100
AcDbArc
 50
220.007775
 51
357.62463
  0
LINE
  5
3E5
100
AcDbEntity
  8
0
100
AcDbLine
 10
222.168907
 20
187.317523
 30
0.0
 11
221.068907
 21
188.417533
 31
0.0
  0
LINE
  5
3E6
100
AcDbEntity
  8
0
100
AcDbLine
 10
221.068907
 20
192.397573
 30
0.0
 11
221.688907
 21
192.397573
 31
0.0
  0
LINE
  5
3E7
100
AcDbEntity
  8
0
100
AcDbLine
 10
221.688907
 20
192.097573
 30
0.0
 11
221.068907
 21
192.097573
 31
0.0
  0
ARC
  5
3E8
100
AcDbEntity
  8
0
100
AcDbCircle
 10
221.736907
 20
192.647573
 30
0.0
 40
0.599648
100
AcDbArc
 50
87.195159
 51
135.0
  0
LINE
  5
3E9
100
AcDbEntity
  8
0
100
AcDbLine
 10
221.018654
 20
185.897905
 30
0.0
 11
221.239673
 21
185.635346
 31
0.0
  0
LINE
  5
3EA
100
AcDbEntity
  8
0
100
AcDbLine
 10
221.284908
 20
186.513582
 30
0.0
 11
221.055313
 21
186.320904
 31
0.0
  0
ARC
  5
3EB
100
AcDbEntity
  8
0
100
AcDbCircle
 10
221.248164
 20
186.091103
 30
0.0
 40
0.3
100
AcDbArc
 50
130.003724
 51
220.090214
  0
ARC
  5
3EC
100
AcDbEntity
  8
0
100
AcDbCircle
 10
220.438907
 20
185.697573
 30
0.0
 40
0.2
100
AcDbArc
 50
90.0
 51
180.0
  0
LINE
  5
3ED
100
AcDbEntity
  8
0
100
AcDbLine
 10
220.438907
 20
185.897573
 30
0.0
 11
221.018934
 21
185.897573
 31
0.0
  0
LINE
  5
3EE
100
AcDbEntity
  8
0
100
AcDbLine
 10
221.477881
 20
186.28361
 30
0.0
 11
221.248909
 21
186.090635
 31
0.0
  0
LINE
  5
3EF
100
AcDbEntity
  8
0
100
AcDbLine
 10
221.284908
 20
186.513582
 30
0.0
 11
221.477881
 21
186.28361
 31
0.0
  0
LINE
  5
3F0
100
AcDbEntity
  8
0
100
AcDbLine
 10
221.248909
 20
186.090635
 30
0.0
 11
221.464439
 21
185.833846
 31
0.0
  0
LINE
  5
3F1
100
AcDbEntity
  8
0
100
AcDbLine
 10
220.938887
 20
192.697583
 30
0.0
 11
221.312917
 21
193.071613
 31
0.0
  0
ARC
  5
3F2
100
AcDbEntity
  8
0
100
AcDbCircle
 10
221.068907
 20
192.097573
 30
0.0
 40
0.3
100
AcDbArc
 50
90.0
 51
180.0
  0
LINE
  5
3F3
100
AcDbEntity
  8
0
100
AcDbLine
 10
220.438907
 20
192.697583
 30
0.0
 11
220.938887
 21
192.697583
 31
0.0
  0
ARC
  5
3F4
100
AcDbEntity
  8
0
100
AcDbCircle
 10
220.438907
 20
192.897583
 30
0.0
 40
0.2
100
AcDbArc
 50
180.0
 51
270.0
  0
LINE
  5
3F5
100
AcDbEntity
  8
0
100
AcDbLine
 10
220.768907
 20
188.293573
 30
0.0
 11
220.768907
 21
192.097573
 31
0.0
  0
LINE
  5
3F6
100
AcDbEntity
  8
0
100
AcDbLine
 10
221.068907
 20
188.417533
 30
0.0
 11
221.068907
 21
192.097573
 31
0.0
  0
LINE
  5
3F7
100
AcDbEntity
  8
0
100
AcDbLine
 10
222.398167
 20
186.997563
 30
0.0
 11
224.116652
 21
186.997563
 31
0.0
  0
ARC
  5
3F8
100
AcDbEntity
  8
0
100
AcDbCircle
 10
222.398167
 20
186.797563
 30
0.0
 40
0.2
100
AcDbArc
 50
90.0
 51
175.01295
  0
LINE
  5
3F9
100
AcDbEntity
  8
0
100
AcDbLine
 10
222.168907
 20
186.470573
 30
0.0
 11
222.168907
 21
187.317523
 31
0.0
  0
LINE
  5
3FA
100
AcDbEntity
  8
0
100
AcDbLine
 10
222.120296
 20
185.913878
 30
0.0
 11
222.198924
 21
186.81495
 31
0.0
  0
LINE
  5
3FB
100
AcDbEntity
  8
0
100
AcDbLine
 10
221.817459
 20
185.954135
 30
0.0
 11
221.868875
 21
187.193615
 31
0.0
  0
LINE
  5
3FC
100
AcDbEntity
  8
0
100
AcDbLine
 10
222.57995
 20
191.897573
 30
0.0
 11
224.11666
 21
191.897573
 31
0.0
  0
ARC
  5
3FD
100
AcDbEntity
  8
0
100
AcDbCircle
 10
222.57995
 20
192.097573
 30
0.0
 40
0.2
100
AcDbArc
 50
199.970128
 51
270.0
  0
LINE
  5
3FE
100
AcDbEntity
  8
0
100
AcDbLine
 10
221.688907
 20
192.397573
 30
0.0
 11
221.688907
 21
192.097573
 31
0.0
  0
ARC
  5
3FF
100
AcDbEntity
  8
0
100
AcDbCircle
 10
221.738907
 20
192.947583
 30
0.0
 40
0.300167
100
AcDbArc
 50
19.970128
 51
94.462605
  0
LINE
  5
400
100
AcDbEntity
  8
0
100
AcDbLine
 10
222.020897
 20
193.050453
 30
0.0
 11
222.391975
 21
192.029267
 31
0.0
  0
ARC
  5
401
100
AcDbEntity
  8
0
100
AcDbCircle
 10
221.838907
 20
195.097563
 30
0.0
 40
1.6
100
AcDbArc
 50
90.0
 51
180.0
  0
ARC
  5
402
100
AcDbEntity
  8
0
100
AcDbCircle
 10
232.855625
 20
185.957343
 30
0.0
 40
0.5
100
AcDbArc
 50
184.98705
 51
319.909786
  0
ARC
  5
403
100
AcDbEntity
  8
0
100
AcDbCircle
 10
232.638907
 20
184.797563
 30
0.0
 40
1.6
100
AcDbArc
 50
270.0
 51
0.0
  0
LINE
  5
404
100
AcDbEntity
  8
0
100
AcDbLine
 10
236.188907
 20
183.197563
 30
0.0
 11
238.188907
 21
183.197563
 31
0.0
  0
LINE
  5
405
100
AcDbEntity
  8
0
100
AcDbLine
 10
236.188907
 20
181.947563
 30
0.0
 11
234.238907
 21
181.947563
 31
0.0
  0
LINE
  5
406
100
AcDbEntity
  8
0
100
AcDbLine
 10
232.608939
 20
187.193615
 30
0.0
 11
233.708907
 21
188.293573
 31
0.0
  0
LINE
  5
407
100
AcDbEntity
  8
0
100
AcDbLine
 10
233.192906
 20
186.513582
 30
0.0
 11
232.999933
 21
186.28361
 31
0.0
  0
LINE
  5
408
100
AcDbEntity
  8
0
100
AcDbLine
 10
232.999933
 20
186.28361
 30
0.0
 11
233.228905
 21
186.090635
 31
0.0
  0
LINE
  5
409
100
AcDbEntity
  8
0
100
AcDbLine
 10
233.228905
 20
186.090635
 30
0.0
 11
233.013374
 21
185.833846
 31
0.0
  0
LINE
  5
40A
100
AcDbEntity
  8
0
100
AcDbLine
 10
233.538927
 20
192.697583
 30
0.0
 11
233.164897
 21
193.071613
 31
0.0
  0
LINE
  5
40B
100
AcDbEntity
  8
0
100
AcDbLine
 10
232.788907
 20
192.097573
 30
0.0
 11
233.408907
 21
192.097573
 31
0.0
  0
LINE
  5
40C
100
AcDbEntity
  8
0
100
AcDbLine
 10
233.408907
 20
192.397573
 30
0.0
 11
232.788907
 21
192.397573
 31
0.0
  0
LINE
  5
40D
100
AcDbEntity
  8
0
100
AcDbLine
 10
232.308907
 20
187.317523
 30
0.0
 11
233.408907
 21
188.417533
 31
0.0
  0
ARC
  5
40E
100
AcDbEntity
  8
0
100
AcDbCircle
 10
232.860183
 20
185.962425
 30
0.0
 40
0.2
100
AcDbArc
 50
182.37537
 51
319.992225
  0
LINE
  5
40F
100
AcDbEntity
  8
0
100
AcDbLine
 10
232.660355
 20
185.954135
 30
0.0
 11
232.608939
 21
187.193615
 31
0.0
  0
ARC
  5
410
100
AcDbEntity
  8
0
100
AcDbCircle
 10
232.738907
 20
192.947583
 30
0.0
 40
0.300167
100
AcDbArc
 50
85.537395
 51
160.029872
  0
LINE
  5
411
100
AcDbEntity
  8
0
100
AcDbLine
 10
232.788907
 20
192.397573
 30
0.0
 11
232.788907
 21
192.097573
 31
0.0
  0
ARC
  5
412
100
AcDbEntity
  8
0
100
AcDbCircle
 10
232.740907
 20
192.647573
 30
0.0
 40
0.599648
100
AcDbArc
 50
45.0
 51
92.804841
  0
LINE
  5
413
100
AcDbEntity
  8
0
100
AcDbLine
 10
232.079647
 20
186.997563
 30
0.0
 11
230.361162
 21
186.997563
 31
0.0
  0
LINE
  5
414
100
AcDbEntity
  8
0
100
AcDbLine
 10
232.308907
 20
186.470573
 30
0.0
 11
232.308907
 21
187.317523
 31
0.0
  0
ARC
  5
415
100
AcDbEntity
  8
0
100
AcDbCircle
 10
232.079647
 20
186.797563
 30
0.0
 40
0.2
100
AcDbArc
 50
4.98705
 51
90.0
  0
LINE
  5
416
100
AcDbEntity
  8
0
100
AcDbLine
 10
231.897864
 20
191.897573
 30
0.0
 11
230.361154
 21
191.897573
 31
0.0
  0
ARC
  5
417
100
AcDbEntity
  8
0
100
AcDbCircle
 10
231.897864
 20
192.097573
 30
0.0
 40
0.2
100
AcDbArc
 50
270.0
 51
340.029872
  0
LINE
  5
418
100
AcDbEntity
  8
0
100
AcDbLine
 10
232.456917
 20
193.050453
 30
0.0
 11
232.085838
 21
192.029267
 31
0.0
  0
LINE
  5
419
100
AcDbEntity
  8
0
100
AcDbLine
 10
232.357518
 20
185.913878
 30
0.0
 11
232.27889
 21
186.81495
 31
0.0
  0
LINE
  5
41A
100
AcDbEntity
  8
0
100
AcDbLine
 10
236.188907
 20
186.447563
 30
0.0
 11
234.238907
 21
186.447563
 31
0.0
  0
LINE
  5
41B
100
AcDbEntity
  8
0
100
AcDbLine
 10
234.038907
 20
185.897573
 30
0.0
 11
233.45888
 21
185.897573
 31
0.0
  0
ARC
  5
41C
100
AcDbEntity
  8
0
100
AcDbCircle
 10
233.22965
 20
186.091103
 30
0.0
 40
0.3
100
AcDbArc
 50
319.909786
 51
49.996276
  0
LINE
  5
41D
100
AcDbEntity
  8
0
100
AcDbLine
 10
233.459159
 20
185.897905
 30
0.0
 11
233.238141
 21
185.635346
 31
0.0
  0
LINE
  5
41E
100
AcDbEntity
  8
0
100
AcDbLine
 10
233.192906
 20
186.513582
 30
0.0
 11
233.422501
 21
186.320904
 31
0.0
  0
ARC
  5
41F
100
AcDbEntity
  8
0
100
AcDbCircle
 10
234.038907
 20
185.697573
 30
0.0
 40
0.2
100
AcDbArc
 50
0.0
 51
90.0
  0
ARC
  5
420
100
AcDbEntity
  8
0
100
AcDbCircle
 10
233.408907
 20
192.097573
 30
0.0
 40
0.3
100
AcDbArc
 50
0.0
 51
90.0
  0
LINE
  5
421
100
AcDbEntity
  8
0
100
AcDbLine
 10
234.038907
 20
192.697583
 30
0.0
 11
233.538927
 21
192.697583
 31
0.0
  0
ARC
  5
422
100
AcDbEntity
  8
0
100
AcDbCircle
 10
234.038907
 20
192.897583
 30
0.0
 40
0.2
100
AcDbArc
 50
270.0
 51
0.0
  0
LINE
  5
423
100
AcDbEntity
  8
0
100
AcDbLine
 10
233.408907
 20
188.417533
 30
0.0
 11
233.408907
 21
192.097573
 31
0.0
  0
LINE
  5
424
100
AcDbEntity
  8
0
100
AcDbLine
 10
233.708907
 20
188.293573
 30
0.0
 11
233.708907
 21
192.097573
 31
0.0
  0
ARC
  5
425
100
AcDbEntity
  8
0
100
AcDbCircle
 10
232.638907
 20
195.097563
 30
0.0
 40
1.6
100
AcDbArc
 50
0.0
 51
90.0
  0
LINE
  5
426
100
AcDbEntity
  8
CENTER
  6
CENTER
 62
     1
100
AcDbLine
 10
206.188907
 20
236.197563
 30
0.0
 11
191.188907
 21
236.197563
 31
0.0
  0
LINE
  5
427
100
AcDbEntity
  8
0
100
AcDbLine
 10
220.238907
 20
226.697563
 30
0.0
 11
191.138907
 21
226.697563
 31
0.0
  0
LINE
  5
428
100
AcDbEntity
  8
0
  6
DASHED
 62
     3
100
AcDbLine
 10
204.188907
 20
230.697563
 30
0.0
 11
198.088907
 21
230.697563
 31
0.0
  0
LINE
  5
429
100
AcDbEntity
  8
0
  6
DASHED
 62
     3
100
AcDbLine
 10
204.188907
 20
241.697563
 30
0.0
 11
198.088907
 21
241.697563
 31
0.0
  0
LINE
  5
42A
100
AcDbEntity
  8
0
100
AcDbLine
 10
204.188907
 20
247.197563
 30
0.0
 11
193.188907
 21
247.197563
 31
0.0
  0
LINE
  5
42B
100
AcDbEntity
  8
0
100
AcDbLine
 10
193.188907
 20
247.197563
 30
0.0
 11
193.188907
 21
233.697563
 31
0.0
  0
LINE
  5
42C
100
AcDbEntity
  8
0
100
AcDbLine
 10
179.298167
 20
226.397563
 30
0.0
 11
181.016652
 21
226.397563
 31
0.0
  0
LINE
  5
42D
100
AcDbEntity
  8
0
100
AcDbLine
 10
179.47995
 20
221.497553
 30
0.0
 11
181.01666
 21
221.497553
 31
0.0
  0
LINE
  5
42E
100
AcDbEntity
  8
0
100
AcDbLine
 10
189.538907
 20
230.197563
 30
0.0
 11
177.138907
 21
230.197563
 31
0.0
  0
LINE
  5
42F
100
AcDbEntity
  8
0
100
AcDbLine
 10
189.538907
 20
216.697563
 30
0.0
 11
178.738907
 21
216.697563
 31
0.0
  0
CIRCLE
  5
430
100
AcDbEntity
  8
0
100
AcDbCircle
 10
184.138907
 20
223.947563
 30
0.0
 40
3.96875
  0
LINE
  5
431
100
AcDbEntity
  8
0
100
AcDbLine
 10
193.188907
 20
233.697563
 30
0.0
 11
173.188907
 21
233.697563
 31
0.0
  0
LINE
  5
432
100
AcDbEntity
  8
0
100
AcDbLine
 10
179.068907
 20
226.924553
 30
0.0
 11
179.068907
 21
226.077603
 31
0.0
  0
ARC
  5
433
100
AcDbEntity
  8
0
100
AcDbCircle
 10
179.298167
 20
226.597563
 30
0.0
 40
0.2
100
AcDbArc
 50
184.98705
 51
270.0
  0
LINE
  5
434
100
AcDbEntity
  8
0
100
AcDbLine
 10
178.717459
 20
227.440991
 30
0.0
 11
178.768875
 21
226.201511
 31
0.0
  0
ARC
  5
435
100
AcDbEntity
  8
0
100
AcDbCircle
 10
178.738907
 20
218.297563
 30
0.0
 40
1.6
100
AcDbArc
 50
180.0
 51
270.0
  0
LINE
  5
436
100
AcDbEntity
  8
0
100
AcDbLine
 10
177.968907
 20
224.977593
 30
0.0
 11
177.968907
 21
221.297553
 31
0.0
  0
LINE
  5
437
100
AcDbEntity
  8
0
100
AcDbLine
 10
177.668907
 20
225.101553
 30
0.0
 11
177.668907
 21
221.297553
 31
0.0
  0
ARC
  5
438
100
AcDbEntity
  8
0
100
AcDbCircle
 10
177.968907
 20
221.297553
 30
0.0
 40
0.3
100
AcDbArc
 50
180.0
 51
270.0
  0
LINE
  5
439
100
AcDbEntity
  8
0
100
AcDbLine
 10
177.338907
 20
220.697543
 30
0.0
 11
177.838887
 21
220.697543
 31
0.0
  0
ARC
  5
43A
100
AcDbEntity
  8
0
100
AcDbCircle
 10
177.338907
 20
220.497543
 30
0.0
 40
0.2
100
AcDbArc
 50
90.0
 51
180.0
  0
ARC
  5
43B
100
AcDbEntity
  8
0
100
AcDbCircle
 10
178.638907
 20
220.447543
 30
0.0
 40
0.300167
100
AcDbArc
 50
265.537395
 51
340.029872
  0
ARC
  5
43C
100
AcDbEntity
  8
0
100
AcDbCircle
 10
179.47995
 20
221.297553
 30
0.0
 40
0.2
100
AcDbArc
 50
90.0
 51
160.029872
  0
LINE
  5
43D
100
AcDbEntity
  8
0
100
AcDbLine
 10
178.920897
 20
220.344673
 30
0.0
 11
179.291975
 21
221.365859
 31
0.0
  0
LINE
  5
43E
100
AcDbEntity
  8
0
100
AcDbLine
 10
178.588907
 20
220.997553
 30
0.0
 11
178.588907
 21
221.297553
 31
0.0
  0
ARC
  5
43F
100
AcDbEntity
  8
0
100
AcDbCircle
 10
178.636907
 20
220.747553
 30
0.0
 40
0.599648
100
AcDbArc
 50
225.0
 51
272.804841
  0
LINE
  5
440
100
AcDbEntity
  8
0
100
AcDbLine
 10
177.838887
 20
220.697543
 30
0.0
 11
178.212917
 21
220.323513
 31
0.0
  0
LINE
  5
441
100
AcDbEntity
  8
0
100
AcDbLine
 10
178.588907
 20
221.297553
 30
0.0
 11
177.968907
 21
221.297553
 31
0.0
  0
LINE
  5
442
100
AcDbEntity
  8
0
100
AcDbLine
 10
177.968907
 20
220.997553
 30
0.0
 11
178.588907
 21
220.997553
 31
0.0
  0
LINE
  5
443
100
AcDbEntity
  8
0
100
AcDbLine
 10
178.768875
 20
226.201511
 30
0.0
 11
177.668907
 21
225.101553
 31
0.0
  0
LINE
  5
444
100
AcDbEntity
  8
0
100
AcDbLine
 10
179.068907
 20
226.077603
 30
0.0
 11
177.968907
 21
224.977593
 31
0.0
  0
LINE
  5
445
100
AcDbEntity
  8
0
100
AcDbLine
 10
175.188907
 20
230.197563
 30
0.0
 11
173.188907
 21
230.197563
 31
0.0
  0
LINE
  5
446
100
AcDbEntity
  8
0
100
AcDbLine
 10
175.188907
 20
226.947563
 30
0.0
 11
177.138907
 21
226.947563
 31
0.0
  0
LINE
  5
447
100
AcDbEntity
  8
0
100
AcDbLine
 10
177.338907
 20
227.497553
 30
0.0
 11
177.918934
 21
227.497553
 31
0.0
  0
ARC
  5
448
100
AcDbEntity
  8
0
100
AcDbCircle
 10
178.148164
 20
227.304024
 30
0.0
 40
0.3
100
AcDbArc
 50
139.909786
 51
229.996276
  0
LINE
  5
449
100
AcDbEntity
  8
0
100
AcDbLine
 10
177.918654
 20
227.497222
 30
0.0
 11
178.139673
 21
227.75978
 31
0.0
  0
LINE
  5
44A
100
AcDbEntity
  8
0
100
AcDbLine
 10
178.184908
 20
226.881544
 30
0.0
 11
177.955313
 21
227.074223
 31
0.0
  0
ARC
  5
44B
100
AcDbEntity
  8
0
100
AcDbCircle
 10
177.338907
 20
227.697553
 30
0.0
 40
0.2
100
AcDbArc
 50
180.0
 51
270.0
  0
LINE
  5
44C
100
AcDbEntity
  8
0
100
AcDbLine
 10
175.188907
 20
231.447563
 30
0.0
 11
177.138907
 21
231.447563
 31
0.0
  0
LINE
  5
44D
100
AcDbEntity
  8
0
100
AcDbLine
 10
179.020296
 20
227.481249
 30
0.0
 11
179.098924
 21
226.580177
 31
0.0
  0
ARC
  5
44E
100
AcDbEntity
  8
0
100
AcDbCircle
 10
178.517631
 20
227.432702
 30
0.0
 40
0.2
100
AcDbArc
 50
2.37537
 51
139.992225
  0
ARC
  5
44F
100
AcDbEntity
  8
0
100
AcDbCircle
 10
178.522189
 20
227.437784
 30
0.0
 40
0.5
100
AcDbArc
 50
4.98705
 51
139.909786
  0
LINE
  5
450
100
AcDbEntity
  8
0
100
AcDbLine
 10
178.184908
 20
226.881544
 30
0.0
 11
178.377881
 21
227.111517
 31
0.0
  0
LINE
  5
451
100
AcDbEntity
  8
0
100
AcDbLine
 10
178.377881
 20
227.111517
 30
0.0
 11
178.148909
 21
227.304492
 31
0.0
  0
LINE
  5
452
100
AcDbEntity
  8
0
100
AcDbLine
 10
178.148909
 20
227.304492
 30
0.0
 11
178.364439
 21
227.56128
 31
0.0
  0
ARC
  5
453
100
AcDbEntity
  8
0
100
AcDbCircle
 10
178.738907
 20
228.597563
 30
0.0
 40
1.6
100
AcDbArc
 50
90.0
 51
180.0
  0
ARC
  5
454
100
AcDbEntity
  8
0
100
AcDbCircle
 10
188.979647
 20
226.597563
 30
0.0
 40
0.2
100
AcDbArc
 50
270.0
 51
355.01295
  0
LINE
  5
455
100
AcDbEntity
  8
0
100
AcDbLine
 10
189.208907
 20
226.924553
 30
0.0
 11
189.208907
 21
226.077603
 31
0.0
  0
LINE
  5
456
100
AcDbEntity
  8
0
100
AcDbLine
 10
189.560355
 20
227.440991
 30
0.0
 11
189.508939
 21
226.201511
 31
0.0
  0
ARC
  5
457
100
AcDbEntity
  8
0
100
AcDbCircle
 10
189.538907
 20
218.297563
 30
0.0
 40
1.6
100
AcDbArc
 50
270.0
 51
0.0
  0
LINE
  5
458
100
AcDbEntity
  8
0
100
AcDbLine
 10
188.979647
 20
226.397563
 30
0.0
 11
187.261162
 21
226.397563
 31
0.0
  0
LINE
  5
459
100
AcDbEntity
  8
0
100
AcDbLine
 10
188.797864
 20
221.497553
 30
0.0
 11
187.261154
 21
221.497553
 31
0.0
  0
LINE
  5
45A
100
AcDbEntity
  8
0
100
AcDbLine
 10
189.356917
 20
220.344673
 30
0.0
 11
188.985838
 21
221.365859
 31
0.0
  0
LINE
  5
45B
100
AcDbEntity
  8
0
100
AcDbLine
 10
189.688907
 20
220.997553
 30
0.0
 11
189.688907
 21
221.297553
 31
0.0
  0
ARC
  5
45C
100
AcDbEntity
  8
0
100
AcDbCircle
 10
189.638907
 20
220.447543
 30
0.0
 40
0.300167
100
AcDbArc
 50
199.970128
 51
274.462605
  0
ARC
  5
45D
100
AcDbEntity
  8
0
100
AcDbCircle
 10
188.797864
 20
221.297553
 30
0.0
 40
0.2
100
AcDbArc
 50
19.970128
 51
90.0
  0
LINE
  5
45E
100
AcDbEntity
  8
0
100
AcDbLine
 10
190.608907
 20
225.101553
 30
0.0
 11
190.608907
 21
221.297553
 31
0.0
  0
LINE
  5
45F
100
AcDbEntity
  8
0
100
AcDbLine
 10
190.308907
 20
224.977593
 30
0.0
 11
190.308907
 21
221.297553
 31
0.0
  0
LINE
  5
460
100
AcDbEntity
  8
0
100
AcDbLine
 10
190.438927
 20
220.697543
 30
0.0
 11
190.064897
 21
220.323513
 31
0.0
  0
ARC
  5
461
100
AcDbEntity
  8
0
100
AcDbCircle
 10
190.308907
 20
221.297553
 30
0.0
 40
0.3
100
AcDbArc
 50
270.0
 51
0.0
  0
LINE
  5
462
100
AcDbEntity
  8
0
100
AcDbLine
 10
190.938907
 20
220.697543
 30
0.0
 11
190.438927
 21
220.697543
 31
0.0
  0
ARC
  5
463
100
AcDbEntity
  8
0
100
AcDbCircle
 10
190.938907
 20
220.497543
 30
0.0
 40
0.2
100
AcDbArc
 50
0.0
 51
90.0
  0
LINE
  5
464
100
AcDbEntity
  8
0
100
AcDbLine
 10
190.308907
 20
220.997553
 30
0.0
 11
189.688907
 21
220.997553
 31
0.0
  0
LINE
  5
465
100
AcDbEntity
  8
0
100
AcDbLine
 10
189.688907
 20
221.297553
 30
0.0
 11
190.308907
 21
221.297553
 31
0.0
  0
ARC
  5
466
100
AcDbEntity
  8
0
100
AcDbCircle
 10
189.640907
 20
220.747553
 30
0.0
 40
0.599648
100
AcDbArc
 50
267.195159
 51
315.0
  0
LINE
  5
467
100
AcDbEntity
  8
0
100
AcDbLine
 10
189.208907
 20
226.077603
 30
0.0
 11
190.308907
 21
224.977593
 31
0.0
  0
LINE
  5
468
100
AcDbEntity
  8
0
100
AcDbLine
 10
189.508939
 20
226.201511
 30
0.0
 11
190.608907
 21
225.101553
 31
0.0
  0
LINE
  5
469
100
AcDbEntity
  8
0
100
AcDbLine
 10
189.257518
 20
227.481249
 30
0.0
 11
189.17889
 21
226.580177
 31
0.0
  0
LINE
  5
46A
100
AcDbEntity
  8
0
100
AcDbLine
 10
190.359159
 20
227.497222
 30
0.0
 11
190.138141
 21
227.75978
 31
0.0
  0
LINE
  5
46B
100
AcDbEntity
  8
0
100
AcDbLine
 10
190.092906
 20
226.881544
 30
0.0
 11
190.322501
 21
227.074223
 31
0.0
  0
ARC
  5
46C
100
AcDbEntity
  8
0
100
AcDbCircle
 10
190.12965
 20
227.304024
 30
0.0
 40
0.3
100
AcDbArc
 50
310.003724
 51
40.090214
  0
LINE
  5
46D
100
AcDbEntity
  8
0
100
AcDbLine
 10
190.938907
 20
227.497553
 30
0.0
 11
190.35888
 21
227.497553
 31
0.0
  0
LINE
  5
46E
100
AcDbEntity
  8
0
100
AcDbLine
 10
189.899933
 20
227.111517
 30
0.0
 11
190.128905
 21
227.304492
 31
0.0
  0
LINE
  5
46F
100
AcDbEntity
  8
0
100
AcDbLine
 10
190.092906
 20
226.881544
 30
0.0
 11
189.899933
 21
227.111517
 31
0.0
  0
LINE
  5
470
100
AcDbEntity
  8
0
100
AcDbLine
 10
190.128905
 20
227.304492
 30
0.0
 11
189.913374
 21
227.56128
 31
0.0
  0
ARC
  5
471
100
AcDbEntity
  8
0
100
AcDbCircle
 10
190.938907
 20
227.697553
 30
0.0
 40
0.2
100
AcDbArc
 50
270.0
 51
0.0
  0
ARC
  5
472
100
AcDbEntity
  8
0
100
AcDbCircle
 10
189.760183
 20
227.432702
 30
0.0
 40
0.2
100
AcDbArc
 50
40.007775
 51
177.62463
  0
ARC
  5
473
100
AcDbEntity
  8
0
100
AcDbCircle
 10
189.755625
 20
227.437784
 30
0.0
 40
0.5
100
AcDbArc
 50
40.090214
 51
175.01295
  0
ARC
  5
474
100
AcDbEntity
  8
0
100
AcDbCircle
 10
189.538907
 20
228.597563
 30
0.0
 40
1.6
100
AcDbArc
 50
0.0
 51
90.0
  0
LINE
  5
475
100
AcDbEntity
  8
0
  6
DASHED
 62
     3
100
AcDbLine
 10
198.088907
 20
241.697563
 30
0.0
 11
198.088907
 21
230.697563
 31
0.0
  0
LINE
  5
476
100
AcDbEntity
  8
0
  6
DASHED
 62
     3
100
AcDbLine
 10
198.088907
 20
232.897563
 30
0.0
 11
193.188907
 21
232.897563
 31
0.0
  0
LINE
  5
477
100
AcDbEntity
  8
0
  6
DASHED
 62
     3
100
AcDbLine
 10
198.088907
 20
239.497563
 30
0.0
 11
193.188907
 21
239.497563
 31
0.0
  0
LINE
  5
478
100
AcDbEntity
  8
0
100
AcDbLine
 10
201.438907
 20
247.197563
 30
0.0
 11
201.438907
 21
247.197663
 31
0.0
  0
LINE
  5
479
100
AcDbEntity
  8
0
100
AcDbLine
 10
198.688907
 20
247.197563
 30
0.0
 11
198.689007
 21
247.197563
 31
0.0
  0
LINE
  5
47A
100
AcDbEntity
  8
0
100
AcDbLine
 10
204.188907
 20
247.197563
 30
0.0
 11
204.188907
 21
233.697563
 31
0.0
  0
LINE
  5
47B
100
AcDbEntity
  8
0
100
AcDbLine
 10
238.188907
 20
233.697563
 30
0.0
 11
204.188907
 21
233.697563
 31
0.0
  0
CIRCLE
  5
47C
100
AcDbEntity
  8
0
100
AcDbCircle
 10
227.238907
 20
223.947563
 30
0.0
 40
3.96875
  0
LINE
  5
47D
100
AcDbEntity
  8
0
100
AcDbLine
 10
221.838907
 20
216.697563
 30
0.0
 11
232.638907
 21
216.697563
 31
0.0
  0
LINE
  5
47E
100
AcDbEntity
  8
0
100
AcDbLine
 10
221.838907
 20
230.197563
 30
0.0
 11
234.238907
 21
230.197563
 31
0.0
  0
LINE
  5
47F
100
AcDbEntity
  8
0
100
AcDbLine
 10
221.817459
 20
227.440991
 30
0.0
 11
221.868875
 21
226.201511
 31
0.0
  0
LINE
  5
480
100
AcDbEntity
  8
0
100
AcDbLine
 10
222.168907
 20
226.924553
 30
0.0
 11
222.168907
 21
226.077603
 31
0.0
  0
ARC
  5
481
100
AcDbEntity
  8
0
100
AcDbCircle
 10
222.398167
 20
226.597563
 30
0.0
 40
0.2
100
AcDbArc
 50
184.98705
 51
270.0
  0
ARC
  5
482
100
AcDbEntity
  8
0
100
AcDbCircle
 10
221.838907
 20
218.297563
 30
0.0
 40
1.6
100
AcDbArc
 50
180.0
 51
270.0
  0
LINE
  5
483
100
AcDbEntity
  8
0
100
AcDbLine
 10
221.868875
 20
226.201511
 30
0.0
 11
220.768907
 21
225.101553
 31
0.0
  0
LINE
  5
484
100
AcDbEntity
  8
0
100
AcDbLine
 10
222.168907
 20
226.077603
 30
0.0
 11
221.068907
 21
224.977593
 31
0.0
  0
ARC
  5
485
100
AcDbEntity
  8
0
100
AcDbCircle
 10
221.736907
 20
220.747553
 30
0.0
 40
0.599648
100
AcDbArc
 50
225.0
 51
272.804841
  0
LINE
  5
486
100
AcDbEntity
  8
0
100
AcDbLine
 10
221.688907
 20
221.297553
 30
0.0
 11
221.068907
 21
221.297553
 31
0.0
  0
LINE
  5
487
100
AcDbEntity
  8
0
100
AcDbLine
 10
221.068907
 20
220.997553
 30
0.0
 11
221.688907
 21
220.997553
 31
0.0
  0
ARC
  5
488
100
AcDbEntity
  8
0
100
AcDbCircle
 10
220.438907
 20
220.497543
 30
0.0
 40
0.2
100
AcDbArc
 50
90.0
 51
180.0
  0
LINE
  5
489
100
AcDbEntity
  8
0
100
AcDbLine
 10
220.438907
 20
220.697543
 30
0.0
 11
220.938887
 21
220.697543
 31
0.0
  0
ARC
  5
48A
100
AcDbEntity
  8
0
100
AcDbCircle
 10
221.068907
 20
221.297553
 30
0.0
 40
0.3
100
AcDbArc
 50
180.0
 51
270.0
  0
LINE
  5
48B
100
AcDbEntity
  8
0
100
AcDbLine
 10
220.938887
 20
220.697543
 30
0.0
 11
221.312917
 21
220.323513
 31
0.0
  0
LINE
  5
48C
100
AcDbEntity
  8
0
100
AcDbLine
 10
221.068907
 20
224.977593
 30
0.0
 11
221.068907
 21
221.297553
 31
0.0
  0
LINE
  5
48D
100
AcDbEntity
  8
0
100
AcDbLine
 10
220.768907
 20
225.101553
 30
0.0
 11
220.768907
 21
221.297553
 31
0.0
  0
ARC
  5
48E
100
AcDbEntity
  8
0
100
AcDbCircle
 10
222.57995
 20
221.297553
 30
0.0
 40
0.2
100
AcDbArc
 50
90.0
 51
160.029872
  0
ARC
  5
48F
100
AcDbEntity
  8
0
100
AcDbCircle
 10
221.738907
 20
220.447543
 30
0.0
 40
0.300167
100
AcDbArc
 50
265.537395
 51
340.029872
  0
LINE
  5
490
100
AcDbEntity
  8
0
100
AcDbLine
 10
221.688907
 20
220.997553
 30
0.0
 11
221.688907
 21
221.297553
 31
0.0
  0
LINE
  5
491
100
AcDbEntity
  8
0
100
AcDbLine
 10
222.020897
 20
220.344673
 30
0.0
 11
222.391975
 21
221.365859
 31
0.0
  0
LINE
  5
492
100
AcDbEntity
  8
0
100
AcDbLine
 10
222.57995
 20
221.497553
 30
0.0
 11
224.11666
 21
221.497553
 31
0.0
  0
LINE
  5
493
100
AcDbEntity
  8
0
100
AcDbLine
 10
222.398167
 20
226.397563
 30
0.0
 11
224.116652
 21
226.397563
 31
0.0
  0
ARC
  5
494
100
AcDbEntity
  8
0
100
AcDbCircle
 10
221.838907
 20
228.597563
 30
0.0
 40
1.6
100
AcDbArc
 50
90.0
 51
180.0
  0
ARC
  5
495
100
AcDbEntity
  8
0
100
AcDbCircle
 10
221.622189
 20
227.437784
 30
0.0
 40
0.5
100
AcDbArc
 50
4.98705
 51
139.909786
  0
ARC
  5
496
100
AcDbEntity
  8
0
100
AcDbCircle
 10
221.617631
 20
227.432702
 30
0.0
 40
0.2
100
AcDbArc
 50
2.37537
 51
139.992225
  0
LINE
  5
497
100
AcDbEntity
  8
0
100
AcDbLine
 10
221.248909
 20
227.304492
 30
0.0
 11
221.464439
 21
227.56128
 31
0.0
  0
LINE
  5
498
100
AcDbEntity
  8
0
100
AcDbLine
 10
221.284908
 20
226.881544
 30
0.0
 11
221.477881
 21
227.111517
 31
0.0
  0
LINE
  5
499
100
AcDbEntity
  8
0
100
AcDbLine
 10
221.477881
 20
227.111517
 30
0.0
 11
221.248909
 21
227.304492
 31
0.0
  0
LINE
  5
49A
100
AcDbEntity
  8
0
100
AcDbLine
 10
220.438907
 20
227.497553
 30
0.0
 11
221.018934
 21
227.497553
 31
0.0
  0
ARC
  5
49B
100
AcDbEntity
  8
0
100
AcDbCircle
 10
220.438907
 20
227.697553
 30
0.0
 40
0.2
100
AcDbArc
 50
180.0
 51
270.0
  0
ARC
  5
49C
100
AcDbEntity
  8
0
100
AcDbCircle
 10
221.248164
 20
227.304024
 30
0.0
 40
0.3
100
AcDbArc
 50
139.909786
 51
229.996276
  0
LINE
  5
49D
100
AcDbEntity
  8
0
100
AcDbLine
 10
221.284908
 20
226.881544
 30
0.0
 11
221.055313
 21
227.074223
 31
0.0
  0
LINE
  5
49E
100
AcDbEntity
  8
0
100
AcDbLine
 10
221.018654
 20
227.497222
 30
0.0
 11
221.239673
 21
227.75978
 31
0.0
  0
LINE
  5
49F
100
AcDbEntity
  8
0
100
AcDbLine
 10
222.120296
 20
227.481249
 30
0.0
 11
222.198924
 21
226.580177
 31
0.0
  0
LINE
  5
4A0
100
AcDbEntity
  8
0
100
AcDbLine
 10
232.660355
 20
227.440991
 30
0.0
 11
232.608939
 21
226.201511
 31
0.0
  0
ARC
  5
4A1
100
AcDbEntity
  8
0
100
AcDbCircle
 10
232.079647
 20
226.597563
 30
0.0
 40
0.2
100
AcDbArc
 50
270.0
 51
355.01295
  0
LINE
  5
4A2
100
AcDbEntity
  8
0
100
AcDbLine
 10
232.308907
 20
226.924553
 30
0.0
 11
232.308907
 21
226.077603
 31
0.0
  0
ARC
  5
4A3
100
AcDbEntity
  8
0
100
AcDbCircle
 10
232.638907
 20
218.297563
 30
0.0
 40
1.6
100
AcDbArc
 50
270.0
 51
0.0
  0
LINE
  5
4A4
100
AcDbEntity
  8
0
100
AcDbLine
 10
232.308907
 20
226.077603
 30
0.0
 11
233.408907
 21
224.977593
 31
0.0
  0
LINE
  5
4A5
100
AcDbEntity
  8
0
100
AcDbLine
 10
232.608939
 20
226.201511
 30
0.0
 11
233.708907
 21
225.101553
 31
0.0
  0
LINE
  5
4A6
100
AcDbEntity
  8
0
100
AcDbLine
 10
233.408907
 20
220.997553
 30
0.0
 11
232.788907
 21
220.997553
 31
0.0
  0
LINE
  5
4A7
100
AcDbEntity
  8
0
100
AcDbLine
 10
232.788907
 20
221.297553
 30
0.0
 11
233.408907
 21
221.297553
 31
0.0
  0
LINE
  5
4A8
100
AcDbEntity
  8
0
100
AcDbLine
 10
233.538927
 20
220.697543
 30
0.0
 11
233.164897
 21
220.323513
 31
0.0
  0
ARC
  5
4A9
100
AcDbEntity
  8
0
100
AcDbCircle
 10
232.740907
 20
220.747553
 30
0.0
 40
0.599648
100
AcDbArc
 50
267.195159
 51
315.0
  0
LINE
  5
4AA
100
AcDbEntity
  8
0
100
AcDbLine
 10
232.788907
 20
220.997553
 30
0.0
 11
232.788907
 21
221.297553
 31
0.0
  0
LINE
  5
4AB
100
AcDbEntity
  8
0
100
AcDbLine
 10
232.456917
 20
220.344673
 30
0.0
 11
232.085838
 21
221.365859
 31
0.0
  0
ARC
  5
4AC
100
AcDbEntity
  8
0
100
AcDbCircle
 10
231.897864
 20
221.297553
 30
0.0
 40
0.2
100
AcDbArc
 50
19.970128
 51
90.0
  0
ARC
  5
4AD
100
AcDbEntity
  8
0
100
AcDbCircle
 10
232.738907
 20
220.447543
 30
0.0
 40
0.300167
100
AcDbArc
 50
199.970128
 51
274.462605
  0
LINE
  5
4AE
100
AcDbEntity
  8
0
100
AcDbLine
 10
231.897864
 20
221.497553
 30
0.0
 11
230.361154
 21
221.497553
 31
0.0
  0
LINE
  5
4AF
100
AcDbEntity
  8
0
100
AcDbLine
 10
232.079647
 20
226.397563
 30
0.0
 11
230.361162
 21
226.397563
 31
0.0
  0
ARC
  5
4B0
100
AcDbEntity
  8
0
100
AcDbCircle
 10
234.038907
 20
220.497543
 30
0.0
 40
0.2
100
AcDbArc
 50
0.0
 51
90.0
  0
LINE
  5
4B1
100
AcDbEntity
  8
0
100
AcDbLine
 10
234.038907
 20
220.697543
 30
0.0
 11
233.538927
 21
220.697543
 31
0.0
  0
ARC
  5
4B2
100
AcDbEntity
  8
0
100
AcDbCircle
 10
233.408907
 20
221.297553
 30
0.0
 40
0.3
100
AcDbArc
 50
270.0
 51
0.0
  0
LINE
  5
4B3
100
AcDbEntity
  8
0
100
AcDbLine
 10
233.708907
 20
225.101553
 30
0.0
 11
233.708907
 21
221.297553
 31
0.0
  0
LINE
  5
4B4
100
AcDbEntity
  8
0
100
AcDbLine
 10
233.408907
 20
224.977593
 30
0.0
 11
233.408907
 21
221.297553
 31
0.0
  0
ARC
  5
4B5
100
AcDbEntity
  8
0
100
AcDbCircle
 10
232.638907
 20
228.597563
 30
0.0
 40
1.6
100
AcDbArc
 50
0.0
 51
90.0
  0
LINE
  5
4B6
100
AcDbEntity
  8
0
100
AcDbLine
 10
233.228905
 20
227.304492
 30
0.0
 11
233.013374
 21
227.56128
 31
0.0
  0
LINE
  5
4B7
100
AcDbEntity
  8
0
100
AcDbLine
 10
232.999933
 20
227.111517
 30
0.0
 11
233.228905
 21
227.304492
 31
0.0
  0
LINE
  5
4B8
100
AcDbEntity
  8
0
100
AcDbLine
 10
233.192906
 20
226.881544
 30
0.0
 11
232.999933
 21
227.111517
 31
0.0
  0
ARC
  5
4B9
100
AcDbEntity
  8
0
100
AcDbCircle
 10
232.855625
 20
227.437784
 30
0.0
 40
0.5
100
AcDbArc
 50
40.090214
 51
175.01295
  0
ARC
  5
4BA
100
AcDbEntity
  8
0
100
AcDbCircle
 10
232.860183
 20
227.432702
 30
0.0
 40
0.2
100
AcDbArc
 50
40.007775
 51
177.62463
  0
LINE
  5
4BB
100
AcDbEntity
  8
0
100
AcDbLine
 10
232.357518
 20
227.481249
 30
0.0
 11
232.27889
 21
226.580177
 31
0.0
  0
LINE
  5
4BC
100
AcDbEntity
  8
0
100
AcDbLine
 10
236.188907
 20
226.947563
 30
0.0
 11
234.238907
 21
226.947563
 31
0.0
  0
LINE
  5
4BD
100
AcDbEntity
  8
0
100
AcDbLine
 10
236.188907
 20
230.197563
 30
0.0
 11
238.188907
 21
230.197563
 31
0.0
  0
LINE
  5
4BE
100
AcDbEntity
  8
0
100
AcDbLine
 10
236.188907
 20
231.447563
 30
0.0
 11
234.238907
 21
231.447563
 31
0.0
  0
ARC
  5
4BF
100
AcDbEntity
  8
0
100
AcDbCircle
 10
234.038907
 20
227.697553
 30
0.0
 40
0.2
100
AcDbArc
 50
270.0
 51
0.0
  0
LINE
  5
4C0
100
AcDbEntity
  8
0
100
AcDbLine
 10
233.192906
 20
226.881544
 30
0.0
 11
233.422501
 21
227.074223
 31
0.0
  0
LINE
  5
4C1
100
AcDbEntity
  8
0
100
AcDbLine
 10
233.459159
 20
227.497222
 30
0.0
 11
233.238141
 21
227.75978
 31
0.0
  0
ARC
  5
4C2
100
AcDbEntity
  8
0
100
AcDbCircle
 10
233.22965
 20
227.304024
 30
0.0
 40
0.3
100
AcDbArc
 50
310.003724
 51
40.090214
  0
LINE
  5
4C3
100
AcDbEntity
  8
0
100
AcDbLine
 10
234.038907
 20
227.497553
 30
0.0
 11
233.45888
 21
227.497553
 31
0.0
  0
LINE
  5
4C4
100
AcDbEntity
  8
CENTER
  6
CENTER
 62
     1
100
AcDbLine
 10
386.335149
 20
253.932431
 30
0.0
 11
386.335149
 21
159.462696
 31
0.0
  0
CIRCLE
  5
4C5
100
AcDbEntity
  8
0
100
AcDbCircle
 10
386.335149
 20
206.697563
 30
0.0
 40
27.0
  0
CIRCLE
  5
4C6
100
AcDbEntity
  8
0
100
AcDbCircle
 10
386.335149
 20
206.697563
 30
0.0
 40
10.0
  0
CIRCLE
  5
4C7
100
AcDbEntity
  8
0
100
AcDbCircle
 10
386.335149
 20
206.697563
 30
0.0
 40
23.5
  0
LINE
  5
4C8
100
AcDbEntity
  8
0
100
AcDbLine
 10
415.335149
 20
234.968573
 30
0.0
 11
415.335149
 21
178.426554
 31
0.0
  0
LINE
  5
4C9
100
AcDbEntity
  8
0
100
AcDbLine
 10
357.335149
 20
234.968573
 30
0.0
 11
357.335149
 21
178.426554
 31
0.0
  0
LINE
  5
4CA
100
AcDbEntity
  8
CENTER
  6
CENTER
 62
     1
100
AcDbLine
 10
351.682692
 20
206.697563
 30
0.0
 11
421.109599
 21
206.697563
 31
0.0
  0
ARC
  5
4CB
100
AcDbEntity
  8
0
100
AcDbCircle
 10
386.335149
 20
206.697563
 30
0.0
 40
40.5
100
AcDbArc
 50
224.270734
 51
315.729266
  0
LINE
  5
4CC
100
AcDbEntity
  8
CENTER
  6
CENTER
 62
     1
100
AcDbLine
 10
369.335149
 20
167.973499
 30
0.0
 11
369.335149
 21
186.421628
 31
0.0
  0
CIRCLE
  5
4CD
100
AcDbEntity
  8
0
100
AcDbCircle
 10
369.335149
 20
177.197563
 30
0.0
 40
3.3
  0
CIRCLE
  5
4CE
100
AcDbEntity
  8
0
100
AcDbCircle
 10
369.335149
 20
177.197563
 30
0.0
 40
5.5
  0
LINE
  5
4CF
100
AcDbEntity
  8
CENTER
  6
CENTER
 62
     1
100
AcDbLine
 10
378.559214
 20
177.197563
 30
0.0
 11
360.111084
 21
177.197563
 31
0.0
  0
LINE
  5
4D0
100
AcDbEntity
  8
CENTER
  6
CENTER
 62
     1
100
AcDbLine
 10
403.335149
 20
167.973499
 30
0.0
 11
403.335149
 21
186.421628
 31
0.0
  0
CIRCLE
  5
4D1
100
AcDbEntity
  8
0
100
AcDbCircle
 10
403.335149
 20
177.197563
 30
0.0
 40
3.3
  0
CIRCLE
  5
4D2
100
AcDbEntity
  8
0
100
AcDbCircle
 10
403.335149
 20
177.197563
 30
0.0
 40
5.5
  0
LINE
  5
4D3
100
AcDbEntity
  8
CENTER
  6
CENTER
 62
     1
100
AcDbLine
 10
394.111084
 20
177.197563
 30
0.0
 11
412.559214
 21
177.197563
 31
0.0
  0
ARC
  5
4D4
100
AcDbEntity
  8
0
100
AcDbCircle
 10
386.335149
 20
206.697563
 30
0.0
 40
40.5
100
AcDbArc
 50
44.270734
 51
135.729266
  0
LINE
  5
4D5
100
AcDbEntity
  8
CENTER
  6
CENTER
 62
     1
100
AcDbLine
 10
369.335149
 20
245.421628
 30
0.0
 11
369.335149
 21
226.973499
 31
0.0
  0
LINE
  5
4D6
100
AcDbEntity
  8
CENTER
  6
CENTER
 62
     1
100
AcDbLine
 10
378.559214
 20
236.197563
 30
0.0
 11
360.111084
 21
236.197563
 31
0.0
  0
CIRCLE
  5
4D7
100
AcDbEntity
  8
0
100
AcDbCircle
 10
369.335149
 20
236.197563
 30
0.0
 40
3.3
  0
CIRCLE
  5
4D8
100
AcDbEntity
  8
0
100
AcDbCircle
 10
369.335149
 20
236.197563
 30
0.0
 40
5.5
  0
LINE
  5
4D9
100
AcDbEntity
  8
CENTER
  6
CENTER
 62
     1
100
AcDbLine
 10
403.335149
 20
245.421628
 30
0.0
 11
403.335149
 21
226.973499
 31
0.0
  0
LINE
  5
4DA
100
AcDbEntity
  8
CENTER
  6
CENTER
 62
     1
100
AcDbLine
 10
394.111084
 20
236.197563
 30
0.0
 11
412.559214
 21
236.197563
 31
0.0
  0
CIRCLE
  5
4DB
100
AcDbEntity
  8
0
100
AcDbCircle
 10
403.335149
 20
236.197563
 30
0.0
 40
3.3
  0
CIRCLE
  5
4DC
100
AcDbEntity
  8
0
100
AcDbCircle
 10
403.335149
 20
236.197563
 30
0.0
 40
5.5
  0
LINE
  5
4DD
100
AcDbEntity
  8
0
  6
DASHED
 62
     3
100
AcDbLine
 10
193.188907
 20
233.697563
 30
0.0
 11
193.188907
 21
232.897563
 31
0.0
  0
LINE
  5
4DE
100
AcDbEntity
  8
0
  6
DASHED
 62
     3
100
AcDbLine
 10
204.188907
 20
230.697563
 30
0.0
 11
204.188907
 21
233.697563
 31
0.0
  0
LINE
  5
4DF
100
AcDbEntity
  8
0
  6
DASHED
 62
     3
100
AcDbLine
 10
193.188907
 20
179.697563
 30
0.0
 11
193.188907
 21
180.497563
 31
0.0
  0
LINE
  5
4E0
100
AcDbEntity
  8
0
  6
DASHED
 62
     3
100
AcDbLine
 10
204.188907
 20
179.697563
 30
0.0
 11
204.188907
 21
182.697563
 31
0.0
  0
ENDSEC
  0
SECTION
  2
OBJECTS
  0
DICTIONARY
  5
34E
100
AcDbDictionary
  3
ACAD_GROUP
350
34F
  3
ACAD_LAYOUT
350
35B
  3
ACAD_MLINESTYLE
350
358
  3
ACAD_PLOTSETTINGS
350
35A
  3
ACAD_PLOTSTYLENAME
350
350
  3
ACDBHEADERROUNDTRIPXREC
350
4ED
  3
AcDbVariableDictionary
350
516
  0
DICTIONARY
  5
4EB
100
AcDbDictionary
280
     1
  3
ACAD_XREC_ROUNDTRIP
360
4EC
  0
DICTIONARY
  5
4E7
100
AcDbDictionary
280
     1
  3
ACAD_XREC_ROUNDTRIP
360
4E8
  0
DICTIONARY
  5
4E9
100
AcDbDictionary
280
     1
  3
ACAD_XREC_ROUNDTRIP
360
4EA
  0
DICTIONARY
  5
514
100
AcDbDictionary
280
     1
  3
ACAD_XREC_ROUNDTRIP
360
515
  0
DICTIONARY
  5
4E3
100
AcDbDictionary
280
     1
  3
ACAD_LAYOUTSELFREF
360
513
  3
ACAD_XREC_ROUNDTRIP
360
4E4
  0
DICTIONARY
  5
4E5
100
AcDbDictionary
280
     1
  3
ACAD_LAYOUTSELFREF
360
512
  3
ACAD_XREC_ROUNDTRIP
360
4E6
  0
DICTIONARY
  5
34F
102
{ACAD_REACTORS
330
34E
102
}
100
AcDbDictionary
  0
DICTIONARY
  5
35B
102
{ACAD_XDICTIONARY
360
510
102
}
102
{ACAD_REACTORS
330
34E
102
}
100
AcDbDictionary
  3
MODEL
350
363
  3
ﾚｲｱｳﾄ1
350
35F
  0
DICTIONARY
  5
358
102
{ACAD_XDICTIONARY
360
50E
102
}
102
{ACAD_REACTORS
330
34E
102
}
100
AcDbDictionary
  3
STANDARD
350
359
  0
DICTIONARY
  5
35A
102
{ACAD_REACTORS
330
34E
102
}
100
AcDbDictionary
  0
ACAD_PROXY_OBJECT
  5
350
102
{ACAD_REACTORS
330
34E
102
}
100
AcDbProxyObject
 90
      499
 91
      500
 93
       86
310
405010041939BDC9B585B0
350
351
340
351
 94
        0
  0
DICTIONARY
  5
4ED
102
{ACAD_REACTORS
330
34E
102
}
100
AcDbDictionary
  3
CEPSNTYPE
350
4F7
  3
DIMSTYLEDATA
350
4FB
  3
FINGERPRINTGUID
350
4F8
  3
HYPERLINKBASE
350
4F0
  3
INSUNITS
350
4F6
  3
LAYOUTDICT
350
4F2
  3
LWETCUNION
350
4F5
  3
PLOTSETDICT
350
4F3
  3
PLOTSTYLNAMDICT
350
4F4
  3
PSVPSCALE
350
4FA
  3
PUCSBASE
350
4FE
  3
PUCSORGBACK
350
504
  3
PUCSORGBOTTOM
350
500
  3
PUCSORGFRONT
350
503
  3
PUCSORGLEFT
350
501
  3
PUCSORGRIGHT
350
502
  3
PUCSORGTOP
350
4FF
  3
PUCSORTHOREF
350
4FC
  3
PUCSORTHOVIEW
350
4FD
  3
STYLESHEET
350
4F1
  3
TSTACKALIGN
350
4EE
  3
TSTACKSIZE
350
4EF
  3
UCSBASE
350
507
  3
UCSORGBACK
350
50D
  3
UCSORGBOTTOM
350
509
  3
UCSORGFRONT
350
50C
  3
UCSORGLEFT
350
50A
  3
UCSORGRIGHT
350
50B
  3
UCSORGTOP
350
508
  3
UCSORTHOREF
350
505
  3
UCSORTHOVIEW
350
506
  3
VERSIONGUID
350
4F9
  0
DICTIONARY
  5
516
102
{ACAD_REACTORS
330
34E
102
}
100
AcDbDictionary
  3
DIMASSOC
350
517
  0
XRECORD
  5
4EC
102
{ACAD_REACTORS
330
4EB
102
}
100
AcDbXrecord
102
EXTNAMES
  1
*ACTIVE
  2
*Active
102
UCS
 74
     0
 71
     0
 10
0.0
 20
0.0
 30
0.0
 10
1.0
 20
0.0
 30
0.0
 10
0.0
 20
1.0
 30
0.0
146
0.0
 79
     0
102
VIEW
281
     0
  0
XRECORD
  5
4E8
102
{ACAD_REACTORS
330
4E7
102
}
100
AcDbXrecord
102
EXTNAMES
  1
BYBLOCK
  2
ByBlock
  0
XRECORD
  5
4EA
102
{ACAD_REACTORS
330
4E9
102
}
100
AcDbXrecord
102
EXTNAMES
  1
BYLAYER
  2
ByLayer
  0
XRECORD
  5
515
102
{ACAD_REACTORS
330
514
102
}
100
AcDbXrecord
102
ACADR14ROUNDTRIP
1000
DSTYLE
1002
{
1070
   279
 70
     2
1002
}
  0
XRECORD
  5
513
102
{ACAD_REACTORS
330
4E3
102
}
100
AcDbXrecord
340
360
  0
XRECORD
  5
4E4
102
{ACAD_REACTORS
330
4E3
102
}
100
AcDbXrecord
102
EXTNAMES
  1
*MODEL_SPACE
  2
*Model_Space
  0
XRECORD
  5
512
102
{ACAD_REACTORS
330
4E5
102
}
100
AcDbXrecord
340
35C
  0
XRECORD
  5
4E6
102
{ACAD_REACTORS
330
4E5
102
}
100
AcDbXrecord
102
EXTNAMES
  1
*PAPER_SPACE
  2
*Paper_Space
  0
DICTIONARY
  5
510
100
AcDbDictionary
280
     1
  3
ACAD_XREC_ROUNDTRIP
360
511
  0
ACAD_PROXY_OBJECT
  5
363
102
{ACAD_REACTORS
330
35B
102
}
100
AcDbProxyObject
 90
      499
 91
      502
 93
      836
310
932433A5C50524F4752414D2046494C45535C4D4454365C706C6F74746572735C526F6C616E64204458592D313235302E7063332C01AAAAAAAAA5A69054D6F64656C901A800000000000000000000000000000000000000000000A1000000000000008902A6A6AAAA4
330
360
330
0
340
0
340
0
 94
        0
  0
ACAD_PROXY_OBJECT
  5
35F
102
{ACAD_REACTORS
330
35B
102
}
100
AcDbProxyObject
 90
      499
 91
      502
 93
     1244
310
932433A5C50524F4752414D2046494C45535C4D4454365C706C6F74746572735C526F6C616E64204458592D313235302E7063332C00AAAAAA416AA59106906DAB2B1B3C431406A800000000000000000000000000000000000000000101E900000000000241C902A6A6A10232D5E076BC5510408CB5781DAF154410232D5E0
310
76BC5510408CB5781DAF15C410232D5E076BC5710408CB5781DAF15C40
330
35C
330
0
340
0
340
0
 94
        0
  0
DICTIONARY
  5
50E
100
AcDbDictionary
280
     1
  3
ACAD_XREC_ROUNDTRIP
360
50F
  0
MLINESTYLE
  5
359
102
{ACAD_REACTORS
330
358
102
}
100
AcDbMlineStyle
  2
STANDARD
 70
     0
  3

 62
   256
 51
90.0
 52
90.0
 71
     2
 49
0.5
 62
   256
  6
BYLAYER
 49
-0.5
 62
   256
  6
BYLAYER
  0
ACAD_PROXY_OBJECT
  5
351
102
{ACAD_REACTORS
330
350
102
}
100
AcDbProxyObject
 90
      499
 91
      501
 93
        0
 94
        0
  0
XRECORD
  5
4F7
102
{ACAD_REACTORS
330
4ED
102
}
100
AcDbXrecord
 90
        0
  0
XRECORD
  5
4FB
102
{ACAD_REACTORS
330
4ED
102
}
100
AcDbXrecord
1000
DSTYLE
1002
{
1070
   341
340
377
1070
   343
340
377
1070
   344
340
371
1002
}
  0
XRECORD
  5
4F8
102
{ACAD_REACTORS
330
4ED
102
}
100
AcDbXrecord
  1
{6928EB55-6896-4A88-B56B-C2F79213B523}
  0
XRECORD
  5
4F0
102
{ACAD_REACTORS
330
4ED
102
}
100
AcDbXrecord
  1

  0
XRECORD
  5
4F6
102
{ACAD_REACTORS
330
4ED
102
}
100
AcDbXrecord
 90
        0
  0
XRECORD
  5
4F2
102
{ACAD_REACTORS
330
4ED
102
}
100
AcDbXrecord
340
35B
  0
XRECORD
  5
4F5
102
{ACAD_REACTORS
330
4ED
102
}
100
AcDbXrecord
 90
    10781
  0
XRECORD
  5
4F3
102
{ACAD_REACTORS
330
4ED
102
}
100
AcDbXrecord
340
35A
  0
XRECORD
  5
4F4
102
{ACAD_REACTORS
330
4ED
102
}
100
AcDbXrecord
340
350
  0
XRECORD
  5
4FA
102
{ACAD_REACTORS
330
4ED
102
}
100
AcDbXrecord
 40
0.0
  0
XRECORD
  5
4FE
102
{ACAD_REACTORS
330
4ED
102
}
100
AcDbXrecord
340
0
  0
XRECORD
  5
504
102
{ACAD_REACTORS
330
4ED
102
}
100
AcDbXrecord
 10
0.0
 20
0.0
 30
0.0
  0
XRECORD
  5
500
102
{ACAD_REACTORS
330
4ED
102
}
100
AcDbXrecord
 10
0.0
 20
0.0
 30
0.0
  0
XRECORD
  5
503
102
{ACAD_REACTORS
330
4ED
102
}
100
AcDbXrecord
 10
0.0
 20
0.0
 30
0.0
  0
XRECORD
  5
501
102
{ACAD_REACTORS
330
4ED
102
}
100
AcDbXrecord
 10
0.0
 20
0.0
 30
0.0
  0
XRECORD
  5
502
102
{ACAD_REACTORS
330
4ED
102
}
100
AcDbXrecord
 10
0.0
 20
0.0
 30
0.0
  0
XRECORD
  5
4FF
102
{ACAD_REACTORS
330
4ED
102
}
100
AcDbXrecord
 10
0.0
 20
0.0
 30
0.0
  0
XRECORD
  5
4FC
102
{ACAD_REACTORS
330
4ED
102
}
100
AcDbXrecord
340
0
  0
XRECORD
  5
4FD
102
{ACAD_REACTORS
330
4ED
102
}
100
AcDbXrecord
 70
     0
  0
XRECORD
  5
4F1
102
{ACAD_REACTORS
330
4ED
102
}
100
AcDbXrecord
  1

  0
XRECORD
  5
4EE
102
{ACAD_REACTORS
330
4ED
102
}
100
AcDbXrecord
 90
        1
  0
XRECORD
  5
4EF
102
{ACAD_REACTORS
330
4ED
102
}
100
AcDbXrecord
 90
       70
  0
XRECORD
  5
507
102
{ACAD_REACTORS
330
4ED
102
}
100
AcDbXrecord
340
0
  0
XRECORD
  5
50D
102
{ACAD_REACTORS
330
4ED
102
}
100
AcDbXrecord
 10
0.0
 20
0.0
 30
0.0
  0
XRECORD
  5
509
102
{ACAD_REACTORS
330
4ED
102
}
100
AcDbXrecord
 10
0.0
 20
0.0
 30
0.0
  0
XRECORD
  5
50C
102
{ACAD_REACTORS
330
4ED
102
}
100
AcDbXrecord
 10
0.0
 20
0.0
 30
0.0
  0
XRECORD
  5
50A
102
{ACAD_REACTORS
330
4ED
102
}
100
AcDbXrecord
 10
0.0
 20
0.0
 30
0.0
  0
XRECORD
  5
50B
102
{ACAD_REACTORS
330
4ED
102
}
100
AcDbXrecord
 10
0.0
 20
0.0
 30
0.0
  0
XRECORD
  5
508
102
{ACAD_REACTORS
330
4ED
102
}
100
AcDbXrecord
 10
0.0
 20
0.0
 30
0.0
  0
XRECORD
  5
505
102
{ACAD_REACTORS
330
4ED
102
}
100
AcDbXrecord
340
0
  0
XRECORD
  5
506
102
{ACAD_REACTORS
330
4ED
102
}
100
AcDbXrecord
 70
     0
  0
XRECORD
  5
4F9
102
{ACAD_REACTORS
330
4ED
102
}
100
AcDbXrecord
  1
{D78A57DB-6253-4D65-B614-BAF14C9ED601}
  0
DICTIONARYVAR
  5
517
102
{ACAD_REACTORS
330
516
102
}
100
DictionaryVariables
280
     0
  1
1
  0
XRECORD
  5
511
102
{ACAD_REACTORS
330
510
102
}
100
AcDbXrecord
102
EXTNAMES
  1
MODEL
  2
Model
  0
XRECORD
  5
50F
102
{ACAD_REACTORS
330
50E
102
}
100
AcDbXrecord
102
EXTNAMES
  1
STANDARD
  2
Standard
  0
ENDSEC
  0
EOF
