  0
SECTION
  2
HEADER
  9
$ACADVER
  1
AC1014
  9
$ACADMAINTVER
 70
     0
  9
$DWGCODEPAGE
  3
ANSI_932
  9
$INSBASE
 10
0.0
 20
0.0
 30
0.0
  9
$EXTMIN
 10
82.5
 20
-8.5
 30
0.0
  9
$EXTMAX
 10
285.5
 20
108.5
 30
0.0
  9
$LIMMIN
 10
0.0
 20
0.0
  9
$LIMMAX
 10
420.0
 20
297.0
  9
$ORTHOMODE
 70
     1
  9
$REGENMODE
 70
     1
  9
$FILLMODE
 70
     1
  9
$QTEXTMODE
 70
     0
  9
$MIRRTEXT
 70
     1
  9
$DRAGMODE
 70
     2
  9
$LTSCALE
 40
0.25
  9
$OSMODE
 70
    37
  9
$ATTMODE
 70
     1
  9
$TEXTSIZE
 40
2.0
  9
$TRACEWID
 40
1.0
  9
$TEXTSTYLE
  7
STANDARD
  9
$CLAYER
  8
0
  9
$CELTYPE
  6
BYLAYER
  9
$CECOLOR
 62
   256
  9
$CELTSCALE
 40
1.0
  9
$DELOBJ
 70
     1
  9
$DISPSILH
 70
     0
  9
$DIMSCALE
 40
1.0
  9
$DIMASZ
 40
2.5
  9
$DIMEXO
 40
0.625
  9
$DIMDLI
 40
3.75
  9
$DIMRND
 40
0.0
  9
$DIMDLE
 40
0.0
  9
$DIMEXE
 40
1.25
  9
$DIMTP
 40
0.0
  9
$DIMTM
 40
0.0
  9
$DIMTXT
 40
2.5
  9
$DIMCEN
 40
2.5
  9
$DIMTSZ
 40
0.0
  9
$DIMTOL
 70
     0
  9
$DIMLIM
 70
     0
  9
$DIMTIH
 70
     0
  9
$DIMTOH
 70
     0
  9
$DIMSE1
 70
     0
  9
$DIMSE2
 70
     0
  9
$DIMTAD
 70
     1
  9
$DIMZIN
 70
     8
  9
$DIMBLK
  1

  9
$DIMASO
 70
     1
  9
$DIMSHO
 70
     1
  9
$DIMPOST
  1

  9
$DIMAPOST
  1

  9
$DIMALT
 70
     0
  9
$DIMALTD
 70
     4
  9
$DIMALTF
 40
0.0394
  9
$DIMLFAC
 40
1.0
  9
$DIMTOFL
 70
     1
  9
$DIMTVP
 40
0.0
  9
$DIMTIX
 70
     0
  9
$DIMSOXD
 70
     0
  9
$DIMSAH
 70
     0
  9
$DIMBLK1
  1

  9
$DIMBLK2
  1

  9
$DIMSTYLE
  2
ISO-25
  9
$DIMCLRD
 70
     0
  9
$DIMCLRE
 70
     0
  9
$DIMCLRT
 70
     0
  9
$DIMTFAC
 40
1.0
  9
$DIMGAP
 40
0.625
  9
$DIMJUST
 70
     0
  9
$DIMSD1
 70
     0
  9
$DIMSD2
 70
     0
  9
$DIMTOLJ
 70
     1
  9
$DIMTZIN
 70
     0
  9
$DIMALTZ
 70
     0
  9
$DIMALTTZ
 70
     0
  9
$DIMFIT
 70
     3
  9
$DIMUPT
 70
     0
  9
$DIMUNIT
 70
     2
  9
$DIMDEC
 70
     4
  9
$DIMTDEC
 70
     4
  9
$DIMALTU
 70
     2
  9
$DIMALTTD
 70
     2
  9
$DIMTXSTY
  7
STANDARD
  9
$DIMAUNIT
 70
     0
  9
$LUNITS
 70
     2
  9
$LUPREC
 70
     2
  9
$SKETCHINC
 40
1.0
  9
$FILLETRAD
 40
2.5
  9
$AUNITS
 70
     0
  9
$AUPREC
 70
     0
  9
$MENU
  1
.
  9
$ELEVATION
 40
0.0
  9
$PELEVATION
 40
0.0
  9
$THICKNESS
 40
0.0
  9
$LIMCHECK
 70
     0
  9
$BLIPMODE
 70
     0
  9
$CHAMFERA
 40
2.5
  9
$CHAMFERB
 40
2.5
  9
$CHAMFERC
 40
0.0
  9
$CHAMFERD
 40
0.0
  9
$SKPOLY
 70
     1
  9
$TDCREATE
 40
2452101.021788333
  9
$TDUPDATE
 40
2452821.794773148
  9
$TDINDWG
 40
0.0141427199
  9
$TDUSRTIMER
 40
0.0141421412
  9
$USRTIMER
 70
     1
  9
$ANGBASE
 50
0.0
  9
$ANGDIR
 70
     0
  9
$PDMODE
 70
     0
  9
$PDSIZE
 40
0.0
  9
$PLINEWID
 40
0.0
  9
$COORDS
 70
     1
  9
$SPLFRAME
 70
     0
  9
$SPLINETYPE
 70
     6
  9
$SPLINESEGS
 70
     8
  9
$ATTDIA
 70
     0
  9
$ATTREQ
 70
     1
  9
$HANDLING
 70
     1
  9
$HANDSEED
  5
49C
  9
$SURFTAB1
 70
     6
  9
$SURFTAB2
 70
     6
  9
$SURFTYPE
 70
     6
  9
$SURFU
 70
     6
  9
$SURFV
 70
     6
  9
$UCSNAME
  2

  9
$UCSORG
 10
0.0
 20
0.0
 30
0.0
  9
$UCSXDIR
 10
1.0
 20
0.0
 30
0.0
  9
$UCSYDIR
 10
0.0
 20
1.0
 30
0.0
  9
$PUCSNAME
  2

  9
$PUCSORG
 10
0.0
 20
0.0
 30
0.0
  9
$PUCSXDIR
 10
1.0
 20
0.0
 30
0.0
  9
$PUCSYDIR
 10
0.0
 20
1.0
 30
0.0
  9
$USERI1
 70
     0
  9
$USERI2
 70
     0
  9
$USERI3
 70
     0
  9
$USERI4
 70
     0
  9
$USERI5
 70
     0
  9
$USERR1
 40
0.0
  9
$USERR2
 40
0.0
  9
$USERR3
 40
0.0
  9
$USERR4
 40
0.0
  9
$USERR5
 40
0.0
  9
$WORLDVIEW
 70
     1
  9
$SHADEDGE
 70
     3
  9
$SHADEDIF
 70
    70
  9
$TILEMODE
 70
     1
  9
$MAXACTVP
 70
    48
  9
$PINSBASE
 10
0.0
 20
0.0
 30
0.0
  9
$PLIMCHECK
 70
     0
  9
$PEXTMIN
 10
1.000000E+20
 20
1.000000E+20
 30
1.000000E+20
  9
$PEXTMAX
 10
-1.000000E+20
 20
-1.000000E+20
 30
-1.000000E+20
  9
$PLIMMIN
 10
0.0
 20
0.0
  9
$PLIMMAX
 10
420.0
 20
297.0
  9
$UNITMODE
 70
     0
  9
$VISRETAIN
 70
     1
  9
$PLINEGEN
 70
     0
  9
$PSLTSCALE
 70
     1
  9
$TREEDEPTH
 70
  3020
  9
$PICKSTYLE
 70
     1
  9
$CMLSTYLE
  2
STANDARD
  9
$CMLJUST
 70
     0
  9
$CMLSCALE
 40
1.0
  9
$PROXYGRAPHICS
 70
     1
  9
$MEASUREMENT
 70
     0
  0
ENDSEC
  0
SECTION
  2
CLASSES
  0
CLASS
  1
ACDBDICTIONARYWDFLT
  2
AcDbDictionaryWithDefault
  3
AutoCAD 2000
 90
        0
280
     0
281
     0
  0
CLASS
  1
ACDBPLACEHOLDER
  2
AcDbPlaceHolder
  3
AutoCAD 2000
 90
        0
280
     0
281
     0
  0
CLASS
  1
LAYOUT
  2
AcDbLayout
  3
AutoCAD 2000
 90
        0
280
     0
281
     0
  0
CLASS
  1
DICTIONARYVAR
  2
AcDbDictionaryVar
  3
"AutoCAD"
 90
        0
280
     0
281
     0
  0
CLASS
  1
LONG_TRANSACTION
  2
AcDbLongTransaction
  3
AutoCAD 2000
 90
        0
280
     0
281
     0
  0
CLASS
  1
LWPOLYLINE
  2
AcDbPolyline
  3
"AutoCAD"
 90
        0
280
     0
281
     1
  0
CLASS
  1
HATCH
  2
AcDbHatch
  3
"ACAD_SEDONA"
 90
        0
280
     0
281
     1
  0
CLASS
  1
XRECORD
  2
AcDbXrecord
  3
"<Built In>"
 90
        0
280
     0
281
     0
  0
ENDSEC
  0
SECTION
  2
TABLES
  0
TABLE
  2
VPORT
  5
2D5
100
AcDbSymbolTable
 70
     1
  0
VPORT
  5
463
102
{ACAD_XDICTIONARY
360
46C
102
}
100
AcDbSymbolTableRecord
100
AcDbViewportTableRecord
  2
*ACTIVE
 70
     0
 10
0.0
 20
0.0
 11
1.0
 21
1.0
 12
147.755586
 22
55.685532
 13
0.0
 23
0.0
 14
1.0
 24
1.0
 15
10.0
 25
10.0
 16
0.0
 26
0.0
 36
1.0
 17
0.0
 27
0.0
 37
0.0
 40
176.276711
 41
1.570997
 42
50.0
 43
0.0
 44
0.0
 50
0.0
 51
0.0
 71
     0
 72
   100
 73
     1
 74
     1
 75
     0
 76
     0
 77
     0
 78
     0
  0
ENDTAB
  0
TABLE
  2
LTYPE
  5
2D2
100
AcDbSymbolTable
 70
     3
  0
LTYPE
  5
2E0
102
{ACAD_XDICTIONARY
360
468
102
}
100
AcDbSymbolTableRecord
100
AcDbLinetypeTableRecord
  2
BYBLOCK
 70
     0
  3

 72
    65
 73
     0
 40
0.0
  0
LTYPE
  5
2E1
102
{ACAD_XDICTIONARY
360
46A
102
}
100
AcDbSymbolTableRecord
100
AcDbLinetypeTableRecord
  2
BYLAYER
 70
     0
  3

 72
    65
 73
     0
 40
0.0
  0
LTYPE
  5
2E2
100
AcDbSymbolTableRecord
100
AcDbLinetypeTableRecord
  2
CONTINUOUS
 70
     0
  3
Solid line
 72
    65
 73
     0
 40
0.0
  0
LTYPE
  5
2F0
100
AcDbSymbolTableRecord
100
AcDbLinetypeTableRecord
  2
CENTER
 70
     0
  3
Center ____ _ ____ _ ____ _ ____ _ ____ _ ____
 72
    65
 73
     4
 40
50.8
 49
31.75
 74
     0
 49
-6.35
 74
     0
 49
6.35
 74
     0
 49
-6.35
 74
     0
  0
LTYPE
  5
2F1
100
AcDbSymbolTableRecord
100
AcDbLinetypeTableRecord
  2
DASHED
 70
     0
  3
Dashed __ __ __ __ __ __ __ __ __ __ __ __ __ _
 72
    65
 73
     2
 40
19.05
 49
12.7
 74
     0
 49
-6.35
 74
     0
  0
ENDTAB
  0
TABLE
  2
LAYER
  5
2CF
100
AcDbSymbolTable
 70
     2
  0
LAYER
  5
2DD
100
AcDbSymbolTableRecord
100
AcDbLayerTableRecord
  2
0
 70
     0
 62
     7
  6
CONTINUOUS
  0
LAYER
  5
2F2
100
AcDbSymbolTableRecord
100
AcDbLayerTableRecord
  2
CENTER
 70
     0
 62
     1
  6
CENTER
  0
ENDTAB
  0
TABLE
  2
STYLE
  5
2D0
100
AcDbSymbolTable
 70
     1
  0
STYLE
  5
2DE
100
AcDbSymbolTableRecord
100
AcDbTextStyleTableRecord
  2
STANDARD
 70
     0
 40
0.0
 41
1.0
 50
0.0
 71
     0
 42
2.0
  3
txt.shx
  4
extfont.shx
  0
ENDTAB
  0
TABLE
  2
VIEW
  5
2D3
100
AcDbSymbolTable
 70
     0
  0
ENDTAB
  0
TABLE
  2
UCS
  5
2D4
100
AcDbSymbolTable
 70
     0
  0
ENDTAB
  0
TABLE
  2
APPID
  5
2D6
100
AcDbSymbolTable
 70
     1
  0
APPID
  5
2DF
100
AcDbSymbolTableRecord
100
AcDbRegAppTableRecord
  2
ACAD
 70
     0
  0
ENDTAB
  0
TABLE
  2
DIMSTYLE
  5
2D7
100
AcDbSymbolTable
 70
     1
  0
DIMSTYLE
105
2F3
102
{ACAD_XDICTIONARY
360
494
102
}
100
AcDbSymbolTableRecord
100
AcDbDimStyleTableRecord
  2
ISO-25
 70
     0
  3

  4

  5

  6

  7

 40
1.0
 41
2.5
 42
0.625
 43
3.75
 44
1.25
 45
0.0
 46
0.0
 47
0.0
 48
0.0
140
2.5
141
2.5
142
0.0
143
0.0394
144
1.0
145
0.0
146
1.0
147
0.625
 71
     0
 72
     0
 73
     0
 74
     0
 75
     0
 76
     0
 77
     1
 78
     8
170
     0
171
     4
172
     1
173
     0
174
     0
175
     0
176
     0
177
     0
178
     0
270
     2
271
     2
272
     2
273
     2
274
     4
340
2DE
275
     0
280
     0
281
     0
282
     0
283
     1
284
     8
285
     8
286
     8
287
     5
288
     0
  0
ENDTAB
  0
TABLE
  2
BLOCK_RECORD
  5
2CE
100
AcDbSymbolTable
 70
     2
  0
BLOCK_RECORD
  5
2EB
102
{ACAD_XDICTIONARY
360
464
102
}
100
AcDbSymbolTableRecord
100
AcDbBlockTableRecord
  2
*MODEL_SPACE
  0
BLOCK_RECORD
  5
2E7
102
{ACAD_XDICTIONARY
360
466
102
}
100
AcDbSymbolTableRecord
100
AcDbBlockTableRecord
  2
*PAPER_SPACE
  0
BLOCK_RECORD
  5
2F6
100
AcDbSymbolTableRecord
100
AcDbBlockTableRecord
  2
$MODEL_SPACE
  0
BLOCK_RECORD
  5
2F9
100
AcDbSymbolTableRecord
100
AcDbBlockTableRecord
  2
$PAPER_SPACE
  0
ENDTAB
  0
ENDSEC
  0
SECTION
  2
BLOCKS
  0
BLOCK
  5
2EC
100
AcDbEntity
  8
0
100
AcDbBlockBegin
  2
*MODEL_SPACE
 70
     0
 10
0.0
 20
0.0
 30
0.0
  3
*MODEL_SPACE
  1

  0
ENDBLK
  5
2ED
100
AcDbEntity
  8
0
100
AcDbBlockEnd
  0
BLOCK
  5
2E8
100
AcDbEntity
 67
     1
  8
0
100
AcDbBlockBegin
  2
*PAPER_SPACE
 70
     0
 10
0.0
 20
0.0
 30
0.0
  3
*PAPER_SPACE
  1

  0
ENDBLK
  5
2E9
100
AcDbEntity
 67
     1
  8
0
100
AcDbBlockEnd
  0
BLOCK
  5
2F7
100
AcDbEntity
  8
0
100
AcDbBlockBegin
  2
$MODEL_SPACE
 70
     0
 10
0.0
 20
0.0
 30
0.0
  3
$MODEL_SPACE
  1

  0
ENDBLK
  5
2F8
100
AcDbEntity
  8
0
100
AcDbBlockEnd
  0
BLOCK
  5
2FA
100
AcDbEntity
  8
0
100
AcDbBlockBegin
  2
$PAPER_SPACE
 70
     0
 10
0.0
 20
0.0
 30
0.0
  3
$PAPER_SPACE
  1

  0
ENDBLK
  5
2FB
100
AcDbEntity
  8
0
100
AcDbBlockEnd
  0
ENDSEC
  0
SECTION
  2
ENTITIES
  0
LINE
  5
2FC
100
AcDbEntity
  8
CENTER
  6
CENTER
 62
     1
100
AcDbLine
 10
285.5
 20
50.0
 30
0.0
 11
200.5
 21
50.0
 31
0.0
  0
LINE
  5
2FD
100
AcDbEntity
  8
CENTER
  6
CENTER
 62
     1
100
AcDbLine
 10
208.25
 20
10.0
 30
0.0
 11
223.75
 21
10.0
 31
0.0
  0
LINE
  5
2FE
100
AcDbEntity
  8
CENTER
  6
CENTER
 62
     1
100
AcDbLine
 10
208.25
 20
90.0
 30
0.0
 11
223.75
 21
90.0
 31
0.0
  0
CIRCLE
  5
2FF
100
AcDbEntity
  8
0
100
AcDbCircle
 10
216.0
 20
90.0
 30
0.0
 40
7.0
  0
ARC
  5
300
100
AcDbEntity
  8
0
100
AcDbCircle
 10
243.0
 20
50.0
 30
0.0
 40
57.0
100
AcDbArc
 50
44.003427
 51
135.996573
  0
CIRCLE
  5
301
100
AcDbEntity
  8
0
100
AcDbCircle
 10
216.0
 20
10.0
 30
0.0
 40
7.0
  0
ARC
  5
302
100
AcDbEntity
  8
0
100
AcDbCircle
 10
243.0
 20
50.0
 30
0.0
 40
57.0
100
AcDbArc
 50
224.003427
 51
315.996573
  0
CIRCLE
  5
303
100
AcDbEntity
  8
0
100
AcDbCircle
 10
243.0
 20
50.0
 30
0.0
 40
39.0
  0
CIRCLE
  5
304
100
AcDbEntity
  8
0
100
AcDbCircle
 10
243.0
 20
50.0
 30
0.0
 40
34.0
  0
LINE
  5
307
100
AcDbEntity
  8
0
100
AcDbLine
 10
104.2
 20
84.0
 30
0.0
 11
104.2
 21
16.0
 31
0.0
  0
LINE
  5
308
100
AcDbEntity
  8
0
100
AcDbLine
 10
89.2
 20
14.3
 30
0.0
 11
89.2
 21
50.0
 31
0.0
  0
LINE
  5
309
100
AcDbEntity
  8
0
100
AcDbLine
 10
87.12
 20
50.0
 30
0.0
 11
87.12
 21
14.3
 31
0.0
  0
LINE
  5
30A
100
AcDbEntity
  8
0
100
AcDbLine
 10
143.8
 20
16.0
 30
0.0
 11
143.8
 21
84.0
 31
0.0
  0
LINE
  5
30B
100
AcDbEntity
  8
0
100
AcDbLine
 10
158.8
 20
14.3
 30
0.0
 11
158.8
 21
50.0
 31
0.0
  0
LINE
  5
30C
100
AcDbEntity
  8
0
100
AcDbLine
 10
160.88
 20
50.0
 30
0.0
 11
160.88
 21
14.3
 31
0.0
  0
LINE
  5
30D
100
AcDbEntity
  8
0
100
AcDbLine
 10
202.0
 20
89.59798
 30
0.0
 11
202.0
 21
10.40202
 31
0.0
  0
LINE
  5
30E
100
AcDbEntity
  8
0
100
AcDbLine
 10
164.0
 20
11.0
 30
0.0
 11
164.0
 21
50.0
 31
0.0
  0
LINE
  5
30F
100
AcDbEntity
  8
0
100
AcDbLine
 10
84.0
 20
50.0
 30
0.0
 11
84.0
 21
11.0
 31
0.0
  0
LINE
  5
310
100
AcDbEntity
  8
0
100
AcDbLine
 10
158.8
 20
16.0
 30
0.0
 11
143.8
 21
16.0
 31
0.0
  0
LINE
  5
311
100
AcDbEntity
  8
0
100
AcDbLine
 10
158.8
 20
30.0
 30
0.0
 11
143.8
 21
30.0
 31
0.0
  0
LINE
  5
312
100
AcDbEntity
  8
0
100
AcDbLine
 10
122.0
 20
11.0
 30
0.0
 11
164.0
 21
11.0
 31
0.0
  0
LINE
  5
313
100
AcDbEntity
  8
0
100
AcDbLine
 10
122.0
 20
-7.0
 30
0.0
 11
122.0
 21
11.0
 31
0.0
  0
LINE
  5
314
100
AcDbEntity
  8
0
100
AcDbLine
 10
109.0
 20
11.0
 30
0.0
 11
109.0
 21
-7.0
 31
0.0
  0
LINE
  5
315
100
AcDbEntity
  8
0
100
AcDbLine
 10
109.0
 20
-7.0
 30
0.0
 11
122.0
 21
-7.0
 31
0.0
  0
LINE
  5
316
100
AcDbEntity
  8
CENTER
  6
CENTER
 62
     1
100
AcDbLine
 10
107.5
 20
10.0
 30
0.0
 11
123.5
 21
10.0
 31
0.0
  0
LINE
  5
317
100
AcDbEntity
  8
0
100
AcDbLine
 10
104.2
 20
20.0
 30
0.0
 11
143.8
 21
20.0
 31
0.0
  0
LINE
  5
318
100
AcDbEntity
  8
0
  6
DASHED
 62
     3
100
AcDbLine
 10
113.9
 20
5.5
 30
0.0
 11
109.0
 21
5.5
 31
0.0
  0
LINE
  5
319
100
AcDbEntity
  8
0
  6
DASHED
 62
     3
100
AcDbLine
 10
113.9
 20
14.5
 30
0.0
 11
109.0
 21
14.5
 31
0.0
  0
LINE
  5
31A
100
AcDbEntity
  8
0
100
AcDbLine
 10
89.2
 20
16.0
 30
0.0
 11
104.2
 21
16.0
 31
0.0
  0
LINE
  5
31B
100
AcDbEntity
  8
0
100
AcDbLine
 10
84.0
 20
11.0
 30
0.0
 11
109.0
 21
11.0
 31
0.0
  0
LINE
  5
31C
100
AcDbEntity
  8
0
100
AcDbLine
 10
84.0
 20
16.0
 30
0.0
 11
87.12
 21
16.0
 31
0.0
  0
LINE
  5
31D
100
AcDbEntity
  8
0
100
AcDbLine
 10
87.12
 20
14.3
 30
0.0
 11
89.2
 21
14.3
 31
0.0
  0
LINE
  5
31E
100
AcDbEntity
  8
0
  6
DASHED
 62
     3
100
AcDbLine
 10
113.9
 20
17.0
 30
0.0
 11
113.9
 21
10.0
 31
0.0
  0
LINE
  5
31F
100
AcDbEntity
  8
0
  6
DASHED
 62
     3
100
AcDbLine
 10
122.0
 20
3.0
 30
0.0
 11
113.9
 21
3.0
 31
0.0
  0
LINE
  5
320
100
AcDbEntity
  8
0
  6
DASHED
 62
     3
100
AcDbLine
 10
113.9
 20
3.0
 30
0.0
 11
113.9
 21
10.0
 31
0.0
  0
LINE
  5
321
100
AcDbEntity
  8
0
  6
DASHED
 62
     3
100
AcDbLine
 10
122.0
 20
17.0
 30
0.0
 11
113.9
 21
17.0
 31
0.0
  0
LINE
  5
322
100
AcDbEntity
  8
0
100
AcDbLine
 10
160.88
 20
14.3
 30
0.0
 11
158.8
 21
14.3
 31
0.0
  0
LINE
  5
323
100
AcDbEntity
  8
0
100
AcDbLine
 10
164.0
 20
16.0
 30
0.0
 11
160.88
 21
16.0
 31
0.0
  0
LINE
  5
324
100
AcDbEntity
  8
CENTER
  6
CENTER
 62
     1
100
AcDbLine
 10
82.5
 20
50.0
 30
0.0
 11
165.5
 21
50.0
 31
0.0
  0
LINE
  5
325
100
AcDbEntity
  8
0
100
AcDbLine
 10
158.8
 20
70.0
 30
0.0
 11
143.8
 21
70.0
 31
0.0
  0
LINE
  5
326
100
AcDbEntity
  8
0
100
AcDbLine
 10
158.8
 20
84.0
 30
0.0
 11
143.8
 21
84.0
 31
0.0
  0
LINE
  5
327
100
AcDbEntity
  8
0
100
AcDbLine
 10
122.0
 20
89.0
 30
0.0
 11
164.0
 21
89.0
 31
0.0
  0
LINE
  5
328
100
AcDbEntity
  8
0
  6
DASHED
 62
     3
100
AcDbLine
 10
113.9
 20
97.0
 30
0.0
 11
113.9
 21
90.0
 31
0.0
  0
LINE
  5
329
100
AcDbEntity
  8
0
100
AcDbLine
 10
122.0
 20
107.0
 30
0.0
 11
122.0
 21
89.0
 31
0.0
  0
LINE
  5
32A
100
AcDbEntity
  8
0
100
AcDbLine
 10
109.0
 20
89.0
 30
0.0
 11
109.0
 21
107.0
 31
0.0
  0
LINE
  5
32B
100
AcDbEntity
  8
CENTER
  6
CENTER
 62
     1
100
AcDbLine
 10
107.5
 20
90.0
 30
0.0
 11
123.5
 21
90.0
 31
0.0
  0
LINE
  5
32C
100
AcDbEntity
  8
0
100
AcDbLine
 10
104.2
 20
80.0
 30
0.0
 11
143.8
 21
80.0
 31
0.0
  0
LINE
  5
32D
100
AcDbEntity
  8
0
  6
DASHED
 62
     3
100
AcDbLine
 10
113.9
 20
85.5
 30
0.0
 11
109.0
 21
85.5
 31
0.0
  0
LINE
  5
32E
100
AcDbEntity
  8
0
  6
DASHED
 62
     3
100
AcDbLine
 10
113.9
 20
94.5
 30
0.0
 11
109.0
 21
94.5
 31
0.0
  0
LINE
  5
32F
100
AcDbEntity
  8
0
100
AcDbLine
 10
89.2
 20
85.7
 30
0.0
 11
89.2
 21
50.0
 31
0.0
  0
LINE
  5
330
100
AcDbEntity
  8
0
100
AcDbLine
 10
87.12
 20
50.0
 30
0.0
 11
87.12
 21
85.7
 31
0.0
  0
LINE
  5
331
100
AcDbEntity
  8
0
100
AcDbLine
 10
84.0
 20
50.0
 30
0.0
 11
84.0
 21
89.0
 31
0.0
  0
LINE
  5
332
100
AcDbEntity
  8
0
100
AcDbLine
 10
89.2
 20
84.0
 30
0.0
 11
104.2
 21
84.0
 31
0.0
  0
LINE
  5
333
100
AcDbEntity
  8
0
100
AcDbLine
 10
84.0
 20
89.0
 30
0.0
 11
109.0
 21
89.0
 31
0.0
  0
LINE
  5
334
100
AcDbEntity
  8
0
100
AcDbLine
 10
84.0
 20
84.0
 30
0.0
 11
87.12
 21
84.0
 31
0.0
  0
LINE
  5
335
100
AcDbEntity
  8
0
100
AcDbLine
 10
87.12
 20
85.7
 30
0.0
 11
89.2
 21
85.7
 31
0.0
  0
LINE
  5
336
100
AcDbEntity
  8
0
  6
DASHED
 62
     3
100
AcDbLine
 10
113.9
 20
83.0
 30
0.0
 11
113.9
 21
90.0
 31
0.0
  0
LINE
  5
337
100
AcDbEntity
  8
0
  6
DASHED
 62
     3
100
AcDbLine
 10
122.0
 20
83.0
 30
0.0
 11
113.9
 21
83.0
 31
0.0
  0
LINE
  5
338
100
AcDbEntity
  8
0
100
AcDbLine
 10
109.0
 20
107.0
 30
0.0
 11
122.0
 21
107.0
 31
0.0
  0
LINE
  5
339
100
AcDbEntity
  8
0
  6
DASHED
 62
     3
100
AcDbLine
 10
122.0
 20
97.0
 30
0.0
 11
113.9
 21
97.0
 31
0.0
  0
LINE
  5
33A
100
AcDbEntity
  8
0
100
AcDbLine
 10
160.88
 20
50.0
 30
0.0
 11
160.88
 21
85.7
 31
0.0
  0
LINE
  5
33B
100
AcDbEntity
  8
0
100
AcDbLine
 10
158.8
 20
85.7
 30
0.0
 11
158.8
 21
50.0
 31
0.0
  0
LINE
  5
33C
100
AcDbEntity
  8
0
100
AcDbLine
 10
164.0
 20
89.0
 30
0.0
 11
164.0
 21
50.0
 31
0.0
  0
LINE
  5
33D
100
AcDbEntity
  8
0
100
AcDbLine
 10
160.88
 20
85.7
 30
0.0
 11
158.8
 21
85.7
 31
0.0
  0
LINE
  5
33E
100
AcDbEntity
  8
0
100
AcDbLine
 10
164.0
 20
84.0
 30
0.0
 11
160.88
 21
84.0
 31
0.0
  0
LINE
  5
33F
100
AcDbEntity
  8
CENTER
  6
CENTER
 62
     1
100
AcDbLine
 10
243.0
 20
108.5
 30
0.0
 11
243.0
 21
-8.5
 31
0.0
  0
LINE
  5
340
100
AcDbEntity
  8
0
100
AcDbLine
 10
284.0
 20
89.59798
 30
0.0
 11
284.0
 21
10.40202
 31
0.0
  0
CIRCLE
  5
341
100
AcDbEntity
  8
0
100
AcDbCircle
 10
243.0
 20
50.0
 30
0.0
 40
20.0
  0
LINE
  5
342
100
AcDbEntity
  8
CENTER
  6
CENTER
 62
     1
100
AcDbLine
 10
277.75
 20
10.0
 30
0.0
 11
262.25
 21
10.0
 31
0.0
  0
CIRCLE
  5
343
100
AcDbEntity
  8
0
100
AcDbCircle
 10
270.0
 20
10.0
 30
0.0
 40
7.0
  0
LINE
  5
344
100
AcDbEntity
  8
CENTER
  6
CENTER
 62
     1
100
AcDbLine
 10
216.0
 20
2.25
 30
0.0
 11
216.0
 21
17.75
 31
0.0
  0
CIRCLE
  5
345
100
AcDbEntity
  8
0
100
AcDbCircle
 10
216.0
 20
10.0
 30
0.0
 40
4.5
  0
LINE
  5
346
100
AcDbEntity
  8
CENTER
  6
CENTER
 62
     1
100
AcDbLine
 10
270.0
 20
2.25
 30
0.0
 11
270.0
 21
17.75
 31
0.0
  0
CIRCLE
  5
347
100
AcDbEntity
  8
0
100
AcDbCircle
 10
270.0
 20
10.0
 30
0.0
 40
4.5
  0
LINE
  5
348
100
AcDbEntity
  8
CENTER
  6
CENTER
 62
     1
100
AcDbLine
 10
277.75
 20
90.0
 30
0.0
 11
262.25
 21
90.0
 31
0.0
  0
CIRCLE
  5
349
100
AcDbEntity
  8
0
100
AcDbCircle
 10
270.0
 20
90.0
 30
0.0
 40
7.0
  0
LINE
  5
34A
100
AcDbEntity
  8
CENTER
  6
CENTER
 62
     1
100
AcDbLine
 10
216.0
 20
97.75
 30
0.0
 11
216.0
 21
82.25
 31
0.0
  0
LINE
  5
34B
100
AcDbEntity
  8
CENTER
  6
CENTER
 62
     1
100
AcDbLine
 10
270.0
 20
97.75
 30
0.0
 11
270.0
 21
82.25
 31
0.0
  0
CIRCLE
  5
34C
100
AcDbEntity
  8
0
100
AcDbCircle
 10
216.0
 20
90.0
 30
0.0
 40
4.5
  0
CIRCLE
  5
34D
100
AcDbEntity
  8
0
100
AcDbCircle
 10
270.0
 20
90.0
 30
0.0
 40
4.5
  0
LINE
  5
34E
100
AcDbEntity
  8
0
100
AcDbLine
 10
157.97
 20
21.71997
 30
0.0
 11
157.97
 21
25.40001
 31
0.0
  0
LINE
  5
34F
100
AcDbEntity
  8
0
100
AcDbLine
 10
158.27
 20
21.59601
 30
0.0
 11
158.27
 21
25.40001
 31
0.0
  0
LINE
  5
350
100
AcDbEntity
  8
0
100
AcDbLine
 10
144.63
 20
21.71997
 30
0.0
 11
144.63
 21
25.40001
 31
0.0
  0
LINE
  5
351
100
AcDbEntity
  8
0
100
AcDbLine
 10
144.33
 20
21.59601
 30
0.0
 11
144.33
 21
25.40001
 31
0.0
  0
CIRCLE
  5
352
100
AcDbEntity
  8
0
100
AcDbCircle
 10
151.3
 20
22.75
 30
0.0
 40
3.96875
  0
ARC
  5
353
100
AcDbEntity
  8
0
100
AcDbCircle
 10
145.95926
 20
20.1
 30
0.0
 40
0.2
100
AcDbArc
 50
90.0
 51
175.01295
  0
ARC
  5
354
100
AcDbEntity
  8
0
100
AcDbCircle
 10
145.183282
 20
19.259779
 30
0.0
 40
0.5
100
AcDbArc
 50
220.090214
 51
355.01295
  0
LINE
  5
355
100
AcDbEntity
  8
0
100
AcDbLine
 10
144.579748
 20
19.200342
 30
0.0
 11
144.800766
 21
18.937783
 31
0.0
  0
ARC
  5
356
100
AcDbEntity
  8
0
100
AcDbCircle
 10
145.4
 20
17.6
 30
0.0
 40
1.6
100
AcDbArc
 50
180.0
 51
270.0
  0
LINE
  5
357
100
AcDbEntity
  8
0
100
AcDbLine
 10
145.378552
 20
19.256572
 30
0.0
 11
145.429968
 21
20.496052
 31
0.0
  0
LINE
  5
358
100
AcDbEntity
  8
0
100
AcDbLine
 10
144.846001
 20
19.816019
 30
0.0
 11
145.038974
 21
19.586047
 31
0.0
  0
LINE
  5
359
100
AcDbEntity
  8
0
100
AcDbLine
 10
144.846001
 20
19.816019
 30
0.0
 11
144.616406
 21
19.62334
 31
0.0
  0
LINE
  5
35A
100
AcDbEntity
  8
0
100
AcDbLine
 10
145.681389
 20
19.216314
 30
0.0
 11
145.760017
 21
20.117386
 31
0.0
  0
ARC
  5
35B
100
AcDbEntity
  8
0
100
AcDbCircle
 10
145.178724
 20
19.264861
 30
0.0
 40
0.2
100
AcDbArc
 50
220.007775
 51
357.62463
  0
LINE
  5
35C
100
AcDbEntity
  8
0
100
AcDbLine
 10
145.038974
 20
19.586047
 30
0.0
 11
144.810002
 21
19.393072
 31
0.0
  0
LINE
  5
35D
100
AcDbEntity
  8
0
100
AcDbLine
 10
144.810002
 20
19.393072
 30
0.0
 11
145.025533
 21
19.136283
 31
0.0
  0
ARC
  5
35E
100
AcDbEntity
  8
0
100
AcDbCircle
 10
144.0
 20
19.00001
 30
0.0
 40
0.2
100
AcDbArc
 50
90.0
 51
180.0
  0
LINE
  5
35F
100
AcDbEntity
  8
0
100
AcDbLine
 10
144.0
 20
19.20001
 30
0.0
 11
144.580027
 21
19.20001
 31
0.0
  0
ARC
  5
360
100
AcDbEntity
  8
0
100
AcDbCircle
 10
144.809257
 20
19.39354
 30
0.0
 40
0.3
100
AcDbArc
 50
130.003724
 51
220.090214
  0
LINE
  5
361
100
AcDbEntity
  8
0
100
AcDbLine
 10
145.73
 20
20.61996
 30
0.0
 11
144.63
 21
21.71997
 31
0.0
  0
LINE
  5
362
100
AcDbEntity
  8
0
100
AcDbLine
 10
145.429968
 20
20.496052
 30
0.0
 11
144.33
 21
21.59601
 31
0.0
  0
LINE
  5
363
100
AcDbEntity
  8
0
100
AcDbLine
 10
145.73
 20
19.77301
 30
0.0
 11
145.73
 21
20.61996
 31
0.0
  0
LINE
  5
364
100
AcDbEntity
  8
0
100
AcDbLine
 10
145.95926
 20
20.3
 30
0.0
 11
148.177745
 21
20.3
 31
0.0
  0
ARC
  5
365
100
AcDbEntity
  8
0
100
AcDbCircle
 10
157.416718
 20
19.259779
 30
0.0
 40
0.5
100
AcDbArc
 50
184.98705
 51
319.909786
  0
LINE
  5
366
100
AcDbEntity
  8
0
100
AcDbLine
 10
158.020252
 20
19.200342
 30
0.0
 11
157.799234
 21
18.937783
 31
0.0
  0
ARC
  5
367
100
AcDbEntity
  8
0
100
AcDbCircle
 10
157.2
 20
17.6
 30
0.0
 40
1.6
100
AcDbArc
 50
270.0
 51
0.0
  0
LINE
  5
368
100
AcDbEntity
  8
0
100
AcDbLine
 10
158.6
 20
19.20001
 30
0.0
 11
158.019973
 21
19.20001
 31
0.0
  0
LINE
  5
369
100
AcDbEntity
  8
0
100
AcDbLine
 10
157.170032
 20
20.496052
 30
0.0
 11
158.27
 21
21.59601
 31
0.0
  0
ARC
  5
36A
100
AcDbEntity
  8
0
100
AcDbCircle
 10
157.790743
 20
19.39354
 30
0.0
 40
0.3
100
AcDbArc
 50
319.909786
 51
49.996276
  0
ARC
  5
36B
100
AcDbEntity
  8
0
100
AcDbCircle
 10
156.64074
 20
20.1
 30
0.0
 40
0.2
100
AcDbArc
 50
4.98705
 51
90.0
  0
LINE
  5
36C
100
AcDbEntity
  8
0
100
AcDbLine
 10
156.87
 20
19.77301
 30
0.0
 11
156.87
 21
20.61996
 31
0.0
  0
LINE
  5
36D
100
AcDbEntity
  8
0
100
AcDbLine
 10
157.789998
 20
19.393072
 30
0.0
 11
157.574467
 21
19.136283
 31
0.0
  0
LINE
  5
36E
100
AcDbEntity
  8
0
100
AcDbLine
 10
157.561026
 20
19.586047
 30
0.0
 11
157.789998
 21
19.393072
 31
0.0
  0
ARC
  5
36F
100
AcDbEntity
  8
0
100
AcDbCircle
 10
157.421276
 20
19.264861
 30
0.0
 40
0.2
100
AcDbArc
 50
182.37537
 51
319.992225
  0
LINE
  5
370
100
AcDbEntity
  8
0
100
AcDbLine
 10
156.918611
 20
19.216314
 30
0.0
 11
156.839983
 21
20.117386
 31
0.0
  0
LINE
  5
371
100
AcDbEntity
  8
0
100
AcDbLine
 10
157.753999
 20
19.816019
 30
0.0
 11
157.561026
 21
19.586047
 31
0.0
  0
LINE
  5
372
100
AcDbEntity
  8
0
100
AcDbLine
 10
157.221448
 20
19.256572
 30
0.0
 11
157.170032
 21
20.496052
 31
0.0
  0
LINE
  5
373
100
AcDbEntity
  8
0
100
AcDbLine
 10
156.64074
 20
20.3
 30
0.0
 11
154.422255
 21
20.3
 31
0.0
  0
LINE
  5
374
100
AcDbEntity
  8
0
100
AcDbLine
 10
156.87
 20
20.61996
 30
0.0
 11
157.97
 21
21.71997
 31
0.0
  0
LINE
  5
375
100
AcDbEntity
  8
0
100
AcDbLine
 10
157.753999
 20
19.816019
 30
0.0
 11
157.983594
 21
19.62334
 31
0.0
  0
ARC
  5
376
100
AcDbEntity
  8
0
100
AcDbCircle
 10
158.6
 20
19.00001
 30
0.0
 40
0.2
100
AcDbArc
 50
0.0
 51
90.0
  0
LINE
  5
377
100
AcDbEntity
  8
0
100
AcDbLine
 10
145.4
 20
30.0
 30
0.0
 11
157.2
 21
30.0
 31
0.0
  0
LINE
  5
378
100
AcDbEntity
  8
0
100
AcDbLine
 10
145.58199
 20
26.35289
 30
0.0
 11
145.953069
 21
25.331704
 31
0.0
  0
ARC
  5
379
100
AcDbEntity
  8
0
100
AcDbCircle
 10
146.141043
 20
25.40001
 30
0.0
 40
0.2
100
AcDbArc
 50
199.970128
 51
270.0
  0
ARC
  5
37A
100
AcDbEntity
  8
0
100
AcDbCircle
 10
145.4
 20
28.4
 30
0.0
 40
1.6
100
AcDbArc
 50
90.0
 51
180.0
  0
LINE
  5
37B
100
AcDbEntity
  8
0
100
AcDbLine
 10
145.25
 20
25.70001
 30
0.0
 11
145.25
 21
25.40001
 31
0.0
  0
ARC
  5
37C
100
AcDbEntity
  8
0
100
AcDbCircle
 10
144.63
 20
25.40001
 30
0.0
 40
0.3
100
AcDbArc
 50
90.0
 51
180.0
  0
LINE
  5
37D
100
AcDbEntity
  8
0
100
AcDbLine
 10
145.25
 20
25.40001
 30
0.0
 11
144.63
 21
25.40001
 31
0.0
  0
ARC
  5
37E
100
AcDbEntity
  8
0
100
AcDbCircle
 10
145.298
 20
25.95001
 30
0.0
 40
0.599648
100
AcDbArc
 50
87.195159
 51
135.0
  0
ARC
  5
37F
100
AcDbEntity
  8
0
100
AcDbCircle
 10
145.3
 20
26.25002
 30
0.0
 40
0.300167
100
AcDbArc
 50
19.970128
 51
94.462605
  0
LINE
  5
380
100
AcDbEntity
  8
0
100
AcDbLine
 10
144.63
 20
25.70001
 30
0.0
 11
145.25
 21
25.70001
 31
0.0
  0
ARC
  5
381
100
AcDbEntity
  8
0
100
AcDbCircle
 10
144.0
 20
26.20002
 30
0.0
 40
0.2
100
AcDbArc
 50
180.0
 51
270.0
  0
LINE
  5
382
100
AcDbEntity
  8
0
100
AcDbLine
 10
144.0
 20
26.00002
 30
0.0
 11
144.49998
 21
26.00002
 31
0.0
  0
LINE
  5
383
100
AcDbEntity
  8
0
100
AcDbLine
 10
144.49998
 20
26.00002
 30
0.0
 11
144.87401
 21
26.37405
 31
0.0
  0
LINE
  5
384
100
AcDbEntity
  8
0
100
AcDbLine
 10
146.141043
 20
25.20001
 30
0.0
 11
148.177753
 21
25.20001
 31
0.0
  0
LINE
  5
385
100
AcDbEntity
  8
0
100
AcDbLine
 10
158.6
 20
26.00002
 30
0.0
 11
158.10002
 21
26.00002
 31
0.0
  0
ARC
  5
386
100
AcDbEntity
  8
0
100
AcDbCircle
 10
157.97
 20
25.40001
 30
0.0
 40
0.3
100
AcDbArc
 50
0.0
 51
90.0
  0
ARC
  5
387
100
AcDbEntity
  8
0
100
AcDbCircle
 10
157.2
 20
28.4
 30
0.0
 40
1.6
100
AcDbArc
 50
0.0
 51
90.0
  0
ARC
  5
388
100
AcDbEntity
  8
0
100
AcDbCircle
 10
157.3
 20
26.25002
 30
0.0
 40
0.300167
100
AcDbArc
 50
85.537395
 51
160.029872
  0
ARC
  5
389
100
AcDbEntity
  8
0
100
AcDbCircle
 10
157.302
 20
25.95001
 30
0.0
 40
0.599648
100
AcDbArc
 50
45.0
 51
92.804841
  0
LINE
  5
38A
100
AcDbEntity
  8
0
100
AcDbLine
 10
157.01801
 20
26.35289
 30
0.0
 11
156.646931
 21
25.331704
 31
0.0
  0
LINE
  5
38B
100
AcDbEntity
  8
0
100
AcDbLine
 10
157.35
 20
25.70001
 30
0.0
 11
157.35
 21
25.40001
 31
0.0
  0
ARC
  5
38C
100
AcDbEntity
  8
0
100
AcDbCircle
 10
156.458957
 20
25.40001
 30
0.0
 40
0.2
100
AcDbArc
 50
270.0
 51
340.029872
  0
LINE
  5
38D
100
AcDbEntity
  8
0
100
AcDbLine
 10
156.458957
 20
25.20001
 30
0.0
 11
154.422247
 21
25.20001
 31
0.0
  0
LINE
  5
38E
100
AcDbEntity
  8
0
100
AcDbLine
 10
157.97
 20
25.70001
 30
0.0
 11
157.35
 21
25.70001
 31
0.0
  0
LINE
  5
38F
100
AcDbEntity
  8
0
100
AcDbLine
 10
158.10002
 20
26.00002
 30
0.0
 11
157.72599
 21
26.37405
 31
0.0
  0
LINE
  5
390
100
AcDbEntity
  8
0
100
AcDbLine
 10
157.35
 20
25.40001
 30
0.0
 11
157.97
 21
25.40001
 31
0.0
  0
ARC
  5
391
100
AcDbEntity
  8
0
100
AcDbCircle
 10
158.6
 20
26.20002
 30
0.0
 40
0.2
100
AcDbArc
 50
270.0
 51
0.0
  0
LINE
  5
392
100
AcDbEntity
  8
0
100
AcDbLine
 10
145.4
 20
70.0
 30
0.0
 11
157.2
 21
70.0
 31
0.0
  0
ARC
  5
393
100
AcDbEntity
  8
0
100
AcDbCircle
 10
145.4
 20
71.6
 30
0.0
 40
1.6
100
AcDbArc
 50
180.0
 51
270.0
  0
ARC
  5
394
100
AcDbEntity
  8
0
100
AcDbCircle
 10
157.2
 20
71.6
 30
0.0
 40
1.6
100
AcDbArc
 50
270.0
 51
0.0
  0
CIRCLE
  5
395
100
AcDbEntity
  8
0
100
AcDbCircle
 10
151.3
 20
77.25
 30
0.0
 40
3.96875
  0
ARC
  5
396
100
AcDbEntity
  8
0
100
AcDbCircle
 10
145.95926
 20
79.9
 30
0.0
 40
0.2
100
AcDbArc
 50
184.98705
 51
270.0
  0
ARC
  5
397
100
AcDbEntity
  8
0
100
AcDbCircle
 10
146.141043
 20
74.59999
 30
0.0
 40
0.2
100
AcDbArc
 50
90.0
 51
160.029872
  0
LINE
  5
398
100
AcDbEntity
  8
0
100
AcDbLine
 10
145.58199
 20
73.64711
 30
0.0
 11
145.953069
 21
74.668296
 31
0.0
  0
LINE
  5
399
100
AcDbEntity
  8
0
100
AcDbLine
 10
145.73
 20
79.38004
 30
0.0
 11
144.63
 21
78.28003
 31
0.0
  0
LINE
  5
39A
100
AcDbEntity
  8
0
100
AcDbLine
 10
145.429968
 20
79.503948
 30
0.0
 11
144.33
 21
78.40399
 31
0.0
  0
LINE
  5
39B
100
AcDbEntity
  8
0
100
AcDbLine
 10
144.63
 20
74.29999
 30
0.0
 11
145.25
 21
74.29999
 31
0.0
  0
LINE
  5
39C
100
AcDbEntity
  8
0
100
AcDbLine
 10
145.25
 20
74.59999
 30
0.0
 11
144.63
 21
74.59999
 31
0.0
  0
LINE
  5
39D
100
AcDbEntity
  8
0
100
AcDbLine
 10
145.25
 20
74.29999
 30
0.0
 11
145.25
 21
74.59999
 31
0.0
  0
ARC
  5
39E
100
AcDbEntity
  8
0
100
AcDbCircle
 10
145.3
 20
73.74998
 30
0.0
 40
0.300167
100
AcDbArc
 50
265.537395
 51
340.029872
  0
ARC
  5
39F
100
AcDbEntity
  8
0
100
AcDbCircle
 10
145.298
 20
74.04999
 30
0.0
 40
0.599648
100
AcDbArc
 50
225.0
 51
272.804841
  0
LINE
  5
3A0
100
AcDbEntity
  8
0
100
AcDbLine
 10
144.0
 20
73.99998
 30
0.0
 11
144.49998
 21
73.99998
 31
0.0
  0
ARC
  5
3A1
100
AcDbEntity
  8
0
100
AcDbCircle
 10
144.0
 20
73.79998
 30
0.0
 40
0.2
100
AcDbArc
 50
90.0
 51
180.0
  0
ARC
  5
3A2
100
AcDbEntity
  8
0
100
AcDbCircle
 10
144.63
 20
74.59999
 30
0.0
 40
0.3
100
AcDbArc
 50
180.0
 51
270.0
  0
LINE
  5
3A3
100
AcDbEntity
  8
0
100
AcDbLine
 10
144.49998
 20
73.99998
 30
0.0
 11
144.87401
 21
73.62595
 31
0.0
  0
LINE
  5
3A4
100
AcDbEntity
  8
0
100
AcDbLine
 10
144.33
 20
78.40399
 30
0.0
 11
144.33
 21
74.59999
 31
0.0
  0
LINE
  5
3A5
100
AcDbEntity
  8
0
100
AcDbLine
 10
144.63
 20
78.28003
 30
0.0
 11
144.63
 21
74.59999
 31
0.0
  0
ARC
  5
3A6
100
AcDbEntity
  8
0
100
AcDbCircle
 10
145.4
 20
82.4
 30
0.0
 40
1.6
100
AcDbArc
 50
90.0
 51
180.0
  0
LINE
  5
3A7
100
AcDbEntity
  8
0
100
AcDbLine
 10
145.681389
 20
80.783686
 30
0.0
 11
145.760017
 21
79.882614
 31
0.0
  0
LINE
  5
3A8
100
AcDbEntity
  8
0
100
AcDbLine
 10
144.810002
 20
80.606928
 30
0.0
 11
145.025533
 21
80.863717
 31
0.0
  0
LINE
  5
3A9
100
AcDbEntity
  8
0
100
AcDbLine
 10
144.846001
 20
80.183981
 30
0.0
 11
144.616406
 21
80.37666
 31
0.0
  0
LINE
  5
3AA
100
AcDbEntity
  8
0
100
AcDbLine
 10
145.038974
 20
80.413953
 30
0.0
 11
144.810002
 21
80.606928
 31
0.0
  0
LINE
  5
3AB
100
AcDbEntity
  8
0
100
AcDbLine
 10
144.846001
 20
80.183981
 30
0.0
 11
145.038974
 21
80.413953
 31
0.0
  0
LINE
  5
3AC
100
AcDbEntity
  8
0
100
AcDbLine
 10
144.579748
 20
80.799658
 30
0.0
 11
144.800766
 21
81.062217
 31
0.0
  0
ARC
  5
3AD
100
AcDbEntity
  8
0
100
AcDbCircle
 10
145.178724
 20
80.735139
 30
0.0
 40
0.2
100
AcDbArc
 50
2.37537
 51
139.992225
  0
LINE
  5
3AE
100
AcDbEntity
  8
0
100
AcDbLine
 10
145.378552
 20
80.743428
 30
0.0
 11
145.429968
 21
79.503948
 31
0.0
  0
LINE
  5
3AF
100
AcDbEntity
  8
0
100
AcDbLine
 10
145.73
 20
80.22699
 30
0.0
 11
145.73
 21
79.38004
 31
0.0
  0
ARC
  5
3B0
100
AcDbEntity
  8
0
100
AcDbCircle
 10
144.0
 20
80.99999
 30
0.0
 40
0.2
100
AcDbArc
 50
180.0
 51
270.0
  0
ARC
  5
3B1
100
AcDbEntity
  8
0
100
AcDbCircle
 10
144.809257
 20
80.60646
 30
0.0
 40
0.3
100
AcDbArc
 50
139.909786
 51
229.996276
  0
LINE
  5
3B2
100
AcDbEntity
  8
0
100
AcDbLine
 10
144.0
 20
80.79999
 30
0.0
 11
144.580027
 21
80.79999
 31
0.0
  0
ARC
  5
3B3
100
AcDbEntity
  8
0
100
AcDbCircle
 10
145.183282
 20
80.740221
 30
0.0
 40
0.5
100
AcDbArc
 50
4.98705
 51
139.909786
  0
LINE
  5
3B4
100
AcDbEntity
  8
0
100
AcDbLine
 10
146.141043
 20
74.79999
 30
0.0
 11
148.177753
 21
74.79999
 31
0.0
  0
LINE
  5
3B5
100
AcDbEntity
  8
0
100
AcDbLine
 10
145.95926
 20
79.7
 30
0.0
 11
148.177745
 21
79.7
 31
0.0
  0
LINE
  5
3B6
100
AcDbEntity
  8
0
100
AcDbLine
 10
157.170032
 20
79.503948
 30
0.0
 11
158.27
 21
78.40399
 31
0.0
  0
LINE
  5
3B7
100
AcDbEntity
  8
0
100
AcDbLine
 10
156.87
 20
79.38004
 30
0.0
 11
157.97
 21
78.28003
 31
0.0
  0
LINE
  5
3B8
100
AcDbEntity
  8
0
100
AcDbLine
 10
158.6
 20
73.99998
 30
0.0
 11
158.10002
 21
73.99998
 31
0.0
  0
ARC
  5
3B9
100
AcDbEntity
  8
0
100
AcDbCircle
 10
157.97
 20
74.59999
 30
0.0
 40
0.3
100
AcDbArc
 50
270.0
 51
0.0
  0
LINE
  5
3BA
100
AcDbEntity
  8
0
100
AcDbLine
 10
157.97
 20
78.28003
 30
0.0
 11
157.97
 21
74.59999
 31
0.0
  0
ARC
  5
3BB
100
AcDbEntity
  8
0
100
AcDbCircle
 10
157.302
 20
74.04999
 30
0.0
 40
0.599648
100
AcDbArc
 50
267.195159
 51
315.0
  0
ARC
  5
3BC
100
AcDbEntity
  8
0
100
AcDbCircle
 10
157.3
 20
73.74998
 30
0.0
 40
0.300167
100
AcDbArc
 50
199.970128
 51
274.462605
  0
LINE
  5
3BD
100
AcDbEntity
  8
0
100
AcDbLine
 10
157.35
 20
74.29999
 30
0.0
 11
157.35
 21
74.59999
 31
0.0
  0
LINE
  5
3BE
100
AcDbEntity
  8
0
100
AcDbLine
 10
157.01801
 20
73.64711
 30
0.0
 11
156.646931
 21
74.668296
 31
0.0
  0
ARC
  5
3BF
100
AcDbEntity
  8
0
100
AcDbCircle
 10
156.458957
 20
74.59999
 30
0.0
 40
0.2
100
AcDbArc
 50
19.970128
 51
90.0
  0
LINE
  5
3C0
100
AcDbEntity
  8
0
100
AcDbLine
 10
156.458957
 20
74.79999
 30
0.0
 11
154.422247
 21
74.79999
 31
0.0
  0
LINE
  5
3C1
100
AcDbEntity
  8
0
100
AcDbLine
 10
158.10002
 20
73.99998
 30
0.0
 11
157.72599
 21
73.62595
 31
0.0
  0
LINE
  5
3C2
100
AcDbEntity
  8
0
100
AcDbLine
 10
157.97
 20
74.29999
 30
0.0
 11
157.35
 21
74.29999
 31
0.0
  0
LINE
  5
3C3
100
AcDbEntity
  8
0
100
AcDbLine
 10
157.35
 20
74.59999
 30
0.0
 11
157.97
 21
74.59999
 31
0.0
  0
ARC
  5
3C4
100
AcDbEntity
  8
0
100
AcDbCircle
 10
158.6
 20
73.79998
 30
0.0
 40
0.2
100
AcDbArc
 50
0.0
 51
90.0
  0
LINE
  5
3C5
100
AcDbEntity
  8
0
100
AcDbLine
 10
158.27
 20
78.40399
 30
0.0
 11
158.27
 21
74.59999
 31
0.0
  0
LINE
  5
3C6
100
AcDbEntity
  8
0
100
AcDbLine
 10
158.6
 20
80.79999
 30
0.0
 11
158.019973
 21
80.79999
 31
0.0
  0
ARC
  5
3C7
100
AcDbEntity
  8
0
100
AcDbCircle
 10
157.2
 20
82.4
 30
0.0
 40
1.6
100
AcDbArc
 50
0.0
 51
90.0
  0
ARC
  5
3C8
100
AcDbEntity
  8
0
100
AcDbCircle
 10
157.790743
 20
80.60646
 30
0.0
 40
0.3
100
AcDbArc
 50
310.003724
 51
40.090214
  0
ARC
  5
3C9
100
AcDbEntity
  8
0
100
AcDbCircle
 10
157.416718
 20
80.740221
 30
0.0
 40
0.5
100
AcDbArc
 50
40.090214
 51
175.01295
  0
LINE
  5
3CA
100
AcDbEntity
  8
0
100
AcDbLine
 10
157.221448
 20
80.743428
 30
0.0
 11
157.170032
 21
79.503948
 31
0.0
  0
ARC
  5
3CB
100
AcDbEntity
  8
0
100
AcDbCircle
 10
157.421276
 20
80.735139
 30
0.0
 40
0.2
100
AcDbArc
 50
40.007775
 51
177.62463
  0
LINE
  5
3CC
100
AcDbEntity
  8
0
100
AcDbLine
 10
157.561026
 20
80.413953
 30
0.0
 11
157.789998
 21
80.606928
 31
0.0
  0
LINE
  5
3CD
100
AcDbEntity
  8
0
100
AcDbLine
 10
157.753999
 20
80.183981
 30
0.0
 11
157.561026
 21
80.413953
 31
0.0
  0
LINE
  5
3CE
100
AcDbEntity
  8
0
100
AcDbLine
 10
157.789998
 20
80.606928
 30
0.0
 11
157.574467
 21
80.863717
 31
0.0
  0
LINE
  5
3CF
100
AcDbEntity
  8
0
100
AcDbLine
 10
156.87
 20
80.22699
 30
0.0
 11
156.87
 21
79.38004
 31
0.0
  0
ARC
  5
3D0
100
AcDbEntity
  8
0
100
AcDbCircle
 10
156.64074
 20
79.9
 30
0.0
 40
0.2
100
AcDbArc
 50
270.0
 51
355.01295
  0
LINE
  5
3D1
100
AcDbEntity
  8
0
100
AcDbLine
 10
156.918611
 20
80.783686
 30
0.0
 11
156.839983
 21
79.882614
 31
0.0
  0
LINE
  5
3D2
100
AcDbEntity
  8
0
100
AcDbLine
 10
156.64074
 20
79.7
 30
0.0
 11
154.422255
 21
79.7
 31
0.0
  0
LINE
  5
3D3
100
AcDbEntity
  8
0
100
AcDbLine
 10
158.020252
 20
80.799658
 30
0.0
 11
157.799234
 21
81.062217
 31
0.0
  0
LINE
  5
3D4
100
AcDbEntity
  8
0
100
AcDbLine
 10
157.753999
 20
80.183981
 30
0.0
 11
157.983594
 21
80.37666
 31
0.0
  0
ARC
  5
3D5
100
AcDbEntity
  8
0
100
AcDbCircle
 10
158.6
 20
80.99999
 30
0.0
 40
0.2
100
AcDbArc
 50
270.0
 51
0.0
  0
LINE
  5
3D6
100
AcDbEntity
  8
0
100
AcDbLine
 10
102.318611
 20
80.783686
 30
0.0
 11
102.239983
 21
79.882614
 31
0.0
  0
LINE
  5
3D7
100
AcDbEntity
  8
0
100
AcDbLine
 10
102.961026
 20
80.413953
 30
0.0
 11
103.189998
 21
80.606928
 31
0.0
  0
LINE
  5
3D8
100
AcDbEntity
  8
0
100
AcDbLine
 10
102.621448
 20
80.743428
 30
0.0
 11
102.570032
 21
79.503948
 31
0.0
  0
ARC
  5
3D9
100
AcDbEntity
  8
0
100
AcDbCircle
 10
103.190743
 20
80.60646
 30
0.0
 40
0.3
100
AcDbArc
 50
310.003724
 51
40.090214
  0
ARC
  5
3DA
100
AcDbEntity
  8
0
100
AcDbCircle
 10
90.209257
 20
80.60646
 30
0.0
 40
0.3
100
AcDbArc
 50
139.909786
 51
229.996276
  0
LINE
  5
3DB
100
AcDbEntity
  8
0
100
AcDbLine
 10
90.778552
 20
80.743428
 30
0.0
 11
90.829968
 21
79.503948
 31
0.0
  0
LINE
  5
3DC
100
AcDbEntity
  8
0
100
AcDbLine
 10
90.438974
 20
80.413953
 30
0.0
 11
90.210002
 21
80.606928
 31
0.0
  0
LINE
  5
3DD
100
AcDbEntity
  8
0
100
AcDbLine
 10
91.081389
 20
80.783686
 30
0.0
 11
91.160017
 21
79.882614
 31
0.0
  0
CIRCLE
  5
3DE
100
AcDbEntity
  8
0
100
AcDbCircle
 10
96.7
 20
77.25
 30
0.0
 40
3.96875
  0
LINE
  5
3DF
100
AcDbEntity
  8
0
100
AcDbLine
 10
91.35926
 20
79.7
 30
0.0
 11
93.577745
 21
79.7
 31
0.0
  0
LINE
  5
3E0
100
AcDbEntity
  8
0
100
AcDbLine
 10
91.541043
 20
74.79999
 30
0.0
 11
93.577753
 21
74.79999
 31
0.0
  0
LINE
  5
3E1
100
AcDbEntity
  8
0
100
AcDbLine
 10
90.8
 20
70.0
 30
0.0
 11
102.6
 21
70.0
 31
0.0
  0
ARC
  5
3E2
100
AcDbEntity
  8
0
100
AcDbCircle
 10
90.03
 20
74.59999
 30
0.0
 40
0.3
100
AcDbArc
 50
180.0
 51
270.0
  0
LINE
  5
3E3
100
AcDbEntity
  8
0
100
AcDbLine
 10
90.65
 20
74.29999
 30
0.0
 11
90.65
 21
74.59999
 31
0.0
  0
LINE
  5
3E4
100
AcDbEntity
  8
0
100
AcDbLine
 10
90.98199
 20
73.64711
 30
0.0
 11
91.353069
 21
74.668296
 31
0.0
  0
LINE
  5
3E5
100
AcDbEntity
  8
0
100
AcDbLine
 10
89.89998
 20
73.99998
 30
0.0
 11
90.27401
 21
73.62595
 31
0.0
  0
ARC
  5
3E6
100
AcDbEntity
  8
0
100
AcDbCircle
 10
89.4
 20
73.79998
 30
0.0
 40
0.2
100
AcDbArc
 50
90.0
 51
180.0
  0
LINE
  5
3E7
100
AcDbEntity
  8
0
100
AcDbLine
 10
89.4
 20
73.99998
 30
0.0
 11
89.89998
 21
73.99998
 31
0.0
  0
ARC
  5
3E8
100
AcDbEntity
  8
0
100
AcDbCircle
 10
90.698
 20
74.04999
 30
0.0
 40
0.599648
100
AcDbArc
 50
225.0
 51
272.804841
  0
ARC
  5
3E9
100
AcDbEntity
  8
0
100
AcDbCircle
 10
90.7
 20
73.74998
 30
0.0
 40
0.300167
100
AcDbArc
 50
265.537395
 51
340.029872
  0
LINE
  5
3EA
100
AcDbEntity
  8
0
100
AcDbLine
 10
90.03
 20
74.29999
 30
0.0
 11
90.65
 21
74.29999
 31
0.0
  0
ARC
  5
3EB
100
AcDbEntity
  8
0
100
AcDbCircle
 10
90.8
 20
71.6
 30
0.0
 40
1.6
100
AcDbArc
 50
180.0
 51
270.0
  0
LINE
  5
3EC
100
AcDbEntity
  8
0
100
AcDbLine
 10
91.13
 20
80.22699
 30
0.0
 11
91.13
 21
79.38004
 31
0.0
  0
LINE
  5
3ED
100
AcDbEntity
  8
0
100
AcDbLine
 10
90.246001
 20
80.183981
 30
0.0
 11
90.438974
 21
80.413953
 31
0.0
  0
LINE
  5
3EE
100
AcDbEntity
  8
0
100
AcDbLine
 10
90.246001
 20
80.183981
 30
0.0
 11
90.016406
 21
80.37666
 31
0.0
  0
LINE
  5
3EF
100
AcDbEntity
  8
0
100
AcDbLine
 10
90.03
 20
78.28003
 30
0.0
 11
90.03
 21
74.59999
 31
0.0
  0
LINE
  5
3F0
100
AcDbEntity
  8
0
100
AcDbLine
 10
89.73
 20
78.40399
 30
0.0
 11
89.73
 21
74.59999
 31
0.0
  0
LINE
  5
3F1
100
AcDbEntity
  8
0
100
AcDbLine
 10
90.65
 20
74.59999
 30
0.0
 11
90.03
 21
74.59999
 31
0.0
  0
LINE
  5
3F2
100
AcDbEntity
  8
0
100
AcDbLine
 10
90.829968
 20
79.503948
 30
0.0
 11
89.73
 21
78.40399
 31
0.0
  0
LINE
  5
3F3
100
AcDbEntity
  8
0
100
AcDbLine
 10
91.13
 20
79.38004
 30
0.0
 11
90.03
 21
78.28003
 31
0.0
  0
ARC
  5
3F4
100
AcDbEntity
  8
0
100
AcDbCircle
 10
91.541043
 20
74.59999
 30
0.0
 40
0.2
100
AcDbArc
 50
90.0
 51
160.029872
  0
ARC
  5
3F5
100
AcDbEntity
  8
0
100
AcDbCircle
 10
91.35926
 20
79.9
 30
0.0
 40
0.2
100
AcDbArc
 50
184.98705
 51
270.0
  0
LINE
  5
3F6
100
AcDbEntity
  8
0
100
AcDbLine
 10
102.04074
 20
79.7
 30
0.0
 11
99.822255
 21
79.7
 31
0.0
  0
LINE
  5
3F7
100
AcDbEntity
  8
0
100
AcDbLine
 10
101.858957
 20
74.79999
 30
0.0
 11
99.822247
 21
74.79999
 31
0.0
  0
LINE
  5
3F8
100
AcDbEntity
  8
0
100
AcDbLine
 10
102.41801
 20
73.64711
 30
0.0
 11
102.046931
 21
74.668296
 31
0.0
  0
LINE
  5
3F9
100
AcDbEntity
  8
0
100
AcDbLine
 10
102.75
 20
74.29999
 30
0.0
 11
102.75
 21
74.59999
 31
0.0
  0
ARC
  5
3FA
100
AcDbEntity
  8
0
100
AcDbCircle
 10
103.37
 20
74.59999
 30
0.0
 40
0.3
100
AcDbArc
 50
270.0
 51
0.0
  0
ARC
  5
3FB
100
AcDbEntity
  8
0
100
AcDbCircle
 10
104.0
 20
73.79998
 30
0.0
 40
0.2
100
AcDbArc
 50
0.0
 51
90.0
  0
LINE
  5
3FC
100
AcDbEntity
  8
0
100
AcDbLine
 10
103.37
 20
74.29999
 30
0.0
 11
102.75
 21
74.29999
 31
0.0
  0
LINE
  5
3FD
100
AcDbEntity
  8
0
100
AcDbLine
 10
103.50002
 20
73.99998
 30
0.0
 11
103.12599
 21
73.62595
 31
0.0
  0
ARC
  5
3FE
100
AcDbEntity
  8
0
100
AcDbCircle
 10
102.7
 20
73.74998
 30
0.0
 40
0.300167
100
AcDbArc
 50
199.970128
 51
274.462605
  0
ARC
  5
3FF
100
AcDbEntity
  8
0
100
AcDbCircle
 10
102.702
 20
74.04999
 30
0.0
 40
0.599648
100
AcDbArc
 50
267.195159
 51
315.0
  0
LINE
  5
400
100
AcDbEntity
  8
0
100
AcDbLine
 10
104.0
 20
73.99998
 30
0.0
 11
103.50002
 21
73.99998
 31
0.0
  0
ARC
  5
401
100
AcDbEntity
  8
0
100
AcDbCircle
 10
102.6
 20
71.6
 30
0.0
 40
1.6
100
AcDbArc
 50
270.0
 51
0.0
  0
LINE
  5
402
100
AcDbEntity
  8
0
100
AcDbLine
 10
103.153999
 20
80.183981
 30
0.0
 11
103.383594
 21
80.37666
 31
0.0
  0
ARC
  5
403
100
AcDbEntity
  8
0
100
AcDbCircle
 10
102.04074
 20
79.9
 30
0.0
 40
0.2
100
AcDbArc
 50
270.0
 51
355.01295
  0
LINE
  5
404
100
AcDbEntity
  8
0
100
AcDbLine
 10
102.27
 20
80.22699
 30
0.0
 11
102.27
 21
79.38004
 31
0.0
  0
LINE
  5
405
100
AcDbEntity
  8
0
100
AcDbLine
 10
103.153999
 20
80.183981
 30
0.0
 11
102.961026
 21
80.413953
 31
0.0
  0
LINE
  5
406
100
AcDbEntity
  8
0
100
AcDbLine
 10
103.67
 20
78.40399
 30
0.0
 11
103.67
 21
74.59999
 31
0.0
  0
LINE
  5
407
100
AcDbEntity
  8
0
100
AcDbLine
 10
102.75
 20
74.59999
 30
0.0
 11
103.37
 21
74.59999
 31
0.0
  0
ARC
  5
408
100
AcDbEntity
  8
0
100
AcDbCircle
 10
101.858957
 20
74.59999
 30
0.0
 40
0.2
100
AcDbArc
 50
19.970128
 51
90.0
  0
LINE
  5
409
100
AcDbEntity
  8
0
100
AcDbLine
 10
103.37
 20
78.28003
 30
0.0
 11
103.37
 21
74.59999
 31
0.0
  0
LINE
  5
40A
100
AcDbEntity
  8
0
100
AcDbLine
 10
102.27
 20
79.38004
 30
0.0
 11
103.37
 21
78.28003
 31
0.0
  0
LINE
  5
40B
100
AcDbEntity
  8
0
100
AcDbLine
 10
102.570032
 20
79.503948
 30
0.0
 11
103.67
 21
78.40399
 31
0.0
  0
ARC
  5
40C
100
AcDbEntity
  8
0
100
AcDbCircle
 10
90.583282
 20
80.740221
 30
0.0
 40
0.5
100
AcDbArc
 50
4.98705
 51
139.909786
  0
LINE
  5
40D
100
AcDbEntity
  8
0
100
AcDbLine
 10
89.4
 20
80.79999
 30
0.0
 11
89.980027
 21
80.79999
 31
0.0
  0
ARC
  5
40E
100
AcDbEntity
  8
0
100
AcDbCircle
 10
89.4
 20
80.99999
 30
0.0
 40
0.2
100
AcDbArc
 50
180.0
 51
270.0
  0
ARC
  5
40F
100
AcDbEntity
  8
0
100
AcDbCircle
 10
90.578724
 20
80.735139
 30
0.0
 40
0.2
100
AcDbArc
 50
2.37537
 51
139.992225
  0
LINE
  5
410
100
AcDbEntity
  8
0
100
AcDbLine
 10
89.979748
 20
80.799658
 30
0.0
 11
90.200766
 21
81.062217
 31
0.0
  0
LINE
  5
411
100
AcDbEntity
  8
0
100
AcDbLine
 10
90.210002
 20
80.606928
 30
0.0
 11
90.425533
 21
80.863717
 31
0.0
  0
ARC
  5
412
100
AcDbEntity
  8
0
100
AcDbCircle
 10
90.8
 20
82.4
 30
0.0
 40
1.6
100
AcDbArc
 50
90.0
 51
180.0
  0
ARC
  5
413
100
AcDbEntity
  8
0
100
AcDbCircle
 10
104.0
 20
80.99999
 30
0.0
 40
0.2
100
AcDbArc
 50
270.0
 51
0.0
  0
LINE
  5
414
100
AcDbEntity
  8
0
100
AcDbLine
 10
103.420252
 20
80.799658
 30
0.0
 11
103.199234
 21
81.062217
 31
0.0
  0
LINE
  5
415
100
AcDbEntity
  8
0
100
AcDbLine
 10
103.189998
 20
80.606928
 30
0.0
 11
102.974467
 21
80.863717
 31
0.0
  0
ARC
  5
416
100
AcDbEntity
  8
0
100
AcDbCircle
 10
102.821276
 20
80.735139
 30
0.0
 40
0.2
100
AcDbArc
 50
40.007775
 51
177.62463
  0
ARC
  5
417
100
AcDbEntity
  8
0
100
AcDbCircle
 10
102.816718
 20
80.740221
 30
0.0
 40
0.5
100
AcDbArc
 50
40.090214
 51
175.01295
  0
ARC
  5
418
100
AcDbEntity
  8
0
100
AcDbCircle
 10
102.6
 20
82.4
 30
0.0
 40
1.6
100
AcDbArc
 50
0.0
 51
90.0
  0
LINE
  5
419
100
AcDbEntity
  8
0
100
AcDbLine
 10
104.0
 20
80.79999
 30
0.0
 11
103.419973
 21
80.79999
 31
0.0
  0
LINE
  5
41A
100
AcDbEntity
  8
0
100
AcDbLine
 10
91.541043
 20
25.20001
 30
0.0
 11
93.577753
 21
25.20001
 31
0.0
  0
LINE
  5
41B
100
AcDbEntity
  8
0
100
AcDbLine
 10
90.8
 20
30.0
 30
0.0
 11
102.6
 21
30.0
 31
0.0
  0
LINE
  5
41C
100
AcDbEntity
  8
0
100
AcDbLine
 10
91.35926
 20
20.3
 30
0.0
 11
93.577745
 21
20.3
 31
0.0
  0
LINE
  5
41D
100
AcDbEntity
  8
0
100
AcDbLine
 10
90.829968
 20
20.496052
 30
0.0
 11
89.73
 21
21.59601
 31
0.0
  0
LINE
  5
41E
100
AcDbEntity
  8
0
100
AcDbLine
 10
91.13
 20
20.61996
 30
0.0
 11
90.03
 21
21.71997
 31
0.0
  0
LINE
  5
41F
100
AcDbEntity
  8
0
100
AcDbLine
 10
91.13
 20
19.77301
 30
0.0
 11
91.13
 21
20.61996
 31
0.0
  0
ARC
  5
420
100
AcDbEntity
  8
0
100
AcDbCircle
 10
90.209257
 20
19.39354
 30
0.0
 40
0.3
100
AcDbArc
 50
130.003724
 51
220.090214
  0
LINE
  5
421
100
AcDbEntity
  8
0
100
AcDbLine
 10
89.4
 20
19.20001
 30
0.0
 11
89.980027
 21
19.20001
 31
0.0
  0
ARC
  5
422
100
AcDbEntity
  8
0
100
AcDbCircle
 10
89.4
 20
19.00001
 30
0.0
 40
0.2
100
AcDbArc
 50
90.0
 51
180.0
  0
LINE
  5
423
100
AcDbEntity
  8
0
100
AcDbLine
 10
90.210002
 20
19.393072
 30
0.0
 11
90.425533
 21
19.136283
 31
0.0
  0
LINE
  5
424
100
AcDbEntity
  8
0
100
AcDbLine
 10
90.438974
 20
19.586047
 30
0.0
 11
90.210002
 21
19.393072
 31
0.0
  0
ARC
  5
425
100
AcDbEntity
  8
0
100
AcDbCircle
 10
90.578724
 20
19.264861
 30
0.0
 40
0.2
100
AcDbArc
 50
220.007775
 51
357.62463
  0
LINE
  5
426
100
AcDbEntity
  8
0
100
AcDbLine
 10
91.081389
 20
19.216314
 30
0.0
 11
91.160017
 21
20.117386
 31
0.0
  0
LINE
  5
427
100
AcDbEntity
  8
0
100
AcDbLine
 10
90.246001
 20
19.816019
 30
0.0
 11
90.016406
 21
19.62334
 31
0.0
  0
LINE
  5
428
100
AcDbEntity
  8
0
100
AcDbLine
 10
90.246001
 20
19.816019
 30
0.0
 11
90.438974
 21
19.586047
 31
0.0
  0
LINE
  5
429
100
AcDbEntity
  8
0
100
AcDbLine
 10
90.778552
 20
19.256572
 30
0.0
 11
90.829968
 21
20.496052
 31
0.0
  0
ARC
  5
42A
100
AcDbEntity
  8
0
100
AcDbCircle
 10
90.8
 20
17.6
 30
0.0
 40
1.6
100
AcDbArc
 50
180.0
 51
270.0
  0
LINE
  5
42B
100
AcDbEntity
  8
0
100
AcDbLine
 10
89.979748
 20
19.200342
 30
0.0
 11
90.200766
 21
18.937783
 31
0.0
  0
ARC
  5
42C
100
AcDbEntity
  8
0
100
AcDbCircle
 10
90.583282
 20
19.259779
 30
0.0
 40
0.5
100
AcDbArc
 50
220.090214
 51
355.01295
  0
ARC
  5
42D
100
AcDbEntity
  8
0
100
AcDbCircle
 10
91.35926
 20
20.1
 30
0.0
 40
0.2
100
AcDbArc
 50
90.0
 51
175.01295
  0
LINE
  5
42E
100
AcDbEntity
  8
0
100
AcDbLine
 10
89.89998
 20
26.00002
 30
0.0
 11
90.27401
 21
26.37405
 31
0.0
  0
LINE
  5
42F
100
AcDbEntity
  8
0
100
AcDbLine
 10
89.4
 20
26.00002
 30
0.0
 11
89.89998
 21
26.00002
 31
0.0
  0
ARC
  5
430
100
AcDbEntity
  8
0
100
AcDbCircle
 10
89.4
 20
26.20002
 30
0.0
 40
0.2
100
AcDbArc
 50
180.0
 51
270.0
  0
LINE
  5
431
100
AcDbEntity
  8
0
100
AcDbLine
 10
90.03
 20
25.70001
 30
0.0
 11
90.65
 21
25.70001
 31
0.0
  0
ARC
  5
432
100
AcDbEntity
  8
0
100
AcDbCircle
 10
90.7
 20
26.25002
 30
0.0
 40
0.300167
100
AcDbArc
 50
19.970128
 51
94.462605
  0
ARC
  5
433
100
AcDbEntity
  8
0
100
AcDbCircle
 10
90.698
 20
25.95001
 30
0.0
 40
0.599648
100
AcDbArc
 50
87.195159
 51
135.0
  0
LINE
  5
434
100
AcDbEntity
  8
0
100
AcDbLine
 10
90.65
 20
25.40001
 30
0.0
 11
90.03
 21
25.40001
 31
0.0
  0
ARC
  5
435
100
AcDbEntity
  8
0
100
AcDbCircle
 10
90.03
 20
25.40001
 30
0.0
 40
0.3
100
AcDbArc
 50
90.0
 51
180.0
  0
LINE
  5
436
100
AcDbEntity
  8
0
100
AcDbLine
 10
90.65
 20
25.70001
 30
0.0
 11
90.65
 21
25.40001
 31
0.0
  0
ARC
  5
437
100
AcDbEntity
  8
0
100
AcDbCircle
 10
91.541043
 20
25.40001
 30
0.0
 40
0.2
100
AcDbArc
 50
199.970128
 51
270.0
  0
LINE
  5
438
100
AcDbEntity
  8
0
100
AcDbLine
 10
90.98199
 20
26.35289
 30
0.0
 11
91.353069
 21
25.331704
 31
0.0
  0
LINE
  5
439
100
AcDbEntity
  8
0
100
AcDbLine
 10
89.73
 20
21.59601
 30
0.0
 11
89.73
 21
25.40001
 31
0.0
  0
LINE
  5
43A
100
AcDbEntity
  8
0
100
AcDbLine
 10
90.03
 20
21.71997
 30
0.0
 11
90.03
 21
25.40001
 31
0.0
  0
ARC
  5
43B
100
AcDbEntity
  8
0
100
AcDbCircle
 10
90.8
 20
28.4
 30
0.0
 40
1.6
100
AcDbArc
 50
90.0
 51
180.0
  0
LINE
  5
43C
100
AcDbEntity
  8
0
100
AcDbLine
 10
102.27
 20
20.61996
 30
0.0
 11
103.37
 21
21.71997
 31
0.0
  0
LINE
  5
43D
100
AcDbEntity
  8
0
100
AcDbLine
 10
102.570032
 20
20.496052
 30
0.0
 11
103.67
 21
21.59601
 31
0.0
  0
CIRCLE
  5
43E
100
AcDbEntity
  8
0
100
AcDbCircle
 10
96.7
 20
22.75
 30
0.0
 40
3.96875
  0
LINE
  5
43F
100
AcDbEntity
  8
0
100
AcDbLine
 10
102.04074
 20
20.3
 30
0.0
 11
99.822255
 21
20.3
 31
0.0
  0
ARC
  5
440
100
AcDbEntity
  8
0
100
AcDbCircle
 10
104.0
 20
19.00001
 30
0.0
 40
0.2
100
AcDbArc
 50
0.0
 51
90.0
  0
LINE
  5
441
100
AcDbEntity
  8
0
100
AcDbLine
 10
103.153999
 20
19.816019
 30
0.0
 11
103.383594
 21
19.62334
 31
0.0
  0
LINE
  5
442
100
AcDbEntity
  8
0
100
AcDbLine
 10
102.621448
 20
19.256572
 30
0.0
 11
102.570032
 21
20.496052
 31
0.0
  0
LINE
  5
443
100
AcDbEntity
  8
0
100
AcDbLine
 10
103.153999
 20
19.816019
 30
0.0
 11
102.961026
 21
19.586047
 31
0.0
  0
LINE
  5
444
100
AcDbEntity
  8
0
100
AcDbLine
 10
102.318611
 20
19.216314
 30
0.0
 11
102.239983
 21
20.117386
 31
0.0
  0
ARC
  5
445
100
AcDbEntity
  8
0
100
AcDbCircle
 10
102.821276
 20
19.264861
 30
0.0
 40
0.2
100
AcDbArc
 50
182.37537
 51
319.992225
  0
LINE
  5
446
100
AcDbEntity
  8
0
100
AcDbLine
 10
102.961026
 20
19.586047
 30
0.0
 11
103.189998
 21
19.393072
 31
0.0
  0
LINE
  5
447
100
AcDbEntity
  8
0
100
AcDbLine
 10
103.189998
 20
19.393072
 30
0.0
 11
102.974467
 21
19.136283
 31
0.0
  0
LINE
  5
448
100
AcDbEntity
  8
0
100
AcDbLine
 10
102.27
 20
19.77301
 30
0.0
 11
102.27
 21
20.61996
 31
0.0
  0
ARC
  5
449
100
AcDbEntity
  8
0
100
AcDbCircle
 10
102.04074
 20
20.1
 30
0.0
 40
0.2
100
AcDbArc
 50
4.98705
 51
90.0
  0
ARC
  5
44A
100
AcDbEntity
  8
0
100
AcDbCircle
 10
103.190743
 20
19.39354
 30
0.0
 40
0.3
100
AcDbArc
 50
319.909786
 51
49.996276
  0
LINE
  5
44B
100
AcDbEntity
  8
0
100
AcDbLine
 10
104.0
 20
19.20001
 30
0.0
 11
103.419973
 21
19.20001
 31
0.0
  0
ARC
  5
44C
100
AcDbEntity
  8
0
100
AcDbCircle
 10
102.6
 20
17.6
 30
0.0
 40
1.6
100
AcDbArc
 50
270.0
 51
0.0
  0
LINE
  5
44D
100
AcDbEntity
  8
0
100
AcDbLine
 10
103.420252
 20
19.200342
 30
0.0
 11
103.199234
 21
18.937783
 31
0.0
  0
ARC
  5
44E
100
AcDbEntity
  8
0
100
AcDbCircle
 10
102.816718
 20
19.259779
 30
0.0
 40
0.5
100
AcDbArc
 50
184.98705
 51
319.909786
  0
LINE
  5
44F
100
AcDbEntity
  8
0
100
AcDbLine
 10
101.858957
 20
25.20001
 30
0.0
 11
99.822247
 21
25.20001
 31
0.0
  0
ARC
  5
450
100
AcDbEntity
  8
0
100
AcDbCircle
 10
104.0
 20
26.20002
 30
0.0
 40
0.2
100
AcDbArc
 50
270.0
 51
0.0
  0
LINE
  5
451
100
AcDbEntity
  8
0
100
AcDbLine
 10
102.75
 20
25.40001
 30
0.0
 11
103.37
 21
25.40001
 31
0.0
  0
LINE
  5
452
100
AcDbEntity
  8
0
100
AcDbLine
 10
103.50002
 20
26.00002
 30
0.0
 11
103.12599
 21
26.37405
 31
0.0
  0
LINE
  5
453
100
AcDbEntity
  8
0
100
AcDbLine
 10
103.37
 20
25.70001
 30
0.0
 11
102.75
 21
25.70001
 31
0.0
  0
ARC
  5
454
100
AcDbEntity
  8
0
100
AcDbCircle
 10
101.858957
 20
25.40001
 30
0.0
 40
0.2
100
AcDbArc
 50
270.0
 51
340.029872
  0
LINE
  5
455
100
AcDbEntity
  8
0
100
AcDbLine
 10
102.75
 20
25.70001
 30
0.0
 11
102.75
 21
25.40001
 31
0.0
  0
LINE
  5
456
100
AcDbEntity
  8
0
100
AcDbLine
 10
102.41801
 20
26.35289
 30
0.0
 11
102.046931
 21
25.331704
 31
0.0
  0
ARC
  5
457
100
AcDbEntity
  8
0
100
AcDbCircle
 10
102.702
 20
25.95001
 30
0.0
 40
0.599648
100
AcDbArc
 50
45.0
 51
92.804841
  0
ARC
  5
458
100
AcDbEntity
  8
0
100
AcDbCircle
 10
102.7
 20
26.25002
 30
0.0
 40
0.300167
100
AcDbArc
 50
85.537395
 51
160.029872
  0
ARC
  5
459
100
AcDbEntity
  8
0
100
AcDbCircle
 10
103.37
 20
25.40001
 30
0.0
 40
0.3
100
AcDbArc
 50
0.0
 51
90.0
  0
LINE
  5
45A
100
AcDbEntity
  8
0
100
AcDbLine
 10
104.0
 20
26.00002
 30
0.0
 11
103.50002
 21
26.00002
 31
0.0
  0
LINE
  5
45B
100
AcDbEntity
  8
0
100
AcDbLine
 10
103.67
 20
21.59601
 30
0.0
 11
103.67
 21
25.40001
 31
0.0
  0
LINE
  5
45C
100
AcDbEntity
  8
0
100
AcDbLine
 10
103.37
 20
21.71997
 30
0.0
 11
103.37
 21
25.40001
 31
0.0
  0
ARC
  5
45D
100
AcDbEntity
  8
0
100
AcDbCircle
 10
102.6
 20
28.4
 30
0.0
 40
1.6
100
AcDbArc
 50
0.0
 51
90.0
  0
LINE
  5
45E
100
AcDbEntity
  8
0
  6
DASHED
 62
     3
100
AcDbLine
 10
109.0
 20
11.0
 30
0.0
 11
109.0
 21
14.5
 31
0.0
  0
LINE
  5
45F
100
AcDbEntity
  8
0
  6
DASHED
 62
     3
100
AcDbLine
 10
122.0
 20
11.0
 30
0.0
 11
122.0
 21
17.0
 31
0.0
  0
LINE
  5
460
100
AcDbEntity
  8
0
  6
DASHED
 62
     3
100
AcDbLine
 10
122.0
 20
83.0
 30
0.0
 11
122.0
 21
89.0
 31
0.0
  0
LINE
  5
461
100
AcDbEntity
  8
0
  6
DASHED
 62
     3
100
AcDbLine
 10
109.0
 20
85.5
 30
0.0
 11
109.0
 21
89.0
 31
0.0
  0
ENDSEC
  0
SECTION
  2
OBJECTS
  0
DICTIONARY
  5
2D9
100
AcDbDictionary
  3
ACAD_GROUP
350
2DA
  3
ACAD_LAYOUT
350
2E6
  3
ACAD_MLINESTYLE
350
2E3
  3
ACAD_PLOTSETTINGS
350
2E5
  3
ACAD_PLOTSTYLENAME
350
2DB
  3
ACDBHEADERROUNDTRIPXREC
350
46E
  3
AcDbVariableDictionary
350
496
  0
DICTIONARY
  5
46C
100
AcDbDictionary
280
     1
  3
ACAD_XREC_ROUNDTRIP
360
46D
  0
DICTIONARY
  5
468
100
AcDbDictionary
280
     1
  3
ACAD_XREC_ROUNDTRIP
360
469
  0
DICTIONARY
  5
46A
100
AcDbDictionary
280
     1
  3
ACAD_XREC_ROUNDTRIP
360
46B
  0
DICTIONARY
  5
494
100
AcDbDictionary
280
     1
  3
ACAD_XREC_ROUNDTRIP
360
495
  0
DICTIONARY
  5
464
100
AcDbDictionary
280
     1
  3
ACAD_LAYOUTSELFREF
360
493
  3
ACAD_XREC_ROUNDTRIP
360
465
  0
DICTIONARY
  5
466
100
AcDbDictionary
280
     1
  3
ACAD_LAYOUTSELFREF
360
492
  3
ACAD_XREC_ROUNDTRIP
360
467
  0
DICTIONARY
  5
2DA
102
{ACAD_REACTORS
330
2D9
102
}
100
AcDbDictionary
  0
DICTIONARY
  5
2E6
102
{ACAD_XDICTIONARY
360
490
102
}
102
{ACAD_REACTORS
330
2D9
102
}
100
AcDbDictionary
  3
MODEL
350
2EE
  3
ﾚｲｱｳﾄ1
350
2EA
  0
DICTIONARY
  5
2E3
102
{ACAD_XDICTIONARY
360
48E
102
}
102
{ACAD_REACTORS
330
2D9
102
}
100
AcDbDictionary
  3
STANDARD
350
2E4
  0
DICTIONARY
  5
2E5
102
{ACAD_REACTORS
330
2D9
102
}
100
AcDbDictionary
  0
ACAD_PROXY_OBJECT
  5
2DB
102
{ACAD_REACTORS
330
2D9
102
}
100
AcDbProxyObject
 90
      499
 91
      500
 93
       86
310
405010041939BDC9B585B0
350
2DC
340
2DC
 94
        0
  0
DICTIONARY
  5
46E
102
{ACAD_REACTORS
330
2D9
102
}
100
AcDbDictionary
  3
CEPSNTYPE
350
478
  3
FINGERPRINTGUID
350
479
  3
HYPERLINKBASE
350
471
  3
INSUNITS
350
477
  3
LAYOUTDICT
350
473
  3
LWETCUNION
350
476
  3
PLOTSETDICT
350
474
  3
PLOTSTYLNAMDICT
350
475
  3
PSVPSCALE
350
47B
  3
PUCSBASE
350
47E
  3
PUCSORGBACK
350
484
  3
PUCSORGBOTTOM
350
480
  3
PUCSORGFRONT
350
483
  3
PUCSORGLEFT
350
481
  3
PUCSORGRIGHT
350
482
  3
PUCSORGTOP
350
47F
  3
PUCSORTHOREF
350
47C
  3
PUCSORTHOVIEW
350
47D
  3
STYLESHEET
350
472
  3
TSTACKALIGN
350
46F
  3
TSTACKSIZE
350
470
  3
UCSBASE
350
487
  3
UCSORGBACK
350
48D
  3
UCSORGBOTTOM
350
489
  3
UCSORGFRONT
350
48C
  3
UCSORGLEFT
350
48A
  3
UCSORGRIGHT
350
48B
  3
UCSORGTOP
350
488
  3
UCSORTHOREF
350
485
  3
UCSORTHOVIEW
350
486
  3
VERSIONGUID
350
47A
  0
DICTIONARY
  5
496
102
{ACAD_REACTORS
330
2D9
102
}
100
AcDbDictionary
  3
DIMASSOC
350
497
  0
XRECORD
  5
46D
102
{ACAD_REACTORS
330
46C
102
}
100
AcDbXrecord
102
EXTNAMES
  1
*ACTIVE
  2
*Active
102
UCS
 74
     0
 71
     0
 10
0.0
 20
0.0
 30
0.0
 10
1.0
 20
0.0
 30
0.0
 10
0.0
 20
1.0
 30
0.0
146
0.0
 79
     0
102
VIEW
281
     0
  0
XRECORD
  5
469
102
{ACAD_REACTORS
330
468
102
}
100
AcDbXrecord
102
EXTNAMES
  1
BYBLOCK
  2
ByBlock
  0
XRECORD
  5
46B
102
{ACAD_REACTORS
330
46A
102
}
100
AcDbXrecord
102
EXTNAMES
  1
BYLAYER
  2
ByLayer
  0
XRECORD
  5
495
102
{ACAD_REACTORS
330
494
102
}
100
AcDbXrecord
102
ACADR14ROUNDTRIP
1000
DSTYLE
1002
{
1070
   279
 70
     2
1002
}
  0
XRECORD
  5
493
102
{ACAD_REACTORS
330
464
102
}
100
AcDbXrecord
340
2EB
  0
XRECORD
  5
465
102
{ACAD_REACTORS
330
464
102
}
100
AcDbXrecord
102
EXTNAMES
  1
*MODEL_SPACE
  2
*Model_Space
  0
XRECORD
  5
492
102
{ACAD_REACTORS
330
466
102
}
100
AcDbXrecord
340
2E7
  0
XRECORD
  5
467
102
{ACAD_REACTORS
330
466
102
}
100
AcDbXrecord
102
EXTNAMES
  1
*PAPER_SPACE
  2
*Paper_Space
  0
DICTIONARY
  5
490
100
AcDbDictionary
280
     1
  3
ACAD_XREC_ROUNDTRIP
360
491
  0
ACAD_PROXY_OBJECT
  5
2EE
102
{ACAD_REACTORS
330
2E6
102
}
100
AcDbProxyObject
 90
      499
 91
      502
 93
      836
310
932433A5C50524F4752414D2046494C45535C4D4454365C706C6F74746572735C526F6C616E64204458592D313235302E7063332C01AAAAAAAAA5A69054D6F64656C901A800000000000000000000000000000000000000000000A1000000000000008902A6A6AAAA0
330
2EB
330
0
340
0
340
0
 94
        0
  0
ACAD_PROXY_OBJECT
  5
2EA
102
{ACAD_REACTORS
330
2E6
102
}
100
AcDbProxyObject
 90
      499
 91
      502
 93
     1252
310
932433A5C50524F4752414D2046494C45535C4D4454365C706C6F74746572735C526F6C616E64204458592D313235302E7063332C00AAAAAA416AA59106906DAB2B1B3C43140501A800000000000000000000000000000000000000000101E900000000000241C902A6A6A10232D5E076BC5510408CB5781DAF154410232D5
310
E076BC5510408CB5781DAF15C410232D5E076BC5710408CB5781DAF15C40
330
2E7
330
0
340
0
340
0
 94
        0
  0
DICTIONARY
  5
48E
100
AcDbDictionary
280
     1
  3
ACAD_XREC_ROUNDTRIP
360
48F
  0
MLINESTYLE
  5
2E4
102
{ACAD_REACTORS
330
2E3
102
}
100
AcDbMlineStyle
  2
STANDARD
 70
     0
  3

 62
   256
 51
90.0
 52
90.0
 71
     2
 49
0.5
 62
   256
  6
BYLAYER
 49
-0.5
 62
   256
  6
BYLAYER
  0
ACAD_PROXY_OBJECT
  5
2DC
102
{ACAD_REACTORS
330
2DB
102
}
100
AcDbProxyObject
 90
      499
 91
      501
 93
        0
 94
        0
  0
XRECORD
  5
478
102
{ACAD_REACTORS
330
46E
102
}
100
AcDbXrecord
 90
        0
  0
XRECORD
  5
479
102
{ACAD_REACTORS
330
46E
102
}
100
AcDbXrecord
  1
{96F2B061-8B8F-4D97-9B65-5BD4093EE43C}
  0
XRECORD
  5
471
102
{ACAD_REACTORS
330
46E
102
}
100
AcDbXrecord
  1

  0
XRECORD
  5
477
102
{ACAD_REACTORS
330
46E
102
}
100
AcDbXrecord
 90
        0
  0
XRECORD
  5
473
102
{ACAD_REACTORS
330
46E
102
}
100
AcDbXrecord
340
2E6
  0
XRECORD
  5
476
102
{ACAD_REACTORS
330
46E
102
}
100
AcDbXrecord
 90
    10781
  0
XRECORD
  5
474
102
{ACAD_REACTORS
330
46E
102
}
100
AcDbXrecord
340
2E5
  0
XRECORD
  5
475
102
{ACAD_REACTORS
330
46E
102
}
100
AcDbXrecord
340
2DB
  0
XRECORD
  5
47B
102
{ACAD_REACTORS
330
46E
102
}
100
AcDbXrecord
 40
0.0
  0
XRECORD
  5
47E
102
{ACAD_REACTORS
330
46E
102
}
100
AcDbXrecord
340
0
  0
XRECORD
  5
484
102
{ACAD_REACTORS
330
46E
102
}
100
AcDbXrecord
 10
0.0
 20
0.0
 30
0.0
  0
XRECORD
  5
480
102
{ACAD_REACTORS
330
46E
102
}
100
AcDbXrecord
 10
0.0
 20
0.0
 30
0.0
  0
XRECORD
  5
483
102
{ACAD_REACTORS
330
46E
102
}
100
AcDbXrecord
 10
0.0
 20
0.0
 30
0.0
  0
XRECORD
  5
481
102
{ACAD_REACTORS
330
46E
102
}
100
AcDbXrecord
 10
0.0
 20
0.0
 30
0.0
  0
XRECORD
  5
482
102
{ACAD_REACTORS
330
46E
102
}
100
AcDbXrecord
 10
0.0
 20
0.0
 30
0.0
  0
XRECORD
  5
47F
102
{ACAD_REACTORS
330
46E
102
}
100
AcDbXrecord
 10
0.0
 20
0.0
 30
0.0
  0
XRECORD
  5
47C
102
{ACAD_REACTORS
330
46E
102
}
100
AcDbXrecord
340
0
  0
XRECORD
  5
47D
102
{ACAD_REACTORS
330
46E
102
}
100
AcDbXrecord
 70
     0
  0
XRECORD
  5
472
102
{ACAD_REACTORS
330
46E
102
}
100
AcDbXrecord
  1

  0
XRECORD
  5
46F
102
{ACAD_REACTORS
330
46E
102
}
100
AcDbXrecord
 90
        1
  0
XRECORD
  5
470
102
{ACAD_REACTORS
330
46E
102
}
100
AcDbXrecord
 90
       70
  0
XRECORD
  5
487
102
{ACAD_REACTORS
330
46E
102
}
100
AcDbXrecord
340
0
  0
XRECORD
  5
48D
102
{ACAD_REACTORS
330
46E
102
}
100
AcDbXrecord
 10
0.0
 20
0.0
 30
0.0
  0
XRECORD
  5
489
102
{ACAD_REACTORS
330
46E
102
}
100
AcDbXrecord
 10
0.0
 20
0.0
 30
0.0
  0
XRECORD
  5
48C
102
{ACAD_REACTORS
330
46E
102
}
100
AcDbXrecord
 10
0.0
 20
0.0
 30
0.0
  0
XRECORD
  5
48A
102
{ACAD_REACTORS
330
46E
102
}
100
AcDbXrecord
 10
0.0
 20
0.0
 30
0.0
  0
XRECORD
  5
48B
102
{ACAD_REACTORS
330
46E
102
}
100
AcDbXrecord
 10
0.0
 20
0.0
 30
0.0
  0
XRECORD
  5
488
102
{ACAD_REACTORS
330
46E
102
}
100
AcDbXrecord
 10
0.0
 20
0.0
 30
0.0
  0
XRECORD
  5
485
102
{ACAD_REACTORS
330
46E
102
}
100
AcDbXrecord
340
0
  0
XRECORD
  5
486
102
{ACAD_REACTORS
330
46E
102
}
100
AcDbXrecord
 70
     0
  0
XRECORD
  5
47A
102
{ACAD_REACTORS
330
46E
102
}
100
AcDbXrecord
  1
{03E3EB31-31AE-4B7B-9A64-A226D7277BF8}
  0
DICTIONARYVAR
  5
497
102
{ACAD_REACTORS
330
496
102
}
100
DictionaryVariables
280
     0
  1
1
  0
XRECORD
  5
491
102
{ACAD_REACTORS
330
490
102
}
100
AcDbXrecord
102
EXTNAMES
  1
MODEL
  2
Model
  0
XRECORD
  5
48F
102
{ACAD_REACTORS
330
48E
102
}
100
AcDbXrecord
102
EXTNAMES
  1
STANDARD
  2
Standard
  0
ENDSEC
  0
EOF
