  0
SECTION
  2
HEADER
  9
$ACADVER
  1
AC1014
  9
$ACADMAINTVER
 70
     0
  9
$DWGCODEPAGE
  3
ANSI_932
  9
$INSBASE
 10
0.0
 20
0.0
 30
0.0
  9
$EXTMIN
 10
174.208246
 20
152.939351
 30
0.0
  9
$EXTMAX
 10
428.620179
 20
262.033073
 30
0.0
  9
$LIMMIN
 10
0.0
 20
0.0
  9
$LIMMAX
 10
594.0
 20
420.0
  9
$ORTHOMODE
 70
     0
  9
$REGENMODE
 70
     1
  9
$FILLMODE
 70
     1
  9
$QTEXTMODE
 70
     0
  9
$MIRRTEXT
 70
     1
  9
$DRAGMODE
 70
     2
  9
$LTSCALE
 40
0.25
  9
$OSMODE
 70
    37
  9
$ATTMODE
 70
     1
  9
$TEXTSIZE
 40
4.0
  9
$TRACEWID
 40
1.0
  9
$TEXTSTYLE
  7
STANDARD
  9
$CLAYER
  8
0
  9
$CELTYPE
  6
BYLAYER
  9
$CECOLOR
 62
   256
  9
$CELTSCALE
 40
1.0
  9
$DELOBJ
 70
     1
  9
$DISPSILH
 70
     0
  9
$DIMSCALE
 40
2.0
  9
$DIMASZ
 40
3.0
  9
$DIMEXO
 40
1.0
  9
$DIMDLI
 40
0.0
  9
$DIMRND
 40
0.0
  9
$DIMDLE
 40
0.0
  9
$DIMEXE
 40
1.0
  9
$DIMTP
 40
0.1
  9
$DIMTM
 40
0.0
  9
$DIMTXT
 40
3.2
  9
$DIMCEN
 40
0.0
  9
$DIMTSZ
 40
0.0
  9
$DIMTOL
 70
     0
  9
$DIMLIM
 70
     0
  9
$DIMTIH
 70
     0
  9
$DIMTOH
 70
     0
  9
$DIMSE1
 70
     0
  9
$DIMSE2
 70
     0
  9
$DIMTAD
 70
     3
  9
$DIMZIN
 70
     8
  9
$DIMBLK
  1

  9
$DIMASO
 70
     1
  9
$DIMSHO
 70
     1
  9
$DIMPOST
  1

  9
$DIMAPOST
  1

  9
$DIMALT
 70
     0
  9
$DIMALTD
 70
     2
  9
$DIMALTF
 40
0.04
  9
$DIMLFAC
 40
1.0
  9
$DIMTOFL
 70
     1
  9
$DIMTVP
 40
1.0
  9
$DIMTIX
 70
     1
  9
$DIMSOXD
 70
     0
  9
$DIMSAH
 70
     1
  9
$DIMBLK1
  1
DOT
  9
$DIMBLK2
  1
ARROW
  9
$DIMSTYLE
  2
DA1
  9
$DIMCLRD
 70
     0
  9
$DIMCLRE
 70
     0
  9
$DIMCLRT
 70
     0
  9
$DIMTFAC
 40
0.6
  9
$DIMGAP
 40
1.0
  9
$DIMJUST
 70
     0
  9
$DIMSD1
 70
     0
  9
$DIMSD2
 70
     0
  9
$DIMTOLJ
 70
     1
  9
$DIMTZIN
 70
     0
  9
$DIMALTZ
 70
     0
  9
$DIMALTTZ
 70
     0
  9
$DIMFIT
 70
     3
  9
$DIMUPT
 70
     0
  9
$DIMUNIT
 70
     2
  9
$DIMDEC
 70
     4
  9
$DIMTDEC
 70
     4
  9
$DIMALTU
 70
     2
  9
$DIMALTTD
 70
     2
  9
$DIMTXSTY
  7
STANDARD
  9
$DIMAUNIT
 70
     0
  9
$LUNITS
 70
     2
  9
$LUPREC
 70
     2
  9
$SKETCHINC
 40
1.0
  9
$FILLETRAD
 40
10.0
  9
$AUNITS
 70
     0
  9
$AUPREC
 70
     0
  9
$MENU
  1
acad
  9
$ELEVATION
 40
0.0
  9
$PELEVATION
 40
0.0
  9
$THICKNESS
 40
0.0
  9
$LIMCHECK
 70
     0
  9
$BLIPMODE
 70
     0
  9
$CHAMFERA
 40
0.0
  9
$CHAMFERB
 40
0.0
  9
$CHAMFERC
 40
0.0
  9
$CHAMFERD
 40
0.0
  9
$SKPOLY
 70
     0
  9
$TDCREATE
 40
2451466.814629976
  9
$TDUPDATE
 40
2452821.793701272
  9
$TDINDWG
 40
0.0037563542
  9
$TDUSRTIMER
 40
0.0037561806
  9
$USRTIMER
 70
     1
  9
$ANGBASE
 50
0.0
  9
$ANGDIR
 70
     0
  9
$PDMODE
 70
     1
  9
$PDSIZE
 40
0.0
  9
$PLINEWID
 40
0.0
  9
$COORDS
 70
     1
  9
$SPLFRAME
 70
     0
  9
$SPLINETYPE
 70
     6
  9
$SPLINESEGS
 70
     8
  9
$ATTDIA
 70
     0
  9
$ATTREQ
 70
     1
  9
$HANDLING
 70
     1
  9
$HANDSEED
  5
533
  9
$SURFTAB1
 70
     6
  9
$SURFTAB2
 70
     6
  9
$SURFTYPE
 70
     6
  9
$SURFU
 70
     6
  9
$SURFV
 70
     6
  9
$UCSNAME
  2

  9
$UCSORG
 10
0.0
 20
0.0
 30
0.0
  9
$UCSXDIR
 10
1.0
 20
0.0
 30
0.0
  9
$UCSYDIR
 10
0.0
 20
1.0
 30
0.0
  9
$PUCSNAME
  2

  9
$PUCSORG
 10
0.0
 20
0.0
 30
0.0
  9
$PUCSXDIR
 10
1.0
 20
0.0
 30
0.0
  9
$PUCSYDIR
 10
0.0
 20
1.0
 30
0.0
  9
$USERI1
 70
     0
  9
$USERI2
 70
     0
  9
$USERI3
 70
     0
  9
$USERI4
 70
     0
  9
$USERI5
 70
     0
  9
$USERR1
 40
0.0
  9
$USERR2
 40
0.0
  9
$USERR3
 40
0.0
  9
$USERR4
 40
0.0
  9
$USERR5
 40
0.0
  9
$WORLDVIEW
 70
     1
  9
$SHADEDGE
 70
     3
  9
$SHADEDIF
 70
    70
  9
$TILEMODE
 70
     1
  9
$MAXACTVP
 70
    16
  9
$PINSBASE
 10
0.0
 20
0.0
 30
0.0
  9
$PLIMCHECK
 70
     0
  9
$PEXTMIN
 10
1.000000E+20
 20
1.000000E+20
 30
1.000000E+20
  9
$PEXTMAX
 10
-1.000000E+20
 20
-1.000000E+20
 30
-1.000000E+20
  9
$PLIMMIN
 10
0.0
 20
0.0
  9
$PLIMMAX
 10
420.0
 20
297.0
  9
$UNITMODE
 70
     0
  9
$VISRETAIN
 70
     0
  9
$PLINEGEN
 70
     0
  9
$PSLTSCALE
 70
     0
  9
$TREEDEPTH
 70
  3020
  9
$PICKSTYLE
 70
     1
  9
$CMLSTYLE
  2
STANDARD
  9
$CMLJUST
 70
     0
  9
$CMLSCALE
 40
1.0
  9
$PROXYGRAPHICS
 70
     1
  9
$MEASUREMENT
 70
     0
  0
ENDSEC
  0
SECTION
  2
CLASSES
  0
CLASS
  1
ACDBDICTIONARYWDFLT
  2
AcDbDictionaryWithDefault
  3
AutoCAD 2000
 90
        0
280
     0
281
     0
  0
CLASS
  1
ACDBPLACEHOLDER
  2
AcDbPlaceHolder
  3
AutoCAD 2000
 90
        0
280
     0
281
     0
  0
CLASS
  1
LAYOUT
  2
AcDbLayout
  3
AutoCAD 2000
 90
        0
280
     0
281
     0
  0
CLASS
  1
DICTIONARYVAR
  2
AcDbDictionaryVar
  3
"AutoCAD"
 90
        0
280
     0
281
     0
  0
CLASS
  1
LONG_TRANSACTION
  2
AcDbLongTransaction
  3
AutoCAD 2000
 90
        0
280
     0
281
     0
  0
CLASS
  1
LWPOLYLINE
  2
AcDbPolyline
  3
"AutoCAD"
 90
        0
280
     0
281
     1
  0
CLASS
  1
HATCH
  2
AcDbHatch
  3
"ACAD_SEDONA"
 90
        0
280
     0
281
     1
  0
CLASS
  1
XRECORD
  2
AcDbXrecord
  3
"<Built In>"
 90
        0
280
     0
281
     0
  0
ENDSEC
  0
SECTION
  2
TABLES
  0
TABLE
  2
VPORT
  5
35A
100
AcDbSymbolTable
 70
     1
  0
VPORT
  5
4FA
102
{ACAD_XDICTIONARY
360
503
102
}
100
AcDbSymbolTableRecord
100
AcDbViewportTableRecord
  2
*ACTIVE
 70
     0
 10
0.0
 20
0.0
 11
1.0
 21
1.0
 12
224.308961
 22
149.44711
 13
0.0
 23
0.0
 14
10.0
 24
10.0
 15
0.0
 25
0.0
 16
0.0
 26
0.0
 36
1.0
 17
0.0
 27
0.0
 37
0.0
 40
261.453449
 41
1.570997
 42
50.0
 43
0.0
 44
0.0
 50
0.0
 51
0.0
 71
     0
 72
   100
 73
     1
 74
     0
 75
     0
 76
     0
 77
     0
 78
     1
  0
ENDTAB
  0
TABLE
  2
LTYPE
  5
357
100
AcDbSymbolTable
 70
     3
  0
LTYPE
  5
365
102
{ACAD_XDICTIONARY
360
4FF
102
}
100
AcDbSymbolTableRecord
100
AcDbLinetypeTableRecord
  2
BYBLOCK
 70
     0
  3

 72
    65
 73
     0
 40
0.0
  0
LTYPE
  5
366
102
{ACAD_XDICTIONARY
360
501
102
}
100
AcDbSymbolTableRecord
100
AcDbLinetypeTableRecord
  2
BYLAYER
 70
     0
  3

 72
    65
 73
     0
 40
0.0
  0
LTYPE
  5
367
100
AcDbSymbolTableRecord
100
AcDbLinetypeTableRecord
  2
CONTINUOUS
 70
     0
  3
Solid line
 72
    65
 73
     0
 40
0.0
  0
LTYPE
  5
375
100
AcDbSymbolTableRecord
100
AcDbLinetypeTableRecord
  2
CENTER
 70
     0
  3
____ _ ____ _ ____ _ ____ _ ____ _ ____ _ ____ 
 72
    65
 73
     4
 40
50.8
 49
31.75
 74
     0
 49
-6.35
 74
     0
 49
6.35
 74
     0
 49
-6.35
 74
     0
  0
LTYPE
  5
376
100
AcDbSymbolTableRecord
100
AcDbLinetypeTableRecord
  2
DASHED
 70
     0
  3
Dashed __ __ __ __ __ __ __ __ __ __ __ __ __ _
 72
    65
 73
     2
 40
0.75
 49
0.5
 74
     0
 49
-0.25
 74
     0
  0
ENDTAB
  0
TABLE
  2
LAYER
  5
354
100
AcDbSymbolTable
 70
     3
  0
LAYER
  5
362
100
AcDbSymbolTableRecord
100
AcDbLayerTableRecord
  2
0
 70
     0
 62
     7
  6
CONTINUOUS
  0
LAYER
  5
377
100
AcDbSymbolTableRecord
100
AcDbLayerTableRecord
  2
DIMENSION
 70
     0
 62
    -4
  6
CONTINUOUS
  0
LAYER
  5
378
100
AcDbSymbolTableRecord
100
AcDbLayerTableRecord
  2
CENTER
 70
     0
 62
     1
  6
CENTER
  0
ENDTAB
  0
TABLE
  2
STYLE
  5
355
100
AcDbSymbolTable
 70
     1
  0
STYLE
  5
363
100
AcDbSymbolTableRecord
100
AcDbTextStyleTableRecord
  2
STANDARD
 70
     0
 40
0.0
 41
1.0
 50
0.0
 71
     0
 42
4.0
  3
txt
  4

  0
ENDTAB
  0
TABLE
  2
VIEW
  5
358
100
AcDbSymbolTable
 70
     0
  0
ENDTAB
  0
TABLE
  2
UCS
  5
359
100
AcDbSymbolTable
 70
     0
  0
ENDTAB
  0
TABLE
  2
APPID
  5
35B
100
AcDbSymbolTable
 70
     1
  0
APPID
  5
364
100
AcDbSymbolTableRecord
100
AcDbRegAppTableRecord
  2
ACAD
 70
     0
  0
ENDTAB
  0
TABLE
  2
DIMSTYLE
  5
35C
100
AcDbSymbolTable
 70
     1
  0
DIMSTYLE
105
379
102
{ACAD_XDICTIONARY
360
52C
102
}
100
AcDbSymbolTableRecord
100
AcDbDimStyleTableRecord
  2
DA1
 70
     0
  3

  4

  5

  6

  7

 40
1.0
 41
3.0
 42
1.0
 43
0.0
 44
1.0
 45
0.0
 46
0.0
 47
0.0
 48
0.0
140
3.2
141
0.0
142
0.0
143
0.04
144
1.0
145
1.0
146
0.6
147
0.0
 71
     0
 72
     0
 73
     0
 74
     0
 75
     0
 76
     0
 77
     0
 78
     8
170
     0
171
     2
172
     1
173
     1
174
     1
175
     0
176
     0
177
     0
178
     0
270
     2
271
     2
272
     2
273
     2
274
     2
340
363
275
     0
280
     0
281
     0
282
     0
283
     1
284
     8
285
     8
286
     8
287
     5
288
     0
  0
ENDTAB
  0
TABLE
  2
BLOCK_RECORD
  5
353
100
AcDbSymbolTable
 70
     4
  0
BLOCK_RECORD
  5
370
102
{ACAD_XDICTIONARY
360
4FB
102
}
100
AcDbSymbolTableRecord
100
AcDbBlockTableRecord
  2
*MODEL_SPACE
  0
BLOCK_RECORD
  5
36C
102
{ACAD_XDICTIONARY
360
4FD
102
}
100
AcDbSymbolTableRecord
100
AcDbBlockTableRecord
  2
*PAPER_SPACE
  0
BLOCK_RECORD
  5
37B
100
AcDbSymbolTableRecord
100
AcDbBlockTableRecord
  2
$MODEL_SPACE
  0
BLOCK_RECORD
  5
37E
100
AcDbSymbolTableRecord
100
AcDbBlockTableRecord
  2
$PAPER_SPACE
  0
BLOCK_RECORD
  5
381
100
AcDbSymbolTableRecord
100
AcDbBlockTableRecord
  2
ARROW
  0
BLOCK_RECORD
  5
387
100
AcDbSymbolTableRecord
100
AcDbBlockTableRecord
  2
DOT
  0
ENDTAB
  0
ENDSEC
  0
SECTION
  2
BLOCKS
  0
BLOCK
  5
371
100
AcDbEntity
  8
0
100
AcDbBlockBegin
  2
*MODEL_SPACE
 70
     0
 10
0.0
 20
0.0
 30
0.0
  3
*MODEL_SPACE
  1

  0
ENDBLK
  5
372
100
AcDbEntity
  8
0
100
AcDbBlockEnd
  0
BLOCK
  5
36D
100
AcDbEntity
 67
     1
  8
0
100
AcDbBlockBegin
  2
*PAPER_SPACE
 70
     0
 10
0.0
 20
0.0
 30
0.0
  3
*PAPER_SPACE
  1

  0
ENDBLK
  5
36E
100
AcDbEntity
 67
     1
  8
0
100
AcDbBlockEnd
  0
BLOCK
  5
37C
100
AcDbEntity
  8
0
100
AcDbBlockBegin
  2
$MODEL_SPACE
 70
     0
 10
0.0
 20
0.0
 30
0.0
  3
$MODEL_SPACE
  1

  0
ENDBLK
  5
37D
100
AcDbEntity
  8
0
100
AcDbBlockEnd
  0
BLOCK
  5
37F
100
AcDbEntity
  8
0
100
AcDbBlockBegin
  2
$PAPER_SPACE
 70
     0
 10
0.0
 20
0.0
 30
0.0
  3
$PAPER_SPACE
  1

  0
ENDBLK
  5
380
100
AcDbEntity
  8
0
100
AcDbBlockEnd
  0
BLOCK
  5
382
100
AcDbEntity
  8
0
100
AcDbBlockBegin
  2
ARROW
 70
     0
 10
0.0
 20
0.0
 30
0.0
  3
ARROW
  1

  0
LINE
  5
383
100
AcDbEntity
  8
DIMENSION
100
AcDbLine
 10
0.0
 20
0.0
 30
0.0
 11
-1.0
 21
0.176327
 31
0.0
  0
LINE
  5
384
100
AcDbEntity
  8
DIMENSION
100
AcDbLine
 10
0.0
 20
0.0
 30
0.0
 11
-1.0
 21
-0.176327
 31
0.0
  0
LINE
  5
385
100
AcDbEntity
  8
DIMENSION
100
AcDbLine
 10
-1.0
 20
0.0
 30
0.0
 11
0.0
 21
0.0
 31
0.0
  0
ENDBLK
  5
386
100
AcDbEntity
  8
0
100
AcDbBlockEnd
  0
BLOCK
  5
388
100
AcDbEntity
  8
0
100
AcDbBlockBegin
  2
DOT
 70
     0
 10
0.0
 20
0.0
 30
0.0
  3
DOT
  1
DOT2
  0
LWPOLYLINE
  5
389
100
AcDbEntity
  8
DIMENSION
100
AcDbPolyline
 90
        2
 70
     1
 43
0.165
 10
-0.082512
 20
0.000018
 42
1.0
 10
0.082488
 20
0.000018
 42
1.0
  0
LINE
  5
38D
100
AcDbEntity
  8
DIMENSION
100
AcDbLine
 10
-0.000012
 20
0.000018
 30
0.0
 11
-1.000012
 21
0.000018
 31
0.0
  0
ENDBLK
  5
38E
100
AcDbEntity
  8
0
100
AcDbBlockEnd
  0
ENDSEC
  0
SECTION
  2
ENTITIES
  0
LINE
  5
38F
100
AcDbEntity
  8
0
100
AcDbLine
 10
183.119202
 20
236.486212
 30
0.0
 11
183.119202
 21
178.486212
 31
0.0
  0
LINE
  5
390
100
AcDbEntity
  8
0
100
AcDbLine
 10
185.319202
 20
236.486212
 30
0.0
 11
185.319202
 21
178.486212
 31
0.0
  0
LINE
  5
391
100
AcDbEntity
  8
0
100
AcDbLine
 10
198.319202
 20
181.586212
 30
0.0
 11
198.319202
 21
233.386212
 31
0.0
  0
LINE
  5
392
100
AcDbEntity
  8
0
100
AcDbLine
 10
239.119202
 20
236.486212
 30
0.0
 11
239.119202
 21
178.486212
 31
0.0
  0
LINE
  5
393
100
AcDbEntity
  8
0
100
AcDbLine
 10
236.919202
 20
236.486212
 30
0.0
 11
236.919202
 21
178.486212
 31
0.0
  0
LINE
  5
394
100
AcDbEntity
  8
0
100
AcDbLine
 10
241.119202
 20
176.486212
 30
0.0
 11
241.119202
 21
238.486212
 31
0.0
  0
LINE
  5
395
100
AcDbEntity
  8
0
100
AcDbLine
 10
223.919202
 20
181.586212
 30
0.0
 11
223.919202
 21
233.386212
 31
0.0
  0
LINE
  5
396
100
AcDbEntity
  8
0
100
AcDbLine
 10
181.119202
 20
176.486212
 30
0.0
 11
181.119202
 21
238.486212
 31
0.0
  0
LINE
  5
399
100
AcDbEntity
  8
CENTER
  6
CENTER
 62
     1
100
AcDbLine
 10
246.303771
 20
207.486212
 30
0.0
 11
174.208246
 21
207.486212
 31
0.0
  0
LINE
  5
39A
100
AcDbEntity
  8
CENTER
  6
CENTER
 62
     1
100
AcDbLine
 10
216.119202
 20
172.486212
 30
0.0
 11
199.119202
 21
172.486212
 31
0.0
  0
LINE
  5
39B
100
AcDbEntity
  8
0
100
AcDbLine
 10
214.119202
 20
159.486212
 30
0.0
 11
201.119202
 21
159.486212
 31
0.0
  0
LINE
  5
39C
100
AcDbEntity
  8
0
  6
DASHED
 62
     3
100
AcDbLine
 10
206.019202
 20
176.986212
 30
0.0
 11
201.119202
 21
176.986212
 31
0.0
  0
LINE
  5
39D
100
AcDbEntity
  8
0
  6
DASHED
 62
     3
100
AcDbLine
 10
206.019202
 20
167.986212
 30
0.0
 11
201.119202
 21
167.986212
 31
0.0
  0
LINE
  5
39E
100
AcDbEntity
  8
0
100
AcDbLine
 10
223.919202
 20
183.486212
 30
0.0
 11
198.319202
 21
183.486212
 31
0.0
  0
LINE
  5
39F
100
AcDbEntity
  8
0
100
AcDbLine
 10
201.119202
 20
159.486212
 30
0.0
 11
201.119202
 21
176.486212
 31
0.0
  0
LINE
  5
3A0
100
AcDbEntity
  8
0
100
AcDbLine
 10
201.119202
 20
176.486212
 30
0.0
 11
181.119202
 21
176.486212
 31
0.0
  0
LINE
  5
3A1
100
AcDbEntity
  8
0
100
AcDbLine
 10
196.719202
 20
179.986212
 30
0.0
 11
185.319202
 21
179.986212
 31
0.0
  0
LINE
  5
3A2
100
AcDbEntity
  8
0
100
AcDbLine
 10
196.719202
 20
192.486212
 30
0.0
 11
186.919202
 21
192.486212
 31
0.0
  0
CIRCLE
  5
3A3
100
AcDbEntity
  8
0
100
AcDbCircle
 10
191.819202
 20
185.986212
 30
0.0
 40
3.5719
  0
LINE
  5
3A4
100
AcDbEntity
  8
0
100
AcDbLine
 10
185.661202
 20
185.112132
 30
0.0
 11
185.661202
 21
188.286222
 31
0.0
  0
LINE
  5
3A5
100
AcDbEntity
  8
0
100
AcDbLine
 10
185.961202
 20
185.236212
 30
0.0
 11
185.961202
 21
188.286212
 31
0.0
  0
LINE
  5
3A6
100
AcDbEntity
  8
0
100
AcDbLine
 10
187.061202
 20
184.136222
 30
0.0
 11
185.961202
 21
185.236212
 31
0.0
  0
ARC
  5
3A7
100
AcDbEntity
  8
0
100
AcDbCircle
 10
186.484476
 20
182.761008
 30
0.0
 40
0.53
100
AcDbArc
 50
215.064447
 51
354.934862
  0
ARC
  5
3A8
100
AcDbEntity
  8
0
100
AcDbCircle
 10
186.919202
 20
181.586212
 30
0.0
 40
1.6
100
AcDbArc
 50
180.0
 51
270.0
  0
LINE
  5
3A9
100
AcDbEntity
  8
0
100
AcDbLine
 10
183.119202
 20
183.586212
 30
0.0
 11
185.319202
 21
183.586212
 31
0.0
  0
LINE
  5
3AA
100
AcDbEntity
  8
0
100
AcDbLine
 10
183.119202
 20
178.486212
 30
0.0
 11
185.319202
 21
178.486212
 31
0.0
  0
LINE
  5
3AB
100
AcDbEntity
  8
0
100
AcDbLine
 10
183.119202
 20
179.986212
 30
0.0
 11
181.119202
 21
179.986212
 31
0.0
  0
LINE
  5
3AC
100
AcDbEntity
  8
0
100
AcDbLine
 10
186.761189
 20
184.012134
 30
0.0
 11
185.661202
 21
185.112132
 31
0.0
  0
ARC
  5
3AD
100
AcDbEntity
  8
0
100
AcDbCircle
 10
186.484483
 20
182.761263
 30
0.0
 40
0.23
100
AcDbArc
 50
215.064447
 51
357.868921
  0
LINE
  5
3AE
100
AcDbEntity
  8
0
100
AcDbLine
 10
186.714324
 20
182.75271
 30
0.0
 11
186.761189
 21
184.012134
 31
0.0
  0
ARC
  5
3AF
100
AcDbEntity
  8
0
100
AcDbCircle
 10
185.519202
 20
182.586212
 30
0.0
 40
0.2
100
AcDbArc
 50
90.0
 51
180.0
  0
LINE
  5
3B0
100
AcDbEntity
  8
0
100
AcDbLine
 10
185.519202
 20
182.786212
 30
0.0
 11
185.819265
 21
182.786212
 31
0.0
  0
LINE
  5
3B1
100
AcDbEntity
  8
0
100
AcDbLine
 10
186.065229
 20
182.958238
 30
0.0
 11
186.296226
 21
182.629129
 31
0.0
  0
LINE
  5
3B2
100
AcDbEntity
  8
0
100
AcDbLine
 10
185.819131
 20
182.786402
 30
0.0
 11
186.050668
 21
182.456524
 31
0.0
  0
LINE
  5
3B3
100
AcDbEntity
  8
0
100
AcDbLine
 10
186.138221
 20
183.376235
 30
0.0
 11
185.892772
 21
183.20461
 31
0.0
  0
LINE
  5
3B4
100
AcDbEntity
  8
0
100
AcDbLine
 10
186.138221
 20
183.376235
 30
0.0
 11
186.310203
 21
183.131246
 31
0.0
  0
ARC
  5
3B5
100
AcDbEntity
  8
0
100
AcDbCircle
 10
186.064683
 20
182.958751
 30
0.0
 40
0.3
100
AcDbArc
 50
124.96231
 51
215.064447
  0
LINE
  5
3B6
100
AcDbEntity
  8
0
100
AcDbLine
 10
186.310203
 20
183.131246
 30
0.0
 11
186.065229
 21
182.958238
 31
0.0
  0
LINE
  5
3B7
100
AcDbEntity
  8
0
100
AcDbLine
 10
187.290479
 20
183.786212
 30
0.0
 11
189.005224
 21
183.786212
 31
0.0
  0
ARC
  5
3B8
100
AcDbEntity
  8
0
100
AcDbCircle
 10
187.290479
 20
183.586212
 30
0.0
 40
0.2
100
AcDbArc
 50
90.0
 51
174.934862
  0
LINE
  5
3B9
100
AcDbEntity
  8
0
100
AcDbLine
 10
187.061202
 20
183.265222
 30
0.0
 11
187.061202
 21
184.136222
 31
0.0
  0
LINE
  5
3BA
100
AcDbEntity
  8
0
100
AcDbLine
 10
187.012406
 20
182.714215
 30
0.0
 11
187.09126
 21
183.603869
 31
0.0
  0
ARC
  5
3BB
100
AcDbEntity
  8
0
100
AcDbCircle
 10
186.919202
 20
190.886212
 30
0.0
 40
1.6
100
AcDbArc
 50
90.0
 51
180.0
  0
LINE
  5
3BC
100
AcDbEntity
  8
0
100
AcDbLine
 10
186.753047
 20
189.204723
 30
0.0
 11
187.07641
 21
188.31772
 31
0.0
  0
ARC
  5
3BD
100
AcDbEntity
  8
0
100
AcDbCircle
 10
186.565144
 20
189.136222
 30
0.0
 40
0.2
100
AcDbArc
 50
20.029669
 51
90.0
  0
LINE
  5
3BE
100
AcDbEntity
  8
0
100
AcDbLine
 10
185.961202
 20
188.586222
 30
0.0
 11
186.481202
 21
188.586222
 31
0.0
  0
LINE
  5
3BF
100
AcDbEntity
  8
0
100
AcDbLine
 10
186.481202
 20
188.586222
 30
0.0
 11
186.481202
 21
188.286212
 31
0.0
  0
LINE
  5
3C0
100
AcDbEntity
  8
0
100
AcDbLine
 10
186.481202
 20
188.286212
 30
0.0
 11
185.961202
 21
188.286212
 31
0.0
  0
ARC
  5
3C1
100
AcDbEntity
  8
0
100
AcDbCircle
 10
185.961202
 20
188.286222
 30
0.0
 40
0.3
100
AcDbArc
 50
90.0
 51
180.0
  0
ARC
  5
3C2
100
AcDbEntity
  8
0
100
AcDbCircle
 10
185.519202
 20
189.086222
 30
0.0
 40
0.2
100
AcDbArc
 50
180.0
 51
270.0
  0
LINE
  5
3C3
100
AcDbEntity
  8
0
100
AcDbLine
 10
186.389991
 20
189.336222
 30
0.0
 11
186.565144
 21
189.336222
 31
0.0
  0
ARC
  5
3C4
100
AcDbEntity
  8
0
100
AcDbCircle
 10
186.389991
 20
189.136222
 30
0.0
 40
0.2
100
AcDbArc
 50
90.0
 51
140.00092
  0
LINE
  5
3C5
100
AcDbEntity
  8
0
100
AcDbLine
 10
185.919145
 20
188.886222
 30
0.0
 11
186.23678
 21
189.264777
 31
0.0
  0
LINE
  5
3C6
100
AcDbEntity
  8
0
100
AcDbLine
 10
185.519202
 20
188.886222
 30
0.0
 11
185.919145
 21
188.886222
 31
0.0
  0
LINE
  5
3C7
100
AcDbEntity
  8
0
100
AcDbLine
 10
187.264313
 20
188.186222
 30
0.0
 11
189.005232
 21
188.186222
 31
0.0
  0
ARC
  5
3C8
100
AcDbEntity
  8
0
100
AcDbCircle
 10
187.264313
 20
188.386222
 30
0.0
 40
0.2
100
AcDbArc
 50
200.029669
 51
270.0
  0
LINE
  5
3C9
100
AcDbEntity
  8
0
100
AcDbLine
 10
197.677202
 20
185.236212
 30
0.0
 11
197.677202
 21
188.286212
 31
0.0
  0
LINE
  5
3CA
100
AcDbEntity
  8
0
100
AcDbLine
 10
197.977202
 20
185.112132
 30
0.0
 11
197.977202
 21
188.286222
 31
0.0
  0
ARC
  5
3CB
100
AcDbEntity
  8
0
100
AcDbCircle
 10
196.719202
 20
181.586212
 30
0.0
 40
1.6
100
AcDbArc
 50
270.0
 51
0.0
  0
LINE
  5
3CC
100
AcDbEntity
  8
0
100
AcDbLine
 10
196.577202
 20
184.136222
 30
0.0
 11
197.677202
 21
185.236212
 31
0.0
  0
LINE
  5
3CD
100
AcDbEntity
  8
0
100
AcDbLine
 10
196.877215
 20
184.012134
 30
0.0
 11
197.977202
 21
185.112132
 31
0.0
  0
ARC
  5
3CE
100
AcDbEntity
  8
0
100
AcDbCircle
 10
197.153921
 20
182.761263
 30
0.0
 40
0.23
100
AcDbArc
 50
182.131079
 51
324.935553
  0
ARC
  5
3CF
100
AcDbEntity
  8
0
100
AcDbCircle
 10
197.153927
 20
182.761008
 30
0.0
 40
0.53
100
AcDbArc
 50
185.065138
 51
324.935553
  0
LINE
  5
3D0
100
AcDbEntity
  8
0
100
AcDbLine
 10
197.573174
 20
182.958238
 30
0.0
 11
197.342177
 21
182.629129
 31
0.0
  0
LINE
  5
3D1
100
AcDbEntity
  8
0
100
AcDbLine
 10
198.119202
 20
182.786212
 30
0.0
 11
197.819139
 21
182.786212
 31
0.0
  0
LINE
  5
3D2
100
AcDbEntity
  8
0
100
AcDbLine
 10
197.819272
 20
182.786402
 30
0.0
 11
197.587736
 21
182.456524
 31
0.0
  0
ARC
  5
3D3
100
AcDbEntity
  8
0
100
AcDbCircle
 10
198.119202
 20
182.586212
 30
0.0
 40
0.2
100
AcDbArc
 50
0.0
 51
90.0
  0
LINE
  5
3D4
100
AcDbEntity
  8
0
100
AcDbLine
 10
197.500183
 20
183.376235
 30
0.0
 11
197.328201
 21
183.131246
 31
0.0
  0
LINE
  5
3D5
100
AcDbEntity
  8
0
100
AcDbLine
 10
197.500183
 20
183.376235
 30
0.0
 11
197.745632
 21
183.20461
 31
0.0
  0
ARC
  5
3D6
100
AcDbEntity
  8
0
100
AcDbCircle
 10
197.57372
 20
182.958751
 30
0.0
 40
0.3
100
AcDbArc
 50
324.935553
 51
55.03769
  0
LINE
  5
3D7
100
AcDbEntity
  8
0
100
AcDbLine
 10
197.328201
 20
183.131246
 30
0.0
 11
197.573174
 21
182.958238
 31
0.0
  0
LINE
  5
3D8
100
AcDbEntity
  8
0
100
AcDbLine
 10
196.577202
 20
183.265222
 30
0.0
 11
196.577202
 21
184.136222
 31
0.0
  0
LINE
  5
3D9
100
AcDbEntity
  8
0
100
AcDbLine
 10
196.625997
 20
182.714215
 30
0.0
 11
196.547143
 21
183.603869
 31
0.0
  0
LINE
  5
3DA
100
AcDbEntity
  8
0
100
AcDbLine
 10
196.92408
 20
182.75271
 30
0.0
 11
196.877215
 21
184.012134
 31
0.0
  0
ARC
  5
3DB
100
AcDbEntity
  8
0
100
AcDbCircle
 10
196.347924
 20
183.586212
 30
0.0
 40
0.2
100
AcDbArc
 50
5.065138
 51
90.0
  0
LINE
  5
3DC
100
AcDbEntity
  8
0
100
AcDbLine
 10
196.347924
 20
183.786212
 30
0.0
 11
194.633179
 21
183.786212
 31
0.0
  0
ARC
  5
3DD
100
AcDbEntity
  8
0
100
AcDbCircle
 10
196.719202
 20
190.886212
 30
0.0
 40
1.6
100
AcDbArc
 50
0.0
 51
90.0
  0
ARC
  5
3DE
100
AcDbEntity
  8
0
100
AcDbCircle
 10
197.073259
 20
189.136222
 30
0.0
 40
0.2
100
AcDbArc
 50
90.0
 51
159.970331
  0
LINE
  5
3DF
100
AcDbEntity
  8
0
100
AcDbLine
 10
197.157202
 20
188.286212
 30
0.0
 11
197.677202
 21
188.286212
 31
0.0
  0
LINE
  5
3E0
100
AcDbEntity
  8
0
100
AcDbLine
 10
197.157202
 20
188.586222
 30
0.0
 11
197.157202
 21
188.286212
 31
0.0
  0
LINE
  5
3E1
100
AcDbEntity
  8
0
100
AcDbLine
 10
197.677202
 20
188.586222
 30
0.0
 11
197.157202
 21
188.586222
 31
0.0
  0
ARC
  5
3E2
100
AcDbEntity
  8
0
100
AcDbCircle
 10
197.677202
 20
188.286222
 30
0.0
 40
0.3
100
AcDbArc
 50
0.0
 51
90.0
  0
LINE
  5
3E3
100
AcDbEntity
  8
0
100
AcDbLine
 10
198.119202
 20
188.886222
 30
0.0
 11
197.719259
 21
188.886222
 31
0.0
  0
LINE
  5
3E4
100
AcDbEntity
  8
0
100
AcDbLine
 10
197.719259
 20
188.886222
 30
0.0
 11
197.401624
 21
189.264777
 31
0.0
  0
ARC
  5
3E5
100
AcDbEntity
  8
0
100
AcDbCircle
 10
197.248413
 20
189.136222
 30
0.0
 40
0.2
100
AcDbArc
 50
39.99908
 51
90.0
  0
ARC
  5
3E6
100
AcDbEntity
  8
0
100
AcDbCircle
 10
198.119202
 20
189.086222
 30
0.0
 40
0.2
100
AcDbArc
 50
270.0
 51
0.0
  0
LINE
  5
3E7
100
AcDbEntity
  8
0
100
AcDbLine
 10
197.248413
 20
189.336222
 30
0.0
 11
197.073259
 21
189.336222
 31
0.0
  0
LINE
  5
3E8
100
AcDbEntity
  8
0
100
AcDbLine
 10
196.885356
 20
189.204723
 30
0.0
 11
196.561993
 21
188.31772
 31
0.0
  0
ARC
  5
3E9
100
AcDbEntity
  8
0
100
AcDbCircle
 10
196.37409
 20
188.386222
 30
0.0
 40
0.2
100
AcDbArc
 50
270.0
 51
339.970331
  0
LINE
  5
3EA
100
AcDbEntity
  8
0
100
AcDbLine
 10
196.37409
 20
188.186222
 30
0.0
 11
194.633171
 21
188.186222
 31
0.0
  0
LINE
  5
3EB
100
AcDbEntity
  8
0
  6
DASHED
 62
     3
100
AcDbLine
 10
206.019202
 20
165.486212
 30
0.0
 11
206.019202
 21
179.486212
 31
0.0
  0
LINE
  5
3EC
100
AcDbEntity
  8
0
100
AcDbLine
 10
214.119202
 20
159.486212
 30
0.0
 11
214.119202
 21
176.486212
 31
0.0
  0
LINE
  5
3ED
100
AcDbEntity
  8
0
100
AcDbLine
 10
241.119202
 20
176.486212
 30
0.0
 11
214.119202
 21
176.486212
 31
0.0
  0
LINE
  5
3EE
100
AcDbEntity
  8
0
  6
DASHED
 62
     3
100
AcDbLine
 10
214.119202
 20
165.486212
 30
0.0
 11
206.019202
 21
165.486212
 31
0.0
  0
LINE
  5
3EF
100
AcDbEntity
  8
0
100
AcDbLine
 10
225.890479
 20
183.786212
 30
0.0
 11
227.605224
 21
183.786212
 31
0.0
  0
LINE
  5
3F0
100
AcDbEntity
  8
0
100
AcDbLine
 10
225.864313
 20
188.186222
 30
0.0
 11
227.605232
 21
188.186222
 31
0.0
  0
CIRCLE
  5
3F1
100
AcDbEntity
  8
0
100
AcDbCircle
 10
230.419202
 20
185.986212
 30
0.0
 40
3.5719
  0
LINE
  5
3F2
100
AcDbEntity
  8
0
100
AcDbLine
 10
225.519202
 20
192.486212
 30
0.0
 11
235.319202
 21
192.486212
 31
0.0
  0
LINE
  5
3F3
100
AcDbEntity
  8
0
100
AcDbLine
 10
225.519202
 20
179.986212
 30
0.0
 11
236.919202
 21
179.986212
 31
0.0
  0
LINE
  5
3F4
100
AcDbEntity
  8
0
  6
DASHED
 62
     3
100
AcDbLine
 10
214.119202
 20
179.486212
 30
0.0
 11
206.019202
 21
179.486212
 31
0.0
  0
LINE
  5
3F5
100
AcDbEntity
  8
0
100
AcDbLine
 10
224.261202
 20
185.112132
 30
0.0
 11
224.261202
 21
188.286222
 31
0.0
  0
LINE
  5
3F6
100
AcDbEntity
  8
0
100
AcDbLine
 10
224.561202
 20
185.236212
 30
0.0
 11
224.561202
 21
188.286212
 31
0.0
  0
LINE
  5
3F7
100
AcDbEntity
  8
0
100
AcDbLine
 10
225.314324
 20
182.75271
 30
0.0
 11
225.361189
 21
184.012134
 31
0.0
  0
LINE
  5
3F8
100
AcDbEntity
  8
0
100
AcDbLine
 10
225.612406
 20
182.714215
 30
0.0
 11
225.69126
 21
183.603869
 31
0.0
  0
LINE
  5
3F9
100
AcDbEntity
  8
0
100
AcDbLine
 10
225.661202
 20
183.265222
 30
0.0
 11
225.661202
 21
184.136222
 31
0.0
  0
ARC
  5
3FA
100
AcDbEntity
  8
0
100
AcDbCircle
 10
225.890479
 20
183.586212
 30
0.0
 40
0.2
100
AcDbArc
 50
90.0
 51
174.934862
  0
LINE
  5
3FB
100
AcDbEntity
  8
0
100
AcDbLine
 10
224.910203
 20
183.131246
 30
0.0
 11
224.665229
 21
182.958238
 31
0.0
  0
ARC
  5
3FC
100
AcDbEntity
  8
0
100
AcDbCircle
 10
224.664683
 20
182.958751
 30
0.0
 40
0.3
100
AcDbArc
 50
124.96231
 51
215.064447
  0
LINE
  5
3FD
100
AcDbEntity
  8
0
100
AcDbLine
 10
224.738221
 20
183.376235
 30
0.0
 11
224.492772
 21
183.20461
 31
0.0
  0
LINE
  5
3FE
100
AcDbEntity
  8
0
100
AcDbLine
 10
224.738221
 20
183.376235
 30
0.0
 11
224.910203
 21
183.131246
 31
0.0
  0
ARC
  5
3FF
100
AcDbEntity
  8
0
100
AcDbCircle
 10
224.119202
 20
182.586212
 30
0.0
 40
0.2
100
AcDbArc
 50
90.0
 51
180.0
  0
LINE
  5
400
100
AcDbEntity
  8
0
100
AcDbLine
 10
224.419131
 20
182.786402
 30
0.0
 11
224.650668
 21
182.456524
 31
0.0
  0
LINE
  5
401
100
AcDbEntity
  8
0
100
AcDbLine
 10
224.119202
 20
182.786212
 30
0.0
 11
224.419265
 21
182.786212
 31
0.0
  0
LINE
  5
402
100
AcDbEntity
  8
0
100
AcDbLine
 10
224.665229
 20
182.958238
 30
0.0
 11
224.896226
 21
182.629129
 31
0.0
  0
ARC
  5
403
100
AcDbEntity
  8
0
100
AcDbCircle
 10
225.084476
 20
182.761008
 30
0.0
 40
0.53
100
AcDbArc
 50
215.064447
 51
354.934862
  0
ARC
  5
404
100
AcDbEntity
  8
0
100
AcDbCircle
 10
225.084483
 20
182.761263
 30
0.0
 40
0.23
100
AcDbArc
 50
215.064447
 51
357.868921
  0
ARC
  5
405
100
AcDbEntity
  8
0
100
AcDbCircle
 10
225.519202
 20
181.586212
 30
0.0
 40
1.6
100
AcDbArc
 50
180.0
 51
270.0
  0
LINE
  5
406
100
AcDbEntity
  8
0
100
AcDbLine
 10
225.361189
 20
184.012134
 30
0.0
 11
224.261202
 21
185.112132
 31
0.0
  0
LINE
  5
407
100
AcDbEntity
  8
0
100
AcDbLine
 10
225.661202
 20
184.136222
 30
0.0
 11
224.561202
 21
185.236212
 31
0.0
  0
LINE
  5
408
100
AcDbEntity
  8
0
100
AcDbLine
 10
225.353047
 20
189.204723
 30
0.0
 11
225.67641
 21
188.31772
 31
0.0
  0
ARC
  5
409
100
AcDbEntity
  8
0
100
AcDbCircle
 10
225.864313
 20
188.386222
 30
0.0
 40
0.2
100
AcDbArc
 50
200.029669
 51
270.0
  0
LINE
  5
40A
100
AcDbEntity
  8
0
100
AcDbLine
 10
224.989991
 20
189.336222
 30
0.0
 11
225.165144
 21
189.336222
 31
0.0
  0
ARC
  5
40B
100
AcDbEntity
  8
0
100
AcDbCircle
 10
224.119202
 20
189.086222
 30
0.0
 40
0.2
100
AcDbArc
 50
180.0
 51
270.0
  0
ARC
  5
40C
100
AcDbEntity
  8
0
100
AcDbCircle
 10
224.989991
 20
189.136222
 30
0.0
 40
0.2
100
AcDbArc
 50
90.0
 51
140.00092
  0
LINE
  5
40D
100
AcDbEntity
  8
0
100
AcDbLine
 10
224.519145
 20
188.886222
 30
0.0
 11
224.83678
 21
189.264777
 31
0.0
  0
LINE
  5
40E
100
AcDbEntity
  8
0
100
AcDbLine
 10
224.119202
 20
188.886222
 30
0.0
 11
224.519145
 21
188.886222
 31
0.0
  0
ARC
  5
40F
100
AcDbEntity
  8
0
100
AcDbCircle
 10
224.561202
 20
188.286222
 30
0.0
 40
0.3
100
AcDbArc
 50
90.0
 51
180.0
  0
LINE
  5
410
100
AcDbEntity
  8
0
100
AcDbLine
 10
224.561202
 20
188.586222
 30
0.0
 11
225.081202
 21
188.586222
 31
0.0
  0
LINE
  5
411
100
AcDbEntity
  8
0
100
AcDbLine
 10
225.081202
 20
188.586222
 30
0.0
 11
225.081202
 21
188.286212
 31
0.0
  0
LINE
  5
412
100
AcDbEntity
  8
0
100
AcDbLine
 10
225.081202
 20
188.286212
 30
0.0
 11
224.561202
 21
188.286212
 31
0.0
  0
ARC
  5
413
100
AcDbEntity
  8
0
100
AcDbCircle
 10
225.519202
 20
190.886212
 30
0.0
 40
1.6
100
AcDbArc
 50
90.0
 51
180.0
  0
ARC
  5
414
100
AcDbEntity
  8
0
100
AcDbCircle
 10
225.165144
 20
189.136222
 30
0.0
 40
0.2
100
AcDbArc
 50
20.029669
 51
90.0
  0
LINE
  5
415
100
AcDbEntity
  8
0
100
AcDbLine
 10
239.119202
 20
183.586212
 30
0.0
 11
236.919202
 21
183.586212
 31
0.0
  0
LINE
  5
416
100
AcDbEntity
  8
0
100
AcDbLine
 10
239.119202
 20
178.486212
 30
0.0
 11
236.919202
 21
178.486212
 31
0.0
  0
LINE
  5
417
100
AcDbEntity
  8
0
100
AcDbLine
 10
236.277202
 20
185.236212
 30
0.0
 11
236.277202
 21
188.286212
 31
0.0
  0
LINE
  5
418
100
AcDbEntity
  8
0
100
AcDbLine
 10
236.577202
 20
185.112132
 30
0.0
 11
236.577202
 21
188.286222
 31
0.0
  0
LINE
  5
419
100
AcDbEntity
  8
0
100
AcDbLine
 10
235.928201
 20
183.131246
 30
0.0
 11
236.173174
 21
182.958238
 31
0.0
  0
ARC
  5
41A
100
AcDbEntity
  8
0
100
AcDbCircle
 10
236.17372
 20
182.958751
 30
0.0
 40
0.3
100
AcDbArc
 50
324.935553
 51
55.03769
  0
LINE
  5
41B
100
AcDbEntity
  8
0
100
AcDbLine
 10
236.100183
 20
183.376235
 30
0.0
 11
235.928201
 21
183.131246
 31
0.0
  0
LINE
  5
41C
100
AcDbEntity
  8
0
100
AcDbLine
 10
236.100183
 20
183.376235
 30
0.0
 11
236.345632
 21
183.20461
 31
0.0
  0
LINE
  5
41D
100
AcDbEntity
  8
0
100
AcDbLine
 10
236.419272
 20
182.786402
 30
0.0
 11
236.187736
 21
182.456524
 31
0.0
  0
LINE
  5
41E
100
AcDbEntity
  8
0
100
AcDbLine
 10
236.173174
 20
182.958238
 30
0.0
 11
235.942177
 21
182.629129
 31
0.0
  0
LINE
  5
41F
100
AcDbEntity
  8
0
100
AcDbLine
 10
236.719202
 20
182.786212
 30
0.0
 11
236.419139
 21
182.786212
 31
0.0
  0
ARC
  5
420
100
AcDbEntity
  8
0
100
AcDbCircle
 10
236.719202
 20
182.586212
 30
0.0
 40
0.2
100
AcDbArc
 50
0.0
 51
90.0
  0
LINE
  5
421
100
AcDbEntity
  8
0
100
AcDbLine
 10
235.225997
 20
182.714215
 30
0.0
 11
235.147143
 21
183.603869
 31
0.0
  0
LINE
  5
422
100
AcDbEntity
  8
0
100
AcDbLine
 10
235.177202
 20
183.265222
 30
0.0
 11
235.177202
 21
184.136222
 31
0.0
  0
ARC
  5
423
100
AcDbEntity
  8
0
100
AcDbCircle
 10
234.947924
 20
183.586212
 30
0.0
 40
0.2
100
AcDbArc
 50
5.065138
 51
90.0
  0
LINE
  5
424
100
AcDbEntity
  8
0
100
AcDbLine
 10
235.52408
 20
182.75271
 30
0.0
 11
235.477215
 21
184.012134
 31
0.0
  0
ARC
  5
425
100
AcDbEntity
  8
0
100
AcDbCircle
 10
235.319202
 20
181.586212
 30
0.0
 40
1.6
100
AcDbArc
 50
270.0
 51
0.0
  0
ARC
  5
426
100
AcDbEntity
  8
0
100
AcDbCircle
 10
235.753927
 20
182.761008
 30
0.0
 40
0.53
100
AcDbArc
 50
185.065138
 51
324.935553
  0
ARC
  5
427
100
AcDbEntity
  8
0
100
AcDbCircle
 10
235.753921
 20
182.761263
 30
0.0
 40
0.23
100
AcDbArc
 50
182.131079
 51
324.935553
  0
LINE
  5
428
100
AcDbEntity
  8
0
100
AcDbLine
 10
235.177202
 20
184.136222
 30
0.0
 11
236.277202
 21
185.236212
 31
0.0
  0
LINE
  5
429
100
AcDbEntity
  8
0
100
AcDbLine
 10
235.477215
 20
184.012134
 30
0.0
 11
236.577202
 21
185.112132
 31
0.0
  0
LINE
  5
42A
100
AcDbEntity
  8
0
100
AcDbLine
 10
234.947924
 20
183.786212
 30
0.0
 11
233.233179
 21
183.786212
 31
0.0
  0
LINE
  5
42B
100
AcDbEntity
  8
0
100
AcDbLine
 10
236.719202
 20
188.886222
 30
0.0
 11
236.319259
 21
188.886222
 31
0.0
  0
LINE
  5
42C
100
AcDbEntity
  8
0
100
AcDbLine
 10
236.319259
 20
188.886222
 30
0.0
 11
236.001624
 21
189.264777
 31
0.0
  0
ARC
  5
42D
100
AcDbEntity
  8
0
100
AcDbCircle
 10
235.848413
 20
189.136222
 30
0.0
 40
0.2
100
AcDbArc
 50
39.99908
 51
90.0
  0
LINE
  5
42E
100
AcDbEntity
  8
0
100
AcDbLine
 10
235.848413
 20
189.336222
 30
0.0
 11
235.673259
 21
189.336222
 31
0.0
  0
ARC
  5
42F
100
AcDbEntity
  8
0
100
AcDbCircle
 10
236.719202
 20
189.086222
 30
0.0
 40
0.2
100
AcDbArc
 50
270.0
 51
0.0
  0
ARC
  5
430
100
AcDbEntity
  8
0
100
AcDbCircle
 10
236.277202
 20
188.286222
 30
0.0
 40
0.3
100
AcDbArc
 50
0.0
 51
90.0
  0
LINE
  5
431
100
AcDbEntity
  8
0
100
AcDbLine
 10
235.757202
 20
188.286212
 30
0.0
 11
236.277202
 21
188.286212
 31
0.0
  0
LINE
  5
432
100
AcDbEntity
  8
0
100
AcDbLine
 10
235.757202
 20
188.586222
 30
0.0
 11
235.757202
 21
188.286212
 31
0.0
  0
LINE
  5
433
100
AcDbEntity
  8
0
100
AcDbLine
 10
236.277202
 20
188.586222
 30
0.0
 11
235.757202
 21
188.586222
 31
0.0
  0
LINE
  5
434
100
AcDbEntity
  8
0
100
AcDbLine
 10
235.485356
 20
189.204723
 30
0.0
 11
235.161993
 21
188.31772
 31
0.0
  0
ARC
  5
435
100
AcDbEntity
  8
0
100
AcDbCircle
 10
234.97409
 20
188.386222
 30
0.0
 40
0.2
100
AcDbArc
 50
270.0
 51
339.970331
  0
ARC
  5
436
100
AcDbEntity
  8
0
100
AcDbCircle
 10
235.673259
 20
189.136222
 30
0.0
 40
0.2
100
AcDbArc
 50
90.0
 51
159.970331
  0
ARC
  5
437
100
AcDbEntity
  8
0
100
AcDbCircle
 10
235.319202
 20
190.886212
 30
0.0
 40
1.6
100
AcDbArc
 50
0.0
 51
90.0
  0
LINE
  5
438
100
AcDbEntity
  8
0
100
AcDbLine
 10
234.97409
 20
188.186222
 30
0.0
 11
233.233171
 21
188.186222
 31
0.0
  0
LINE
  5
439
100
AcDbEntity
  8
0
100
AcDbLine
 10
239.119202
 20
179.986212
 30
0.0
 11
241.119202
 21
179.986212
 31
0.0
  0
LINE
  5
43A
100
AcDbEntity
  8
CENTER
  6
CENTER
 62
     1
100
AcDbLine
 10
216.119202
 20
242.486212
 30
0.0
 11
199.119202
 21
242.486212
 31
0.0
  0
LINE
  5
43B
100
AcDbEntity
  8
0
100
AcDbLine
 10
223.919202
 20
231.486212
 30
0.0
 11
198.319202
 21
231.486212
 31
0.0
  0
LINE
  5
43C
100
AcDbEntity
  8
0
  6
DASHED
 62
     3
100
AcDbLine
 10
206.019202
 20
237.986212
 30
0.0
 11
201.119202
 21
237.986212
 31
0.0
  0
LINE
  5
43D
100
AcDbEntity
  8
0
  6
DASHED
 62
     3
100
AcDbLine
 10
206.019202
 20
246.986212
 30
0.0
 11
201.119202
 21
246.986212
 31
0.0
  0
LINE
  5
43E
100
AcDbEntity
  8
0
100
AcDbLine
 10
214.119202
 20
255.486212
 30
0.0
 11
201.119202
 21
255.486212
 31
0.0
  0
LINE
  5
43F
100
AcDbEntity
  8
0
100
AcDbLine
 10
201.119202
 20
255.486212
 30
0.0
 11
201.119202
 21
238.486212
 31
0.0
  0
LINE
  5
440
100
AcDbEntity
  8
0
100
AcDbLine
 10
186.753047
 20
225.7677
 30
0.0
 11
187.07641
 21
226.654703
 31
0.0
  0
ARC
  5
441
100
AcDbEntity
  8
0
100
AcDbCircle
 10
185.961202
 20
226.686202
 30
0.0
 40
0.3
100
AcDbArc
 50
180.0
 51
270.0
  0
LINE
  5
442
100
AcDbEntity
  8
0
100
AcDbLine
 10
186.481202
 20
226.386202
 30
0.0
 11
186.481202
 21
226.686212
 31
0.0
  0
ARC
  5
443
100
AcDbEntity
  8
0
100
AcDbCircle
 10
197.677202
 20
226.686202
 30
0.0
 40
0.3
100
AcDbArc
 50
270.0
 51
0.0
  0
LINE
  5
444
100
AcDbEntity
  8
0
100
AcDbLine
 10
197.157202
 20
226.386202
 30
0.0
 11
197.157202
 21
226.686212
 31
0.0
  0
LINE
  5
445
100
AcDbEntity
  8
0
100
AcDbLine
 10
196.885356
 20
225.7677
 30
0.0
 11
196.561993
 21
226.654703
 31
0.0
  0
CIRCLE
  5
446
100
AcDbEntity
  8
0
100
AcDbCircle
 10
191.819202
 20
228.986212
 30
0.0
 40
3.5719
  0
LINE
  5
447
100
AcDbEntity
  8
0
100
AcDbLine
 10
196.719202
 20
222.486212
 30
0.0
 11
186.919202
 21
222.486212
 31
0.0
  0
ARC
  5
448
100
AcDbEntity
  8
0
100
AcDbCircle
 10
186.919202
 20
224.086212
 30
0.0
 40
1.6
100
AcDbArc
 50
180.0
 51
270.0
  0
LINE
  5
449
100
AcDbEntity
  8
0
100
AcDbLine
 10
185.519202
 20
226.086202
 30
0.0
 11
185.919145
 21
226.086202
 31
0.0
  0
LINE
  5
44A
100
AcDbEntity
  8
0
100
AcDbLine
 10
185.919145
 20
226.086202
 30
0.0
 11
186.23678
 21
225.707647
 31
0.0
  0
ARC
  5
44B
100
AcDbEntity
  8
0
100
AcDbCircle
 10
186.389991
 20
225.836202
 30
0.0
 40
0.2
100
AcDbArc
 50
219.99908
 51
270.0
  0
LINE
  5
44C
100
AcDbEntity
  8
0
100
AcDbLine
 10
186.389991
 20
225.636202
 30
0.0
 11
186.565144
 21
225.636202
 31
0.0
  0
ARC
  5
44D
100
AcDbEntity
  8
0
100
AcDbCircle
 10
186.565144
 20
225.836202
 30
0.0
 40
0.2
100
AcDbArc
 50
270.0
 51
339.970331
  0
ARC
  5
44E
100
AcDbEntity
  8
0
100
AcDbCircle
 10
185.519202
 20
225.886202
 30
0.0
 40
0.2
100
AcDbArc
 50
90.0
 51
180.0
  0
LINE
  5
44F
100
AcDbEntity
  8
0
100
AcDbLine
 10
185.961202
 20
226.386202
 30
0.0
 11
186.481202
 21
226.386202
 31
0.0
  0
ARC
  5
450
100
AcDbEntity
  8
0
100
AcDbCircle
 10
196.719202
 20
224.086212
 30
0.0
 40
1.6
100
AcDbArc
 50
270.0
 51
0.0
  0
LINE
  5
451
100
AcDbEntity
  8
0
100
AcDbLine
 10
197.248413
 20
225.636202
 30
0.0
 11
197.073259
 21
225.636202
 31
0.0
  0
ARC
  5
452
100
AcDbEntity
  8
0
100
AcDbCircle
 10
198.119202
 20
225.886202
 30
0.0
 40
0.2
100
AcDbArc
 50
0.0
 51
90.0
  0
ARC
  5
453
100
AcDbEntity
  8
0
100
AcDbCircle
 10
197.248413
 20
225.836202
 30
0.0
 40
0.2
100
AcDbArc
 50
270.0
 51
320.00092
  0
LINE
  5
454
100
AcDbEntity
  8
0
100
AcDbLine
 10
197.719259
 20
226.086202
 30
0.0
 11
197.401624
 21
225.707647
 31
0.0
  0
LINE
  5
455
100
AcDbEntity
  8
0
100
AcDbLine
 10
198.119202
 20
226.086202
 30
0.0
 11
197.719259
 21
226.086202
 31
0.0
  0
LINE
  5
456
100
AcDbEntity
  8
0
100
AcDbLine
 10
197.677202
 20
226.386202
 30
0.0
 11
197.157202
 21
226.386202
 31
0.0
  0
ARC
  5
457
100
AcDbEntity
  8
0
100
AcDbCircle
 10
197.073259
 20
225.836202
 30
0.0
 40
0.2
100
AcDbArc
 50
200.029669
 51
270.0
  0
LINE
  5
458
100
AcDbEntity
  8
0
100
AcDbLine
 10
196.719202
 20
234.986212
 30
0.0
 11
185.319202
 21
234.986212
 31
0.0
  0
LINE
  5
459
100
AcDbEntity
  8
0
100
AcDbLine
 10
201.119202
 20
238.486212
 30
0.0
 11
181.119202
 21
238.486212
 31
0.0
  0
ARC
  5
45A
100
AcDbEntity
  8
0
100
AcDbCircle
 10
186.919202
 20
233.386212
 30
0.0
 40
1.6
100
AcDbArc
 50
90.0
 51
180.0
  0
ARC
  5
45B
100
AcDbEntity
  8
0
100
AcDbCircle
 10
186.484476
 20
232.211415
 30
0.0
 40
0.53
100
AcDbArc
 50
5.065138
 51
144.935553
  0
LINE
  5
45C
100
AcDbEntity
  8
0
100
AcDbLine
 10
187.061202
 20
230.836202
 30
0.0
 11
185.961202
 21
229.736212
 31
0.0
  0
LINE
  5
45D
100
AcDbEntity
  8
0
100
AcDbLine
 10
183.119202
 20
231.386212
 30
0.0
 11
185.319202
 21
231.386212
 31
0.0
  0
LINE
  5
45E
100
AcDbEntity
  8
0
100
AcDbLine
 10
185.961202
 20
229.736212
 30
0.0
 11
185.961202
 21
226.686212
 31
0.0
  0
LINE
  5
45F
100
AcDbEntity
  8
0
100
AcDbLine
 10
185.661202
 20
229.860292
 30
0.0
 11
185.661202
 21
226.686202
 31
0.0
  0
LINE
  5
460
100
AcDbEntity
  8
0
100
AcDbLine
 10
186.481202
 20
226.686212
 30
0.0
 11
185.961202
 21
226.686212
 31
0.0
  0
LINE
  5
461
100
AcDbEntity
  8
0
100
AcDbLine
 10
186.310203
 20
231.841177
 30
0.0
 11
186.065229
 21
232.014185
 31
0.0
  0
LINE
  5
462
100
AcDbEntity
  8
0
100
AcDbLine
 10
186.714324
 20
232.219713
 30
0.0
 11
186.761189
 21
230.960289
 31
0.0
  0
ARC
  5
463
100
AcDbEntity
  8
0
100
AcDbCircle
 10
186.064683
 20
232.013672
 30
0.0
 40
0.3
100
AcDbArc
 50
144.935553
 51
235.03769
  0
LINE
  5
464
100
AcDbEntity
  8
0
100
AcDbLine
 10
186.761189
 20
230.960289
 30
0.0
 11
185.661202
 21
229.860292
 31
0.0
  0
LINE
  5
465
100
AcDbEntity
  8
0
100
AcDbLine
 10
186.138221
 20
231.596188
 30
0.0
 11
186.310203
 21
231.841177
 31
0.0
  0
LINE
  5
466
100
AcDbEntity
  8
0
100
AcDbLine
 10
186.138221
 20
231.596188
 30
0.0
 11
185.892772
 21
231.767813
 31
0.0
  0
LINE
  5
467
100
AcDbEntity
  8
0
100
AcDbLine
 10
185.819131
 20
232.186021
 30
0.0
 11
186.050668
 21
232.515899
 31
0.0
  0
ARC
  5
468
100
AcDbEntity
  8
0
100
AcDbCircle
 10
186.484483
 20
232.21116
 30
0.0
 40
0.23
100
AcDbArc
 50
2.131079
 51
144.935553
  0
LINE
  5
469
100
AcDbEntity
  8
0
100
AcDbLine
 10
186.065229
 20
232.014185
 30
0.0
 11
186.296226
 21
232.343295
 31
0.0
  0
LINE
  5
46A
100
AcDbEntity
  8
0
100
AcDbLine
 10
185.519202
 20
232.186212
 30
0.0
 11
185.819265
 21
232.186212
 31
0.0
  0
ARC
  5
46B
100
AcDbEntity
  8
0
100
AcDbCircle
 10
185.519202
 20
232.386212
 30
0.0
 40
0.2
100
AcDbArc
 50
180.0
 51
270.0
  0
LINE
  5
46C
100
AcDbEntity
  8
0
100
AcDbLine
 10
187.290479
 20
231.186212
 30
0.0
 11
189.005224
 21
231.186212
 31
0.0
  0
LINE
  5
46D
100
AcDbEntity
  8
0
100
AcDbLine
 10
187.264313
 20
226.786202
 30
0.0
 11
189.005232
 21
226.786202
 31
0.0
  0
ARC
  5
46E
100
AcDbEntity
  8
0
100
AcDbCircle
 10
187.264313
 20
226.586202
 30
0.0
 40
0.2
100
AcDbArc
 50
90.0
 51
159.970331
  0
LINE
  5
46F
100
AcDbEntity
  8
0
100
AcDbLine
 10
187.012406
 20
232.258208
 30
0.0
 11
187.09126
 21
231.368554
 31
0.0
  0
LINE
  5
470
100
AcDbEntity
  8
0
100
AcDbLine
 10
187.061202
 20
231.707202
 30
0.0
 11
187.061202
 21
230.836202
 31
0.0
  0
ARC
  5
471
100
AcDbEntity
  8
0
100
AcDbCircle
 10
187.290479
 20
231.386212
 30
0.0
 40
0.2
100
AcDbArc
 50
185.065138
 51
270.0
  0
LINE
  5
472
100
AcDbEntity
  8
0
100
AcDbLine
 10
183.119202
 20
234.986212
 30
0.0
 11
181.119202
 21
234.986212
 31
0.0
  0
LINE
  5
473
100
AcDbEntity
  8
0
100
AcDbLine
 10
183.119202
 20
236.486212
 30
0.0
 11
185.319202
 21
236.486212
 31
0.0
  0
ARC
  5
474
100
AcDbEntity
  8
0
100
AcDbCircle
 10
196.719202
 20
233.386212
 30
0.0
 40
1.6
100
AcDbArc
 50
0.0
 51
90.0
  0
ARC
  5
475
100
AcDbEntity
  8
0
100
AcDbCircle
 10
197.153927
 20
232.211415
 30
0.0
 40
0.53
100
AcDbArc
 50
35.064447
 51
174.934862
  0
ARC
  5
476
100
AcDbEntity
  8
0
100
AcDbCircle
 10
197.153921
 20
232.21116
 30
0.0
 40
0.23
100
AcDbArc
 50
35.064447
 51
177.868921
  0
LINE
  5
477
100
AcDbEntity
  8
0
100
AcDbLine
 10
196.877215
 20
230.960289
 30
0.0
 11
197.977202
 21
229.860292
 31
0.0
  0
LINE
  5
478
100
AcDbEntity
  8
0
100
AcDbLine
 10
196.577202
 20
230.836202
 30
0.0
 11
197.677202
 21
229.736212
 31
0.0
  0
LINE
  5
479
100
AcDbEntity
  8
0
100
AcDbLine
 10
197.977202
 20
229.860292
 30
0.0
 11
197.977202
 21
226.686202
 31
0.0
  0
LINE
  5
47A
100
AcDbEntity
  8
0
100
AcDbLine
 10
197.677202
 20
229.736212
 30
0.0
 11
197.677202
 21
226.686212
 31
0.0
  0
LINE
  5
47B
100
AcDbEntity
  8
0
100
AcDbLine
 10
197.157202
 20
226.686212
 30
0.0
 11
197.677202
 21
226.686212
 31
0.0
  0
LINE
  5
47C
100
AcDbEntity
  8
0
100
AcDbLine
 10
197.328201
 20
231.841177
 30
0.0
 11
197.573174
 21
232.014185
 31
0.0
  0
ARC
  5
47D
100
AcDbEntity
  8
0
100
AcDbCircle
 10
197.57372
 20
232.013672
 30
0.0
 40
0.3
100
AcDbArc
 50
304.96231
 51
35.064447
  0
LINE
  5
47E
100
AcDbEntity
  8
0
100
AcDbLine
 10
197.500183
 20
231.596188
 30
0.0
 11
197.745632
 21
231.767813
 31
0.0
  0
LINE
  5
47F
100
AcDbEntity
  8
0
100
AcDbLine
 10
197.500183
 20
231.596188
 30
0.0
 11
197.328201
 21
231.841177
 31
0.0
  0
ARC
  5
480
100
AcDbEntity
  8
0
100
AcDbCircle
 10
198.119202
 20
232.386212
 30
0.0
 40
0.2
100
AcDbArc
 50
270.0
 51
0.0
  0
LINE
  5
481
100
AcDbEntity
  8
0
100
AcDbLine
 10
197.819272
 20
232.186021
 30
0.0
 11
197.587736
 21
232.515899
 31
0.0
  0
LINE
  5
482
100
AcDbEntity
  8
0
100
AcDbLine
 10
198.119202
 20
232.186212
 30
0.0
 11
197.819139
 21
232.186212
 31
0.0
  0
LINE
  5
483
100
AcDbEntity
  8
0
100
AcDbLine
 10
197.573174
 20
232.014185
 30
0.0
 11
197.342177
 21
232.343295
 31
0.0
  0
LINE
  5
484
100
AcDbEntity
  8
0
100
AcDbLine
 10
196.92408
 20
232.219713
 30
0.0
 11
196.877215
 21
230.960289
 31
0.0
  0
LINE
  5
485
100
AcDbEntity
  8
0
100
AcDbLine
 10
196.625997
 20
232.258208
 30
0.0
 11
196.547143
 21
231.368554
 31
0.0
  0
LINE
  5
486
100
AcDbEntity
  8
0
100
AcDbLine
 10
196.577202
 20
231.707202
 30
0.0
 11
196.577202
 21
230.836202
 31
0.0
  0
ARC
  5
487
100
AcDbEntity
  8
0
100
AcDbCircle
 10
196.37409
 20
226.586202
 30
0.0
 40
0.2
100
AcDbArc
 50
20.029669
 51
90.0
  0
ARC
  5
488
100
AcDbEntity
  8
0
100
AcDbCircle
 10
196.347924
 20
231.386212
 30
0.0
 40
0.2
100
AcDbArc
 50
270.0
 51
354.934862
  0
LINE
  5
489
100
AcDbEntity
  8
0
100
AcDbLine
 10
196.37409
 20
226.786202
 30
0.0
 11
194.633171
 21
226.786202
 31
0.0
  0
LINE
  5
48A
100
AcDbEntity
  8
0
100
AcDbLine
 10
196.347924
 20
231.186212
 30
0.0
 11
194.633179
 21
231.186212
 31
0.0
  0
LINE
  5
48B
100
AcDbEntity
  8
0
100
AcDbLine
 10
214.119202
 20
255.486212
 30
0.0
 11
214.119202
 21
238.486212
 31
0.0
  0
LINE
  5
48C
100
AcDbEntity
  8
0
  6
DASHED
 62
     3
100
AcDbLine
 10
206.019202
 20
249.486212
 30
0.0
 11
206.019202
 21
235.486212
 31
0.0
  0
LINE
  5
48D
100
AcDbEntity
  8
0
100
AcDbLine
 10
241.119202
 20
238.486212
 30
0.0
 11
214.119202
 21
238.486212
 31
0.0
  0
LINE
  5
48E
100
AcDbEntity
  8
0
100
AcDbLine
 10
225.890479
 20
231.186212
 30
0.0
 11
227.605224
 21
231.186212
 31
0.0
  0
LINE
  5
48F
100
AcDbEntity
  8
0
100
AcDbLine
 10
225.864313
 20
226.786202
 30
0.0
 11
227.605232
 21
226.786202
 31
0.0
  0
LINE
  5
490
100
AcDbEntity
  8
0
100
AcDbLine
 10
225.519202
 20
222.486212
 30
0.0
 11
235.319202
 21
222.486212
 31
0.0
  0
CIRCLE
  5
491
100
AcDbEntity
  8
0
100
AcDbCircle
 10
230.419202
 20
228.986212
 30
0.0
 40
3.5719
  0
LINE
  5
492
100
AcDbEntity
  8
0
100
AcDbLine
 10
225.519202
 20
234.986212
 30
0.0
 11
236.919202
 21
234.986212
 31
0.0
  0
LINE
  5
493
100
AcDbEntity
  8
0
100
AcDbLine
 10
225.353047
 20
225.7677
 30
0.0
 11
225.67641
 21
226.654703
 31
0.0
  0
LINE
  5
494
100
AcDbEntity
  8
0
100
AcDbLine
 10
225.081202
 20
226.386202
 30
0.0
 11
225.081202
 21
226.686212
 31
0.0
  0
ARC
  5
495
100
AcDbEntity
  8
0
100
AcDbCircle
 10
224.561202
 20
226.686202
 30
0.0
 40
0.3
100
AcDbArc
 50
180.0
 51
270.0
  0
ARC
  5
496
100
AcDbEntity
  8
0
100
AcDbCircle
 10
225.165144
 20
225.836202
 30
0.0
 40
0.2
100
AcDbArc
 50
270.0
 51
339.970331
  0
LINE
  5
497
100
AcDbEntity
  8
0
100
AcDbLine
 10
224.561202
 20
226.386202
 30
0.0
 11
225.081202
 21
226.386202
 31
0.0
  0
LINE
  5
498
100
AcDbEntity
  8
0
100
AcDbLine
 10
224.119202
 20
226.086202
 30
0.0
 11
224.519145
 21
226.086202
 31
0.0
  0
LINE
  5
499
100
AcDbEntity
  8
0
100
AcDbLine
 10
224.519145
 20
226.086202
 30
0.0
 11
224.83678
 21
225.707647
 31
0.0
  0
ARC
  5
49A
100
AcDbEntity
  8
0
100
AcDbCircle
 10
224.989991
 20
225.836202
 30
0.0
 40
0.2
100
AcDbArc
 50
219.99908
 51
270.0
  0
ARC
  5
49B
100
AcDbEntity
  8
0
100
AcDbCircle
 10
224.119202
 20
225.886202
 30
0.0
 40
0.2
100
AcDbArc
 50
90.0
 51
180.0
  0
ARC
  5
49C
100
AcDbEntity
  8
0
100
AcDbCircle
 10
225.519202
 20
224.086212
 30
0.0
 40
1.6
100
AcDbArc
 50
180.0
 51
270.0
  0
LINE
  5
49D
100
AcDbEntity
  8
0
100
AcDbLine
 10
224.989991
 20
225.636202
 30
0.0
 11
225.165144
 21
225.636202
 31
0.0
  0
LINE
  5
49E
100
AcDbEntity
  8
0
  6
DASHED
 62
     3
100
AcDbLine
 10
214.119202
 20
235.486212
 30
0.0
 11
206.019202
 21
235.486212
 31
0.0
  0
ARC
  5
49F
100
AcDbEntity
  8
0
100
AcDbCircle
 10
225.519202
 20
233.386212
 30
0.0
 40
1.6
100
AcDbArc
 50
90.0
 51
180.0
  0
ARC
  5
4A0
100
AcDbEntity
  8
0
100
AcDbCircle
 10
225.890479
 20
231.386212
 30
0.0
 40
0.2
100
AcDbArc
 50
185.065138
 51
270.0
  0
LINE
  5
4A1
100
AcDbEntity
  8
0
100
AcDbLine
 10
225.661202
 20
231.707202
 30
0.0
 11
225.661202
 21
230.836202
 31
0.0
  0
LINE
  5
4A2
100
AcDbEntity
  8
0
100
AcDbLine
 10
225.612406
 20
232.258208
 30
0.0
 11
225.69126
 21
231.368554
 31
0.0
  0
LINE
  5
4A3
100
AcDbEntity
  8
0
100
AcDbLine
 10
225.314324
 20
232.219713
 30
0.0
 11
225.361189
 21
230.960289
 31
0.0
  0
ARC
  5
4A4
100
AcDbEntity
  8
0
100
AcDbCircle
 10
225.864313
 20
226.586202
 30
0.0
 40
0.2
100
AcDbArc
 50
90.0
 51
159.970331
  0
LINE
  5
4A5
100
AcDbEntity
  8
0
100
AcDbLine
 10
224.665229
 20
232.014185
 30
0.0
 11
224.896226
 21
232.343295
 31
0.0
  0
LINE
  5
4A6
100
AcDbEntity
  8
0
100
AcDbLine
 10
224.119202
 20
232.186212
 30
0.0
 11
224.419265
 21
232.186212
 31
0.0
  0
LINE
  5
4A7
100
AcDbEntity
  8
0
100
AcDbLine
 10
224.419131
 20
232.186021
 30
0.0
 11
224.650668
 21
232.515899
 31
0.0
  0
ARC
  5
4A8
100
AcDbEntity
  8
0
100
AcDbCircle
 10
224.119202
 20
232.386212
 30
0.0
 40
0.2
100
AcDbArc
 50
180.0
 51
270.0
  0
LINE
  5
4A9
100
AcDbEntity
  8
0
100
AcDbLine
 10
224.738221
 20
231.596188
 30
0.0
 11
224.910203
 21
231.841177
 31
0.0
  0
LINE
  5
4AA
100
AcDbEntity
  8
0
100
AcDbLine
 10
224.738221
 20
231.596188
 30
0.0
 11
224.492772
 21
231.767813
 31
0.0
  0
ARC
  5
4AB
100
AcDbEntity
  8
0
100
AcDbCircle
 10
224.664683
 20
232.013672
 30
0.0
 40
0.3
100
AcDbArc
 50
144.935553
 51
235.03769
  0
LINE
  5
4AC
100
AcDbEntity
  8
0
100
AcDbLine
 10
224.910203
 20
231.841177
 30
0.0
 11
224.665229
 21
232.014185
 31
0.0
  0
LINE
  5
4AD
100
AcDbEntity
  8
0
100
AcDbLine
 10
225.081202
 20
226.686212
 30
0.0
 11
224.561202
 21
226.686212
 31
0.0
  0
LINE
  5
4AE
100
AcDbEntity
  8
0
100
AcDbLine
 10
224.561202
 20
229.736212
 30
0.0
 11
224.561202
 21
226.686212
 31
0.0
  0
LINE
  5
4AF
100
AcDbEntity
  8
0
100
AcDbLine
 10
224.261202
 20
229.860292
 30
0.0
 11
224.261202
 21
226.686202
 31
0.0
  0
LINE
  5
4B0
100
AcDbEntity
  8
0
100
AcDbLine
 10
225.661202
 20
230.836202
 30
0.0
 11
224.561202
 21
229.736212
 31
0.0
  0
LINE
  5
4B1
100
AcDbEntity
  8
0
100
AcDbLine
 10
225.361189
 20
230.960289
 30
0.0
 11
224.261202
 21
229.860292
 31
0.0
  0
ARC
  5
4B2
100
AcDbEntity
  8
0
100
AcDbCircle
 10
225.084483
 20
232.21116
 30
0.0
 40
0.23
100
AcDbArc
 50
2.131079
 51
144.935553
  0
ARC
  5
4B3
100
AcDbEntity
  8
0
100
AcDbCircle
 10
225.084476
 20
232.211415
 30
0.0
 40
0.53
100
AcDbArc
 50
5.065138
 51
144.935553
  0
LINE
  5
4B4
100
AcDbEntity
  8
0
100
AcDbLine
 10
235.757202
 20
226.386202
 30
0.0
 11
235.757202
 21
226.686212
 31
0.0
  0
ARC
  5
4B5
100
AcDbEntity
  8
0
100
AcDbCircle
 10
236.277202
 20
226.686202
 30
0.0
 40
0.3
100
AcDbArc
 50
270.0
 51
0.0
  0
LINE
  5
4B6
100
AcDbEntity
  8
0
100
AcDbLine
 10
235.485356
 20
225.7677
 30
0.0
 11
235.161993
 21
226.654703
 31
0.0
  0
LINE
  5
4B7
100
AcDbEntity
  8
0
100
AcDbLine
 10
236.277202
 20
226.386202
 30
0.0
 11
235.757202
 21
226.386202
 31
0.0
  0
ARC
  5
4B8
100
AcDbEntity
  8
0
100
AcDbCircle
 10
236.719202
 20
225.886202
 30
0.0
 40
0.2
100
AcDbArc
 50
0.0
 51
90.0
  0
ARC
  5
4B9
100
AcDbEntity
  8
0
100
AcDbCircle
 10
235.673259
 20
225.836202
 30
0.0
 40
0.2
100
AcDbArc
 50
200.029669
 51
270.0
  0
LINE
  5
4BA
100
AcDbEntity
  8
0
100
AcDbLine
 10
235.848413
 20
225.636202
 30
0.0
 11
235.673259
 21
225.636202
 31
0.0
  0
ARC
  5
4BB
100
AcDbEntity
  8
0
100
AcDbCircle
 10
235.848413
 20
225.836202
 30
0.0
 40
0.2
100
AcDbArc
 50
270.0
 51
320.00092
  0
LINE
  5
4BC
100
AcDbEntity
  8
0
100
AcDbLine
 10
236.319259
 20
226.086202
 30
0.0
 11
236.001624
 21
225.707647
 31
0.0
  0
LINE
  5
4BD
100
AcDbEntity
  8
0
100
AcDbLine
 10
236.719202
 20
226.086202
 30
0.0
 11
236.319259
 21
226.086202
 31
0.0
  0
ARC
  5
4BE
100
AcDbEntity
  8
0
100
AcDbCircle
 10
235.319202
 20
224.086212
 30
0.0
 40
1.6
100
AcDbArc
 50
270.0
 51
0.0
  0
LINE
  5
4BF
100
AcDbEntity
  8
0
100
AcDbLine
 10
239.119202
 20
231.386212
 30
0.0
 11
236.919202
 21
231.386212
 31
0.0
  0
LINE
  5
4C0
100
AcDbEntity
  8
0
100
AcDbLine
 10
239.119202
 20
236.486212
 30
0.0
 11
236.919202
 21
236.486212
 31
0.0
  0
ARC
  5
4C1
100
AcDbEntity
  8
0
100
AcDbCircle
 10
235.319202
 20
233.386212
 30
0.0
 40
1.6
100
AcDbArc
 50
0.0
 51
90.0
  0
ARC
  5
4C2
100
AcDbEntity
  8
0
100
AcDbCircle
 10
236.719202
 20
232.386212
 30
0.0
 40
0.2
100
AcDbArc
 50
270.0
 51
0.0
  0
LINE
  5
4C3
100
AcDbEntity
  8
0
100
AcDbLine
 10
236.719202
 20
232.186212
 30
0.0
 11
236.419139
 21
232.186212
 31
0.0
  0
LINE
  5
4C4
100
AcDbEntity
  8
0
100
AcDbLine
 10
236.173174
 20
232.014185
 30
0.0
 11
235.942177
 21
232.343295
 31
0.0
  0
ARC
  5
4C5
100
AcDbEntity
  8
0
100
AcDbCircle
 10
235.753921
 20
232.21116
 30
0.0
 40
0.23
100
AcDbArc
 50
35.064447
 51
177.868921
  0
LINE
  5
4C6
100
AcDbEntity
  8
0
100
AcDbLine
 10
236.419272
 20
232.186021
 30
0.0
 11
236.187736
 21
232.515899
 31
0.0
  0
LINE
  5
4C7
100
AcDbEntity
  8
0
100
AcDbLine
 10
236.100183
 20
231.596188
 30
0.0
 11
236.345632
 21
231.767813
 31
0.0
  0
LINE
  5
4C8
100
AcDbEntity
  8
0
100
AcDbLine
 10
236.100183
 20
231.596188
 30
0.0
 11
235.928201
 21
231.841177
 31
0.0
  0
LINE
  5
4C9
100
AcDbEntity
  8
0
100
AcDbLine
 10
235.477215
 20
230.960289
 30
0.0
 11
236.577202
 21
229.860292
 31
0.0
  0
ARC
  5
4CA
100
AcDbEntity
  8
0
100
AcDbCircle
 10
236.17372
 20
232.013672
 30
0.0
 40
0.3
100
AcDbArc
 50
304.96231
 51
35.064447
  0
LINE
  5
4CB
100
AcDbEntity
  8
0
100
AcDbLine
 10
235.52408
 20
232.219713
 30
0.0
 11
235.477215
 21
230.960289
 31
0.0
  0
LINE
  5
4CC
100
AcDbEntity
  8
0
100
AcDbLine
 10
235.928201
 20
231.841177
 30
0.0
 11
236.173174
 21
232.014185
 31
0.0
  0
ARC
  5
4CD
100
AcDbEntity
  8
0
100
AcDbCircle
 10
234.947924
 20
231.386212
 30
0.0
 40
0.2
100
AcDbArc
 50
270.0
 51
354.934862
  0
LINE
  5
4CE
100
AcDbEntity
  8
0
100
AcDbLine
 10
235.177202
 20
231.707202
 30
0.0
 11
235.177202
 21
230.836202
 31
0.0
  0
LINE
  5
4CF
100
AcDbEntity
  8
0
100
AcDbLine
 10
235.225997
 20
232.258208
 30
0.0
 11
235.147143
 21
231.368554
 31
0.0
  0
LINE
  5
4D0
100
AcDbEntity
  8
0
100
AcDbLine
 10
235.177202
 20
230.836202
 30
0.0
 11
236.277202
 21
229.736212
 31
0.0
  0
ARC
  5
4D1
100
AcDbEntity
  8
0
100
AcDbCircle
 10
235.753927
 20
232.211415
 30
0.0
 40
0.53
100
AcDbArc
 50
35.064447
 51
174.934862
  0
LINE
  5
4D2
100
AcDbEntity
  8
0
100
AcDbLine
 10
235.757202
 20
226.686212
 30
0.0
 11
236.277202
 21
226.686212
 31
0.0
  0
ARC
  5
4D3
100
AcDbEntity
  8
0
100
AcDbCircle
 10
234.97409
 20
226.586202
 30
0.0
 40
0.2
100
AcDbArc
 50
20.029669
 51
90.0
  0
LINE
  5
4D4
100
AcDbEntity
  8
0
100
AcDbLine
 10
236.577202
 20
229.860292
 30
0.0
 11
236.577202
 21
226.686202
 31
0.0
  0
LINE
  5
4D5
100
AcDbEntity
  8
0
100
AcDbLine
 10
236.277202
 20
229.736212
 30
0.0
 11
236.277202
 21
226.686212
 31
0.0
  0
LINE
  5
4D6
100
AcDbEntity
  8
0
100
AcDbLine
 10
234.97409
 20
226.786202
 30
0.0
 11
233.233171
 21
226.786202
 31
0.0
  0
LINE
  5
4D7
100
AcDbEntity
  8
0
100
AcDbLine
 10
234.947924
 20
231.186212
 30
0.0
 11
233.233179
 21
231.186212
 31
0.0
  0
LINE
  5
4D8
100
AcDbEntity
  8
0
100
AcDbLine
 10
239.119202
 20
234.986212
 30
0.0
 11
241.119202
 21
234.986212
 31
0.0
  0
LINE
  5
4D9
100
AcDbEntity
  8
0
  6
DASHED
 62
     3
100
AcDbLine
 10
214.119202
 20
249.486212
 30
0.0
 11
206.019202
 21
249.486212
 31
0.0
  0
LINE
  5
4DA
100
AcDbEntity
  8
0
100
AcDbLine
 10
207.619202
 20
255.486212
 30
0.0
 11
207.619302
 21
255.486212
 31
0.0
  0
LINE
  5
4DB
100
AcDbEntity
  8
0
100
AcDbLine
 10
210.869202
 20
255.486212
 30
0.0
 11
210.869202
 21
255.486312
 31
0.0
  0
LINE
  5
4DC
100
AcDbEntity
  8
CENTER
  6
CENTER
 62
     1
100
AcDbLine
 10
386.419763
 20
262.033073
 30
0.0
 11
386.419763
 21
152.939351
 31
0.0
  0
CIRCLE
  5
4DD
100
AcDbEntity
  8
0
100
AcDbCircle
 10
386.419763
 20
207.486212
 30
0.0
 40
31.0
  0
CIRCLE
  5
4DE
100
AcDbEntity
  8
0
100
AcDbCircle
 10
386.419763
 20
207.486212
 30
0.0
 40
15.0
  0
CIRCLE
  5
4DF
100
AcDbEntity
  8
0
100
AcDbCircle
 10
386.419763
 20
207.486212
 30
0.0
 40
27.5
  0
LINE
  5
4E0
100
AcDbEntity
  8
0
100
AcDbLine
 10
419.419763
 20
242.343062
 30
0.0
 11
419.419763
 21
172.629361
 31
0.0
  0
LINE
  5
4E1
100
AcDbEntity
  8
0
100
AcDbLine
 10
353.419763
 20
242.343062
 30
0.0
 11
353.419763
 21
172.629361
 31
0.0
  0
LINE
  5
4E2
100
AcDbEntity
  8
CENTER
  6
CENTER
 62
     1
100
AcDbLine
 10
346.746794
 20
207.486212
 30
0.0
 11
428.620179
 21
207.486212
 31
0.0
  0
ARC
  5
4E3
100
AcDbEntity
  8
0
100
AcDbCircle
 10
386.419763
 20
207.486212
 30
0.0
 40
48.0
100
AcDbArc
 50
226.567463
 51
313.432537
  0
LINE
  5
4E4
100
AcDbEntity
  8
CENTER
  6
CENTER
 62
     1
100
AcDbLine
 10
366.419763
 20
161.910572
 30
0.0
 11
366.419763
 21
183.061851
 31
0.0
  0
CIRCLE
  5
4E5
100
AcDbEntity
  8
0
100
AcDbCircle
 10
366.419763
 20
172.486212
 30
0.0
 40
7.0
  0
LINE
  5
4E6
100
AcDbEntity
  8
CENTER
  6
CENTER
 62
     1
100
AcDbLine
 10
376.995402
 20
172.486212
 30
0.0
 11
355.844123
 21
172.486212
 31
0.0
  0
CIRCLE
  5
4E7
100
AcDbEntity
  8
0
100
AcDbCircle
 10
366.419763
 20
172.486212
 30
0.0
 40
4.5
  0
LINE
  5
4E8
100
AcDbEntity
  8
CENTER
  6
CENTER
 62
     1
100
AcDbLine
 10
406.419763
 20
161.910572
 30
0.0
 11
406.419763
 21
183.061851
 31
0.0
  0
CIRCLE
  5
4E9
100
AcDbEntity
  8
0
100
AcDbCircle
 10
406.419763
 20
172.486212
 30
0.0
 40
7.0
  0
LINE
  5
4EA
100
AcDbEntity
  8
CENTER
  6
CENTER
 62
     1
100
AcDbLine
 10
395.844123
 20
172.486212
 30
0.0
 11
416.995402
 21
172.486212
 31
0.0
  0
CIRCLE
  5
4EB
100
AcDbEntity
  8
0
100
AcDbCircle
 10
406.419763
 20
172.486212
 30
0.0
 40
4.5
  0
ARC
  5
4EC
100
AcDbEntity
  8
0
100
AcDbCircle
 10
386.419763
 20
207.486212
 30
0.0
 40
48.0
100
AcDbArc
 50
46.567463
 51
133.432537
  0
LINE
  5
4ED
100
AcDbEntity
  8
CENTER
  6
CENTER
 62
     1
100
AcDbLine
 10
366.419763
 20
253.061851
 30
0.0
 11
366.419763
 21
231.910572
 31
0.0
  0
CIRCLE
  5
4EE
100
AcDbEntity
  8
0
100
AcDbCircle
 10
366.419763
 20
242.486212
 30
0.0
 40
4.5
  0
CIRCLE
  5
4EF
100
AcDbEntity
  8
0
100
AcDbCircle
 10
366.419763
 20
242.486212
 30
0.0
 40
7.0
  0
LINE
  5
4F0
100
AcDbEntity
  8
CENTER
  6
CENTER
 62
     1
100
AcDbLine
 10
376.995402
 20
242.486212
 30
0.0
 11
355.844123
 21
242.486212
 31
0.0
  0
LINE
  5
4F1
100
AcDbEntity
  8
CENTER
  6
CENTER
 62
     1
100
AcDbLine
 10
406.419763
 20
253.061851
 30
0.0
 11
406.419763
 21
231.910572
 31
0.0
  0
CIRCLE
  5
4F2
100
AcDbEntity
  8
0
100
AcDbCircle
 10
406.419763
 20
242.486212
 30
0.0
 40
4.5
  0
CIRCLE
  5
4F3
100
AcDbEntity
  8
0
100
AcDbCircle
 10
406.419763
 20
242.486212
 30
0.0
 40
7.0
  0
LINE
  5
4F4
100
AcDbEntity
  8
CENTER
  6
CENTER
 62
     1
100
AcDbLine
 10
395.844123
 20
242.486212
 30
0.0
 11
416.995402
 21
242.486212
 31
0.0
  0
LINE
  5
4F5
100
AcDbEntity
  8
0
  6
DASHED
 62
     3
100
AcDbLine
 10
201.119202
 20
238.486212
 30
0.0
 11
201.119202
 21
237.986212
 31
0.0
  0
LINE
  5
4F6
100
AcDbEntity
  8
0
  6
DASHED
 62
     3
100
AcDbLine
 10
214.119202
 20
235.486212
 30
0.0
 11
214.119202
 21
238.486212
 31
0.0
  0
LINE
  5
4F7
100
AcDbEntity
  8
0
  6
DASHED
 62
     3
100
AcDbLine
 10
201.119202
 20
176.486212
 30
0.0
 11
201.119202
 21
176.986212
 31
0.0
  0
LINE
  5
4F8
100
AcDbEntity
  8
0
  6
DASHED
 62
     3
100
AcDbLine
 10
214.119202
 20
176.486212
 30
0.0
 11
214.119202
 21
179.486212
 31
0.0
  0
ENDSEC
  0
SECTION
  2
OBJECTS
  0
DICTIONARY
  5
35E
100
AcDbDictionary
  3
ACAD_GROUP
350
35F
  3
ACAD_LAYOUT
350
36B
  3
ACAD_MLINESTYLE
350
368
  3
ACAD_PLOTSETTINGS
350
36A
  3
ACAD_PLOTSTYLENAME
350
360
  3
ACDBHEADERROUNDTRIPXREC
350
505
  3
AcDbVariableDictionary
350
52E
  0
DICTIONARY
  5
503
100
AcDbDictionary
280
     1
  3
ACAD_XREC_ROUNDTRIP
360
504
  0
DICTIONARY
  5
4FF
100
AcDbDictionary
280
     1
  3
ACAD_XREC_ROUNDTRIP
360
500
  0
DICTIONARY
  5
501
100
AcDbDictionary
280
     1
  3
ACAD_XREC_ROUNDTRIP
360
502
  0
DICTIONARY
  5
52C
100
AcDbDictionary
280
     1
  3
ACAD_XREC_ROUNDTRIP
360
52D
  0
DICTIONARY
  5
4FB
100
AcDbDictionary
280
     1
  3
ACAD_LAYOUTSELFREF
360
52B
  3
ACAD_XREC_ROUNDTRIP
360
4FC
  0
DICTIONARY
  5
4FD
100
AcDbDictionary
280
     1
  3
ACAD_LAYOUTSELFREF
360
52A
  3
ACAD_XREC_ROUNDTRIP
360
4FE
  0
DICTIONARY
  5
35F
102
{ACAD_REACTORS
330
35E
102
}
100
AcDbDictionary
  0
DICTIONARY
  5
36B
102
{ACAD_XDICTIONARY
360
528
102
}
102
{ACAD_REACTORS
330
35E
102
}
100
AcDbDictionary
  3
MODEL
350
373
  3
ﾚｲｱｳﾄ1
350
36F
  0
DICTIONARY
  5
368
102
{ACAD_XDICTIONARY
360
526
102
}
102
{ACAD_REACTORS
330
35E
102
}
100
AcDbDictionary
  3
STANDARD
350
369
  0
DICTIONARY
  5
36A
102
{ACAD_REACTORS
330
35E
102
}
100
AcDbDictionary
  0
ACAD_PROXY_OBJECT
  5
360
102
{ACAD_REACTORS
330
35E
102
}
100
AcDbProxyObject
 90
      499
 91
      500
 93
       86
310
405010041939BDC9B585B0
350
361
340
361
 94
        0
  0
DICTIONARY
  5
505
102
{ACAD_REACTORS
330
35E
102
}
100
AcDbDictionary
  3
CEPSNTYPE
350
50F
  3
DIMSTYLEDATA
350
513
  3
FINGERPRINTGUID
350
510
  3
HYPERLINKBASE
350
508
  3
INSUNITS
350
50E
  3
LAYOUTDICT
350
50A
  3
LWETCUNION
350
50D
  3
PLOTSETDICT
350
50B
  3
PLOTSTYLNAMDICT
350
50C
  3
PSVPSCALE
350
512
  3
PUCSBASE
350
516
  3
PUCSORGBACK
350
51C
  3
PUCSORGBOTTOM
350
518
  3
PUCSORGFRONT
350
51B
  3
PUCSORGLEFT
350
519
  3
PUCSORGRIGHT
350
51A
  3
PUCSORGTOP
350
517
  3
PUCSORTHOREF
350
514
  3
PUCSORTHOVIEW
350
515
  3
STYLESHEET
350
509
  3
TSTACKALIGN
350
506
  3
TSTACKSIZE
350
507
  3
UCSBASE
350
51F
  3
UCSORGBACK
350
525
  3
UCSORGBOTTOM
350
521
  3
UCSORGFRONT
350
524
  3
UCSORGLEFT
350
522
  3
UCSORGRIGHT
350
523
  3
UCSORGTOP
350
520
  3
UCSORTHOREF
350
51D
  3
UCSORTHOVIEW
350
51E
  3
VERSIONGUID
350
511
  0
DICTIONARY
  5
52E
102
{ACAD_REACTORS
330
35E
102
}
100
AcDbDictionary
  3
DIMASSOC
350
52F
  0
XRECORD
  5
504
102
{ACAD_REACTORS
330
503
102
}
100
AcDbXrecord
102
EXTNAMES
  1
*ACTIVE
  2
*Active
102
UCS
 74
     0
 71
     0
 10
0.0
 20
0.0
 30
0.0
 10
1.0
 20
0.0
 30
0.0
 10
0.0
 20
1.0
 30
0.0
146
0.0
 79
     0
102
VIEW
281
     0
  0
XRECORD
  5
500
102
{ACAD_REACTORS
330
4FF
102
}
100
AcDbXrecord
102
EXTNAMES
  1
BYBLOCK
  2
ByBlock
  0
XRECORD
  5
502
102
{ACAD_REACTORS
330
501
102
}
100
AcDbXrecord
102
EXTNAMES
  1
BYLAYER
  2
ByLayer
  0
XRECORD
  5
52D
102
{ACAD_REACTORS
330
52C
102
}
100
AcDbXrecord
102
ACADR14ROUNDTRIP
1000
DSTYLE
1002
{
1070
   279
 70
     2
1002
}
  0
XRECORD
  5
52B
102
{ACAD_REACTORS
330
4FB
102
}
100
AcDbXrecord
340
370
  0
XRECORD
  5
4FC
102
{ACAD_REACTORS
330
4FB
102
}
100
AcDbXrecord
102
EXTNAMES
  1
*MODEL_SPACE
  2
*Model_Space
  0
XRECORD
  5
52A
102
{ACAD_REACTORS
330
4FD
102
}
100
AcDbXrecord
340
36C
  0
XRECORD
  5
4FE
102
{ACAD_REACTORS
330
4FD
102
}
100
AcDbXrecord
102
EXTNAMES
  1
*PAPER_SPACE
  2
*Paper_Space
  0
DICTIONARY
  5
528
100
AcDbDictionary
280
     1
  3
ACAD_XREC_ROUNDTRIP
360
529
  0
ACAD_PROXY_OBJECT
  5
373
102
{ACAD_REACTORS
330
36B
102
}
100
AcDbProxyObject
 90
      499
 91
      502
 93
      836
310
932433A5C50524F4752414D2046494C45535C4D4454365C706C6F74746572735C526F6C616E64204458592D313235302E7063332C01AAAAAAAAA5A69054D6F64656C901A800000000000000000000000000000000000000000000A1000000000000008902A6A6AAAAF
330
370
330
0
340
0
340
0
 94
        0
  0
ACAD_PROXY_OBJECT
  5
36F
102
{ACAD_REACTORS
330
36B
102
}
100
AcDbProxyObject
 90
      499
 91
      502
 93
     1244
310
932433A5C50524F4752414D2046494C45535C4D4454365C706C6F74746572735C526F6C616E64204458592D313235302E7063332C00AAAAAA416AA59106906DAB2B1B3C431406A800000000000000000000000000000000000000000101E900000000000241C902A6A6A10232D5E076BC5510408CB5781DAF154410232D5E0
310
76BC5510408CB5781DAF15C410232D5E076BC5710408CB5781DAF15C46
330
36C
330
0
340
0
340
0
 94
        0
  0
DICTIONARY
  5
526
100
AcDbDictionary
280
     1
  3
ACAD_XREC_ROUNDTRIP
360
527
  0
MLINESTYLE
  5
369
102
{ACAD_REACTORS
330
368
102
}
100
AcDbMlineStyle
  2
STANDARD
 70
     0
  3

 62
   256
 51
90.0
 52
90.0
 71
     2
 49
0.5
 62
   256
  6
BYLAYER
 49
-0.5
 62
   256
  6
BYLAYER
  0
ACAD_PROXY_OBJECT
  5
361
102
{ACAD_REACTORS
330
360
102
}
100
AcDbProxyObject
 90
      499
 91
      501
 93
        0
 94
        0
  0
XRECORD
  5
50F
102
{ACAD_REACTORS
330
505
102
}
100
AcDbXrecord
 90
        0
  0
XRECORD
  5
513
102
{ACAD_REACTORS
330
505
102
}
100
AcDbXrecord
1000
DSTYLE
1002
{
1070
   341
340
387
1070
   343
340
387
1070
   344
340
381
1002
}
  0
XRECORD
  5
510
102
{ACAD_REACTORS
330
505
102
}
100
AcDbXrecord
  1
{150436CA-B842-4281-B320-BD4173E05768}
  0
XRECORD
  5
508
102
{ACAD_REACTORS
330
505
102
}
100
AcDbXrecord
  1

  0
XRECORD
  5
50E
102
{ACAD_REACTORS
330
505
102
}
100
AcDbXrecord
 90
        0
  0
XRECORD
  5
50A
102
{ACAD_REACTORS
330
505
102
}
100
AcDbXrecord
340
36B
  0
XRECORD
  5
50D
102
{ACAD_REACTORS
330
505
102
}
100
AcDbXrecord
 90
    10781
  0
XRECORD
  5
50B
102
{ACAD_REACTORS
330
505
102
}
100
AcDbXrecord
340
36A
  0
XRECORD
  5
50C
102
{ACAD_REACTORS
330
505
102
}
100
AcDbXrecord
340
360
  0
XRECORD
  5
512
102
{ACAD_REACTORS
330
505
102
}
100
AcDbXrecord
 40
0.0
  0
XRECORD
  5
516
102
{ACAD_REACTORS
330
505
102
}
100
AcDbXrecord
340
0
  0
XRECORD
  5
51C
102
{ACAD_REACTORS
330
505
102
}
100
AcDbXrecord
 10
0.0
 20
0.0
 30
0.0
  0
XRECORD
  5
518
102
{ACAD_REACTORS
330
505
102
}
100
AcDbXrecord
 10
0.0
 20
0.0
 30
0.0
  0
XRECORD
  5
51B
102
{ACAD_REACTORS
330
505
102
}
100
AcDbXrecord
 10
0.0
 20
0.0
 30
0.0
  0
XRECORD
  5
519
102
{ACAD_REACTORS
330
505
102
}
100
AcDbXrecord
 10
0.0
 20
0.0
 30
0.0
  0
XRECORD
  5
51A
102
{ACAD_REACTORS
330
505
102
}
100
AcDbXrecord
 10
0.0
 20
0.0
 30
0.0
  0
XRECORD
  5
517
102
{ACAD_REACTORS
330
505
102
}
100
AcDbXrecord
 10
0.0
 20
0.0
 30
0.0
  0
XRECORD
  5
514
102
{ACAD_REACTORS
330
505
102
}
100
AcDbXrecord
340
0
  0
XRECORD
  5
515
102
{ACAD_REACTORS
330
505
102
}
100
AcDbXrecord
 70
     0
  0
XRECORD
  5
509
102
{ACAD_REACTORS
330
505
102
}
100
AcDbXrecord
  1

  0
XRECORD
  5
506
102
{ACAD_REACTORS
330
505
102
}
100
AcDbXrecord
 90
        1
  0
XRECORD
  5
507
102
{ACAD_REACTORS
330
505
102
}
100
AcDbXrecord
 90
       70
  0
XRECORD
  5
51F
102
{ACAD_REACTORS
330
505
102
}
100
AcDbXrecord
340
0
  0
XRECORD
  5
525
102
{ACAD_REACTORS
330
505
102
}
100
AcDbXrecord
 10
0.0
 20
0.0
 30
0.0
  0
XRECORD
  5
521
102
{ACAD_REACTORS
330
505
102
}
100
AcDbXrecord
 10
0.0
 20
0.0
 30
0.0
  0
XRECORD
  5
524
102
{ACAD_REACTORS
330
505
102
}
100
AcDbXrecord
 10
0.0
 20
0.0
 30
0.0
  0
XRECORD
  5
522
102
{ACAD_REACTORS
330
505
102
}
100
AcDbXrecord
 10
0.0
 20
0.0
 30
0.0
  0
XRECORD
  5
523
102
{ACAD_REACTORS
330
505
102
}
100
AcDbXrecord
 10
0.0
 20
0.0
 30
0.0
  0
XRECORD
  5
520
102
{ACAD_REACTORS
330
505
102
}
100
AcDbXrecord
 10
0.0
 20
0.0
 30
0.0
  0
XRECORD
  5
51D
102
{ACAD_REACTORS
330
505
102
}
100
AcDbXrecord
340
0
  0
XRECORD
  5
51E
102
{ACAD_REACTORS
330
505
102
}
100
AcDbXrecord
 70
     0
  0
XRECORD
  5
511
102
{ACAD_REACTORS
330
505
102
}
100
AcDbXrecord
  1
{A982B756-5EC5-4FFF-9D7C-82A7B3711B26}
  0
DICTIONARYVAR
  5
52F
102
{ACAD_REACTORS
330
52E
102
}
100
DictionaryVariables
280
     0
  1
1
  0
XRECORD
  5
529
102
{ACAD_REACTORS
330
528
102
}
100
AcDbXrecord
102
EXTNAMES
  1
MODEL
  2
Model
  0
XRECORD
  5
527
102
{ACAD_REACTORS
330
526
102
}
100
AcDbXrecord
102
EXTNAMES
  1
STANDARD
  2
Standard
  0
ENDSEC
  0
EOF
