  0
SECTION
  2
HEADER
  9
$ACADVER
  1
AC1014
  9
$ACADMAINTVER
 70
     0
  9
$DWGCODEPAGE
  3
ANSI_932
  9
$INSBASE
 10
0.0
 20
0.0
 30
0.0
  9
$EXTMIN
 10
189.511482
 20
169.954845
 30
0.0
  9
$EXTMAX
 10
434.422566
 20
263.972572
 30
0.0
  9
$LIMMIN
 10
0.0
 20
0.0
  9
$LIMMAX
 10
594.0
 20
420.0
  9
$ORTHOMODE
 70
     1
  9
$REGENMODE
 70
     1
  9
$FILLMODE
 70
     1
  9
$QTEXTMODE
 70
     0
  9
$MIRRTEXT
 70
     1
  9
$DRAGMODE
 70
     2
  9
$LTSCALE
 40
0.25
  9
$OSMODE
 70
    37
  9
$ATTMODE
 70
     1
  9
$TEXTSIZE
 40
4.0
  9
$TRACEWID
 40
1.0
  9
$TEXTSTYLE
  7
STANDARD
  9
$CLAYER
  8
0
  9
$CELTYPE
  6
BYLAYER
  9
$CECOLOR
 62
   256
  9
$CELTSCALE
 40
1.0
  9
$DELOBJ
 70
     1
  9
$DISPSILH
 70
     0
  9
$DIMSCALE
 40
2.0
  9
$DIMASZ
 40
3.0
  9
$DIMEXO
 40
1.0
  9
$DIMDLI
 40
0.0
  9
$DIMRND
 40
0.0
  9
$DIMDLE
 40
0.0
  9
$DIMEXE
 40
1.0
  9
$DIMTP
 40
0.1
  9
$DIMTM
 40
0.0
  9
$DIMTXT
 40
3.2
  9
$DIMCEN
 40
0.0
  9
$DIMTSZ
 40
0.0
  9
$DIMTOL
 70
     0
  9
$DIMLIM
 70
     0
  9
$DIMTIH
 70
     0
  9
$DIMTOH
 70
     0
  9
$DIMSE1
 70
     0
  9
$DIMSE2
 70
     0
  9
$DIMTAD
 70
     0
  9
$DIMZIN
 70
     8
  9
$DIMBLK
  1

  9
$DIMASO
 70
     1
  9
$DIMSHO
 70
     1
  9
$DIMPOST
  1

  9
$DIMAPOST
  1

  9
$DIMALT
 70
     0
  9
$DIMALTD
 70
     2
  9
$DIMALTF
 40
0.04
  9
$DIMLFAC
 40
1.0
  9
$DIMTOFL
 70
     1
  9
$DIMTVP
 40
1.0
  9
$DIMTIX
 70
     1
  9
$DIMSOXD
 70
     0
  9
$DIMSAH
 70
     1
  9
$DIMBLK1
  1
DOT
  9
$DIMBLK2
  1
ARROW
  9
$DIMSTYLE
  2
DA1
  9
$DIMCLRD
 70
     0
  9
$DIMCLRE
 70
     0
  9
$DIMCLRT
 70
     0
  9
$DIMTFAC
 40
0.6
  9
$DIMGAP
 40
0.0
  9
$DIMJUST
 70
     0
  9
$DIMSD1
 70
     0
  9
$DIMSD2
 70
     0
  9
$DIMTOLJ
 70
     1
  9
$DIMTZIN
 70
     0
  9
$DIMALTZ
 70
     0
  9
$DIMALTTZ
 70
     0
  9
$DIMFIT
 70
     3
  9
$DIMUPT
 70
     0
  9
$DIMUNIT
 70
     2
  9
$DIMDEC
 70
     4
  9
$DIMTDEC
 70
     4
  9
$DIMALTU
 70
     2
  9
$DIMALTTD
 70
     2
  9
$DIMTXSTY
  7
STANDARD
  9
$DIMAUNIT
 70
     0
  9
$LUNITS
 70
     2
  9
$LUPREC
 70
     2
  9
$SKETCHINC
 40
1.0
  9
$FILLETRAD
 40
10.0
  9
$AUNITS
 70
     0
  9
$AUPREC
 70
     0
  9
$MENU
  1
acad
  9
$ELEVATION
 40
0.0
  9
$PELEVATION
 40
0.0
  9
$THICKNESS
 40
0.0
  9
$LIMCHECK
 70
     0
  9
$BLIPMODE
 70
     0
  9
$CHAMFERA
 40
0.0
  9
$CHAMFERB
 40
0.0
  9
$CHAMFERC
 40
0.0
  9
$CHAMFERD
 40
0.0
  9
$SKPOLY
 70
     0
  9
$TDCREATE
 40
2451466.814432870
  9
$TDUPDATE
 40
2452821.793048379
  9
$TDINDWG
 40
0.0089635995
  9
$TDUSRTIMER
 40
0.0089635995
  9
$USRTIMER
 70
     1
  9
$ANGBASE
 50
0.0
  9
$ANGDIR
 70
     0
  9
$PDMODE
 70
     1
  9
$PDSIZE
 40
0.0
  9
$PLINEWID
 40
0.0
  9
$COORDS
 70
     1
  9
$SPLFRAME
 70
     0
  9
$SPLINETYPE
 70
     6
  9
$SPLINESEGS
 70
     8
  9
$ATTDIA
 70
     0
  9
$ATTREQ
 70
     1
  9
$HANDLING
 70
     1
  9
$HANDSEED
  5
533
  9
$SURFTAB1
 70
     6
  9
$SURFTAB2
 70
     6
  9
$SURFTYPE
 70
     6
  9
$SURFU
 70
     6
  9
$SURFV
 70
     6
  9
$UCSNAME
  2

  9
$UCSORG
 10
0.0
 20
0.0
 30
0.0
  9
$UCSXDIR
 10
1.0
 20
0.0
 30
0.0
  9
$UCSYDIR
 10
0.0
 20
1.0
 30
0.0
  9
$PUCSNAME
  2

  9
$PUCSORG
 10
0.0
 20
0.0
 30
0.0
  9
$PUCSXDIR
 10
1.0
 20
0.0
 30
0.0
  9
$PUCSYDIR
 10
0.0
 20
1.0
 30
0.0
  9
$USERI1
 70
     0
  9
$USERI2
 70
     0
  9
$USERI3
 70
     0
  9
$USERI4
 70
     0
  9
$USERI5
 70
     0
  9
$USERR1
 40
0.0
  9
$USERR2
 40
0.0
  9
$USERR3
 40
0.0
  9
$USERR4
 40
0.0
  9
$USERR5
 40
0.0
  9
$WORLDVIEW
 70
     1
  9
$SHADEDGE
 70
     3
  9
$SHADEDIF
 70
    70
  9
$TILEMODE
 70
     1
  9
$MAXACTVP
 70
    16
  9
$PINSBASE
 10
0.0
 20
0.0
 30
0.0
  9
$PLIMCHECK
 70
     0
  9
$PEXTMIN
 10
1.000000E+20
 20
1.000000E+20
 30
1.000000E+20
  9
$PEXTMAX
 10
-1.000000E+20
 20
-1.000000E+20
 30
-1.000000E+20
  9
$PLIMMIN
 10
0.0
 20
0.0
  9
$PLIMMAX
 10
420.0
 20
297.0
  9
$UNITMODE
 70
     0
  9
$VISRETAIN
 70
     0
  9
$PLINEGEN
 70
     0
  9
$PSLTSCALE
 70
     0
  9
$TREEDEPTH
 70
  3020
  9
$PICKSTYLE
 70
     1
  9
$CMLSTYLE
  2
STANDARD
  9
$CMLJUST
 70
     0
  9
$CMLSCALE
 40
1.0
  9
$PROXYGRAPHICS
 70
     1
  9
$MEASUREMENT
 70
     0
  0
ENDSEC
  0
SECTION
  2
CLASSES
  0
CLASS
  1
ACDBDICTIONARYWDFLT
  2
AcDbDictionaryWithDefault
  3
AutoCAD 2000
 90
        0
280
     0
281
     0
  0
CLASS
  1
ACDBPLACEHOLDER
  2
AcDbPlaceHolder
  3
AutoCAD 2000
 90
        0
280
     0
281
     0
  0
CLASS
  1
LAYOUT
  2
AcDbLayout
  3
AutoCAD 2000
 90
        0
280
     0
281
     0
  0
CLASS
  1
DICTIONARYVAR
  2
AcDbDictionaryVar
  3
"AutoCAD"
 90
        0
280
     0
281
     0
  0
CLASS
  1
LONG_TRANSACTION
  2
AcDbLongTransaction
  3
AutoCAD 2000
 90
        0
280
     0
281
     0
  0
CLASS
  1
LWPOLYLINE
  2
AcDbPolyline
  3
"AutoCAD"
 90
        0
280
     0
281
     1
  0
CLASS
  1
HATCH
  2
AcDbHatch
  3
"ACAD_SEDONA"
 90
        0
280
     0
281
     1
  0
CLASS
  1
XRECORD
  2
AcDbXrecord
  3
"<Built In>"
 90
        0
280
     0
281
     0
  0
ENDSEC
  0
SECTION
  2
TABLES
  0
TABLE
  2
VPORT
  5
35A
100
AcDbSymbolTable
 70
     1
  0
VPORT
  5
4FA
102
{ACAD_XDICTIONARY
360
503
102
}
100
AcDbSymbolTableRecord
100
AcDbViewportTableRecord
  2
*ACTIVE
 70
     0
 10
0.0
 20
0.0
 11
1.0
 21
1.0
 12
227.209352
 22
150.544184
 13
0.0
 23
0.0
 14
10.0
 24
10.0
 15
0.0
 25
0.0
 16
0.0
 26
0.0
 36
1.0
 17
0.0
 27
0.0
 37
0.0
 40
265.164476
 41
1.570997
 42
50.0
 43
0.0
 44
0.0
 50
0.0
 51
0.0
 71
     0
 72
   100
 73
     1
 74
     0
 75
     0
 76
     0
 77
     0
 78
     1
  0
ENDTAB
  0
TABLE
  2
LTYPE
  5
357
100
AcDbSymbolTable
 70
     3
  0
LTYPE
  5
365
102
{ACAD_XDICTIONARY
360
4FF
102
}
100
AcDbSymbolTableRecord
100
AcDbLinetypeTableRecord
  2
BYBLOCK
 70
     0
  3

 72
    65
 73
     0
 40
0.0
  0
LTYPE
  5
366
102
{ACAD_XDICTIONARY
360
501
102
}
100
AcDbSymbolTableRecord
100
AcDbLinetypeTableRecord
  2
BYLAYER
 70
     0
  3

 72
    65
 73
     0
 40
0.0
  0
LTYPE
  5
367
100
AcDbSymbolTableRecord
100
AcDbLinetypeTableRecord
  2
CONTINUOUS
 70
     0
  3
Solid line
 72
    65
 73
     0
 40
0.0
  0
LTYPE
  5
375
100
AcDbSymbolTableRecord
100
AcDbLinetypeTableRecord
  2
CENTER
 70
     0
  3
____ _ ____ _ ____ _ ____ _ ____ _ ____ _ ____ 
 72
    65
 73
     4
 40
50.8
 49
31.75
 74
     0
 49
-6.35
 74
     0
 49
6.35
 74
     0
 49
-6.35
 74
     0
  0
LTYPE
  5
376
100
AcDbSymbolTableRecord
100
AcDbLinetypeTableRecord
  2
DASHED
 70
     0
  3
Dashed __ __ __ __ __ __ __ __ __ __ __ __ __ _
 72
    65
 73
     2
 40
0.75
 49
0.5
 74
     0
 49
-0.25
 74
     0
  0
ENDTAB
  0
TABLE
  2
LAYER
  5
354
100
AcDbSymbolTable
 70
     3
  0
LAYER
  5
362
100
AcDbSymbolTableRecord
100
AcDbLayerTableRecord
  2
0
 70
     0
 62
     7
  6
CONTINUOUS
  0
LAYER
  5
377
100
AcDbSymbolTableRecord
100
AcDbLayerTableRecord
  2
DIMENSION
 70
     0
 62
    -4
  6
CONTINUOUS
  0
LAYER
  5
378
100
AcDbSymbolTableRecord
100
AcDbLayerTableRecord
  2
CENTER
 70
     0
 62
     1
  6
CENTER
  0
ENDTAB
  0
TABLE
  2
STYLE
  5
355
100
AcDbSymbolTable
 70
     1
  0
STYLE
  5
363
100
AcDbSymbolTableRecord
100
AcDbTextStyleTableRecord
  2
STANDARD
 70
     0
 40
0.0
 41
1.0
 50
0.0
 71
     0
 42
4.0
  3
txt
  4

  0
ENDTAB
  0
TABLE
  2
VIEW
  5
358
100
AcDbSymbolTable
 70
     0
  0
ENDTAB
  0
TABLE
  2
UCS
  5
359
100
AcDbSymbolTable
 70
     0
  0
ENDTAB
  0
TABLE
  2
APPID
  5
35B
100
AcDbSymbolTable
 70
     1
  0
APPID
  5
364
100
AcDbSymbolTableRecord
100
AcDbRegAppTableRecord
  2
ACAD
 70
     0
  0
ENDTAB
  0
TABLE
  2
DIMSTYLE
  5
35C
100
AcDbSymbolTable
 70
     1
  0
DIMSTYLE
105
379
102
{ACAD_XDICTIONARY
360
52C
102
}
100
AcDbSymbolTableRecord
100
AcDbDimStyleTableRecord
  2
DA1
 70
     0
  3

  4

  5

  6

  7

 40
1.0
 41
3.0
 42
1.0
 43
0.0
 44
1.0
 45
0.0
 46
0.0
 47
0.0
 48
0.0
140
3.2
141
0.0
142
0.0
143
0.04
144
1.0
145
1.0
146
0.6
147
0.0
 71
     0
 72
     0
 73
     0
 74
     0
 75
     0
 76
     0
 77
     0
 78
     8
170
     0
171
     2
172
     1
173
     1
174
     1
175
     0
176
     0
177
     0
178
     0
270
     2
271
     2
272
     2
273
     2
274
     2
340
363
275
     0
280
     0
281
     0
282
     0
283
     1
284
     8
285
     8
286
     8
287
     5
288
     0
  0
ENDTAB
  0
TABLE
  2
BLOCK_RECORD
  5
353
100
AcDbSymbolTable
 70
     4
  0
BLOCK_RECORD
  5
370
102
{ACAD_XDICTIONARY
360
4FB
102
}
100
AcDbSymbolTableRecord
100
AcDbBlockTableRecord
  2
*MODEL_SPACE
  0
BLOCK_RECORD
  5
36C
102
{ACAD_XDICTIONARY
360
4FD
102
}
100
AcDbSymbolTableRecord
100
AcDbBlockTableRecord
  2
*PAPER_SPACE
  0
BLOCK_RECORD
  5
37B
100
AcDbSymbolTableRecord
100
AcDbBlockTableRecord
  2
$MODEL_SPACE
  0
BLOCK_RECORD
  5
37E
100
AcDbSymbolTableRecord
100
AcDbBlockTableRecord
  2
$PAPER_SPACE
  0
BLOCK_RECORD
  5
381
100
AcDbSymbolTableRecord
100
AcDbBlockTableRecord
  2
ARROW
  0
BLOCK_RECORD
  5
387
100
AcDbSymbolTableRecord
100
AcDbBlockTableRecord
  2
DOT
  0
ENDTAB
  0
ENDSEC
  0
SECTION
  2
BLOCKS
  0
BLOCK
  5
371
100
AcDbEntity
  8
0
100
AcDbBlockBegin
  2
*MODEL_SPACE
 70
     0
 10
0.0
 20
0.0
 30
0.0
  3
*MODEL_SPACE
  1

  0
ENDBLK
  5
372
100
AcDbEntity
  8
0
100
AcDbBlockEnd
  0
BLOCK
  5
36D
100
AcDbEntity
 67
     1
  8
0
100
AcDbBlockBegin
  2
*PAPER_SPACE
 70
     0
 10
0.0
 20
0.0
 30
0.0
  3
*PAPER_SPACE
  1

  0
ENDBLK
  5
36E
100
AcDbEntity
 67
     1
  8
0
100
AcDbBlockEnd
  0
BLOCK
  5
37C
100
AcDbEntity
  8
0
100
AcDbBlockBegin
  2
$MODEL_SPACE
 70
     0
 10
0.0
 20
0.0
 30
0.0
  3
$MODEL_SPACE
  1

  0
ENDBLK
  5
37D
100
AcDbEntity
  8
0
100
AcDbBlockEnd
  0
BLOCK
  5
37F
100
AcDbEntity
  8
0
100
AcDbBlockBegin
  2
$PAPER_SPACE
 70
     0
 10
0.0
 20
0.0
 30
0.0
  3
$PAPER_SPACE
  1

  0
ENDBLK
  5
380
100
AcDbEntity
  8
0
100
AcDbBlockEnd
  0
BLOCK
  5
382
100
AcDbEntity
  8
0
100
AcDbBlockBegin
  2
ARROW
 70
     0
 10
0.0
 20
0.0
 30
0.0
  3
ARROW
  1

  0
LINE
  5
383
100
AcDbEntity
  8
DIMENSION
100
AcDbLine
 10
0.0
 20
0.0
 30
0.0
 11
-1.0
 21
0.176327
 31
0.0
  0
LINE
  5
384
100
AcDbEntity
  8
DIMENSION
100
AcDbLine
 10
0.0
 20
0.0
 30
0.0
 11
-1.0
 21
-0.176327
 31
0.0
  0
LINE
  5
385
100
AcDbEntity
  8
DIMENSION
100
AcDbLine
 10
-1.0
 20
0.0
 30
0.0
 11
0.0
 21
0.0
 31
0.0
  0
ENDBLK
  5
386
100
AcDbEntity
  8
0
100
AcDbBlockEnd
  0
BLOCK
  5
388
100
AcDbEntity
  8
0
100
AcDbBlockBegin
  2
DOT
 70
     0
 10
0.0
 20
0.0
 30
0.0
  3
DOT
  1
DOT2
  0
LWPOLYLINE
  5
389
100
AcDbEntity
  8
DIMENSION
100
AcDbPolyline
 90
        2
 70
     1
 43
0.165
 10
-0.082512
 20
0.000018
 42
1.0
 10
0.082488
 20
0.000018
 42
1.0
  0
LINE
  5
38D
100
AcDbEntity
  8
DIMENSION
100
AcDbLine
 10
-0.000012
 20
0.000018
 30
0.0
 11
-1.000012
 21
0.000018
 31
0.0
  0
ENDBLK
  5
38E
100
AcDbEntity
  8
0
100
AcDbBlockEnd
  0
ENDSEC
  0
SECTION
  2
ENTITIES
  0
LINE
  5
38F
100
AcDbEntity
  8
0
100
AcDbLine
 10
211.168088
 20
196.963709
 30
0.0
 11
211.168088
 21
236.963709
 31
0.0
  0
LINE
  5
390
100
AcDbEntity
  8
0
100
AcDbLine
 10
197.218088
 20
239.213709
 30
0.0
 11
197.218088
 21
194.713709
 31
0.0
  0
LINE
  5
391
100
AcDbEntity
  8
0
100
AcDbLine
 10
199.168088
 20
239.213709
 30
0.0
 11
199.168088
 21
194.713709
 31
0.0
  0
LINE
  5
392
100
AcDbEntity
  8
0
100
AcDbLine
 10
253.218088
 20
239.213709
 30
0.0
 11
253.218088
 21
194.713709
 31
0.0
  0
LINE
  5
393
100
AcDbEntity
  8
0
100
AcDbLine
 10
251.268088
 20
239.213709
 30
0.0
 11
251.268088
 21
194.713709
 31
0.0
  0
LINE
  5
394
100
AcDbEntity
  8
0
100
AcDbLine
 10
239.268088
 20
196.963709
 30
0.0
 11
239.268088
 21
236.963709
 31
0.0
  0
LINE
  5
395
100
AcDbEntity
  8
0
100
AcDbLine
 10
255.218088
 20
191.963709
 30
0.0
 11
255.218088
 21
241.963709
 31
0.0
  0
LINE
  5
396
100
AcDbEntity
  8
0
100
AcDbLine
 10
195.218088
 20
191.963709
 30
0.0
 11
195.218088
 21
241.963709
 31
0.0
  0
LINE
  5
399
100
AcDbEntity
  8
0
100
AcDbLine
 10
210.168088
 20
206.963709
 30
0.0
 11
200.168088
 21
206.963709
 31
0.0
  0
CIRCLE
  5
39A
100
AcDbEntity
  8
0
100
AcDbCircle
 10
205.168088
 20
201.213709
 30
0.0
 40
3.175
  0
LINE
  5
39B
100
AcDbEntity
  8
0
100
AcDbLine
 10
210.168088
 20
195.963709
 30
0.0
 11
199.168088
 21
195.963709
 31
0.0
  0
LINE
  5
39C
100
AcDbEntity
  8
0
100
AcDbLine
 10
195.218088
 20
191.963709
 30
0.0
 11
215.218088
 21
191.963709
 31
0.0
  0
LINE
  5
39D
100
AcDbEntity
  8
0
100
AcDbLine
 10
199.801088
 20
200.163589
 30
0.0
 11
199.801088
 21
203.363719
 31
0.0
  0
LINE
  5
39E
100
AcDbEntity
  8
0
100
AcDbLine
 10
199.601088
 20
200.080619
 30
0.0
 11
199.601088
 21
203.363729
 31
0.0
  0
LINE
  5
39F
100
AcDbEntity
  8
0
100
AcDbLine
 10
199.168088
 20
198.713709
 30
0.0
 11
197.218088
 21
198.713709
 31
0.0
  0
LINE
  5
3A0
100
AcDbEntity
  8
0
100
AcDbLine
 10
199.168088
 20
194.713709
 30
0.0
 11
197.218088
 21
194.713709
 31
0.0
  0
LINE
  5
3A1
100
AcDbEntity
  8
0
100
AcDbLine
 10
197.218088
 20
195.963709
 30
0.0
 11
195.218088
 21
195.963709
 31
0.0
  0
ARC
  5
3A2
100
AcDbEntity
  8
0
100
AcDbCircle
 10
199.268088
 20
198.463719
 30
0.0
 40
0.1
100
AcDbArc
 50
90.0
 51
180.0
  0
LINE
  5
3A3
100
AcDbEntity
  8
0
100
AcDbLine
 10
199.268088
 20
198.563719
 30
0.0
 11
199.728138
 21
198.563719
 31
0.0
  0
ARC
  5
3A4
100
AcDbEntity
  8
0
100
AcDbCircle
 10
199.88134
 20
198.692285
 30
0.0
 40
0.2
100
AcDbArc
 50
129.91738
 51
219.998032
  0
LINE
  5
3A5
100
AcDbEntity
  8
0
100
AcDbLine
 10
199.906106
 20
198.973772
 30
0.0
 11
200.034095
 21
198.820784
 31
0.0
  0
LINE
  5
3A6
100
AcDbEntity
  8
0
100
AcDbLine
 10
200.034095
 20
198.820784
 30
0.0
 11
199.881093
 21
198.692763
 31
0.0
  0
LINE
  5
3A7
100
AcDbEntity
  8
0
100
AcDbLine
 10
199.881093
 20
198.692763
 30
0.0
 11
200.131418
 21
198.394435
 31
0.0
  0
ARC
  5
3A8
100
AcDbEntity
  8
0
100
AcDbCircle
 10
200.207552
 20
198.459072
 30
0.0
 40
0.3
100
AcDbArc
 50
219.998032
 51
355.003307
  0
ARC
  5
3A9
100
AcDbEntity
  8
0
100
AcDbCircle
 10
200.208022
 20
198.458714
 30
0.0
 40
0.1
100
AcDbArc
 50
219.999779
 51
357.180215
  0
LINE
  5
3AA
100
AcDbEntity
  8
0
100
AcDbLine
 10
200.551088
 20
198.943719
 30
0.0
 11
200.551088
 21
199.413559
 31
0.0
  0
LINE
  5
3AB
100
AcDbEntity
  8
0
100
AcDbLine
 10
200.307901
 20
198.453794
 30
0.0
 11
200.351089
 21
199.330628
 31
0.0
  0
LINE
  5
3AC
100
AcDbEntity
  8
0
100
AcDbLine
 10
200.506412
 20
198.432943
 30
0.0
 11
200.571065
 21
199.172419
 31
0.0
  0
ARC
  5
3AD
100
AcDbEntity
  8
0
100
AcDbCircle
 10
200.670685
 20
199.163709
 30
0.0
 40
0.1
100
AcDbArc
 50
90.0
 51
175.003307
  0
LINE
  5
3AE
100
AcDbEntity
  8
0
100
AcDbLine
 10
200.670685
 20
199.263709
 30
0.0
 11
202.662469
 21
199.263709
 31
0.0
  0
LINE
  5
3AF
100
AcDbEntity
  8
0
100
AcDbLine
 10
200.551088
 20
199.413559
 30
0.0
 11
199.801088
 21
200.163589
 31
0.0
  0
LINE
  5
3B0
100
AcDbEntity
  8
0
100
AcDbLine
 10
200.351089
 20
199.330628
 30
0.0
 11
199.601088
 21
200.080619
 31
0.0
  0
LINE
  5
3B1
100
AcDbEntity
  8
0
100
AcDbLine
 10
199.728126
 20
198.563733
 30
0.0
 11
199.977732
 21
198.266244
 31
0.0
  0
ARC
  5
3B2
100
AcDbEntity
  8
0
100
AcDbCircle
 10
200.168088
 20
196.963709
 30
0.0
 40
1.0
100
AcDbArc
 50
180.0
 51
270.0
  0
LINE
  5
3B3
100
AcDbEntity
  8
0
100
AcDbLine
 10
199.906106
 20
198.973772
 30
0.0
 11
199.753003
 21
198.845679
 31
0.0
  0
ARC
  5
3B4
100
AcDbEntity
  8
0
100
AcDbCircle
 10
199.368088
 20
203.963729
 30
0.0
 40
0.2
100
AcDbArc
 50
180.0
 51
270.0
  0
LINE
  5
3B5
100
AcDbEntity
  8
0
100
AcDbLine
 10
199.368088
 20
203.763729
 30
0.0
 11
199.66807
 21
203.763729
 31
0.0
  0
ARC
  5
3B6
100
AcDbEntity
  8
0
100
AcDbCircle
 10
199.801088
 20
203.363729
 30
0.0
 40
0.2
100
AcDbArc
 50
90.0
 51
180.0
  0
ARC
  5
3B7
100
AcDbEntity
  8
0
100
AcDbCircle
 10
200.162003
 20
203.963719
 30
0.0
 40
0.2
100
AcDbArc
 50
20.008605
 51
90.0
  0
LINE
  5
3B8
100
AcDbEntity
  8
0
100
AcDbLine
 10
200.251088
 20
203.563729
 30
0.0
 11
200.251088
 21
203.363719
 31
0.0
  0
LINE
  5
3B9
100
AcDbEntity
  8
0
100
AcDbLine
 10
200.349932
 20
204.032151
 30
0.0
 11
200.618254
 21
203.295286
 31
0.0
  0
ARC
  5
3BA
100
AcDbEntity
  8
0
100
AcDbCircle
 10
200.096909
 20
203.963719
 30
0.0
 40
0.2
100
AcDbArc
 50
90.0
 51
140.005496
  0
LINE
  5
3BB
100
AcDbEntity
  8
0
100
AcDbLine
 10
200.096909
 20
204.163719
 30
0.0
 11
200.162003
 21
204.163719
 31
0.0
  0
ARC
  5
3BC
100
AcDbEntity
  8
0
100
AcDbCircle
 10
200.806182
 20
203.363719
 30
0.0
 40
0.2
100
AcDbArc
 50
200.008605
 51
270.0
  0
LINE
  5
3BD
100
AcDbEntity
  8
0
100
AcDbLine
 10
200.806182
 20
203.163719
 30
0.0
 11
202.662477
 21
203.163719
 31
0.0
  0
ARC
  5
3BE
100
AcDbEntity
  8
0
100
AcDbCircle
 10
200.168088
 20
205.963709
 30
0.0
 40
1.0
100
AcDbArc
 50
90.0
 51
180.0
  0
LINE
  5
3BF
100
AcDbEntity
  8
0
100
AcDbLine
 10
200.251088
 20
203.363719
 30
0.0
 11
199.801088
 21
203.363719
 31
0.0
  0
LINE
  5
3C0
100
AcDbEntity
  8
0
100
AcDbLine
 10
199.801088
 20
203.563729
 30
0.0
 11
200.251088
 21
203.563729
 31
0.0
  0
LINE
  5
3C1
100
AcDbEntity
  8
0
100
AcDbLine
 10
199.66807
 20
203.763729
 30
0.0
 11
199.943688
 21
204.092262
 31
0.0
  0
LINE
  5
3C2
100
AcDbEntity
  8
0
100
AcDbLine
 10
226.218088
 20
191.963709
 30
0.0
 11
255.218088
 21
191.963709
 31
0.0
  0
LINE
  5
3C3
100
AcDbEntity
  8
0
100
AcDbLine
 10
250.530071
 20
198.973772
 30
0.0
 11
250.683173
 21
198.845679
 31
0.0
  0
ARC
  5
3C4
100
AcDbEntity
  8
0
100
AcDbCircle
 10
250.268088
 20
196.963709
 30
0.0
 40
1.0
100
AcDbArc
 50
270.0
 51
360.0
  0
LINE
  5
3C5
100
AcDbEntity
  8
0
100
AcDbLine
 10
250.70805
 20
198.563733
 30
0.0
 11
250.458444
 21
198.266244
 31
0.0
  0
LINE
  5
3C6
100
AcDbEntity
  8
0
100
AcDbLine
 10
250.085087
 20
199.330628
 30
0.0
 11
250.835088
 21
200.080619
 31
0.0
  0
LINE
  5
3C7
100
AcDbEntity
  8
0
100
AcDbLine
 10
249.885088
 20
199.413559
 30
0.0
 11
250.635088
 21
200.163589
 31
0.0
  0
LINE
  5
3C8
100
AcDbEntity
  8
0
100
AcDbLine
 10
250.768106
 20
203.763729
 30
0.0
 11
250.492488
 21
204.092262
 31
0.0
  0
LINE
  5
3C9
100
AcDbEntity
  8
0
100
AcDbLine
 10
250.635088
 20
203.563729
 30
0.0
 11
250.185088
 21
203.563729
 31
0.0
  0
LINE
  5
3CA
100
AcDbEntity
  8
0
100
AcDbLine
 10
250.185088
 20
203.363719
 30
0.0
 11
250.635088
 21
203.363719
 31
0.0
  0
ARC
  5
3CB
100
AcDbEntity
  8
0
100
AcDbCircle
 10
250.268088
 20
205.963709
 30
0.0
 40
1.0
100
AcDbArc
 50
360.0
 51
90.0
  0
LINE
  5
3CC
100
AcDbEntity
  8
0
100
AcDbLine
 10
240.268088
 20
195.963709
 30
0.0
 11
251.268088
 21
195.963709
 31
0.0
  0
LINE
  5
3CD
100
AcDbEntity
  8
CENTER
  6
CENTER
 62
     1
100
AcDbLine
 10
213.218088
 20
188.963709
 30
0.0
 11
228.218088
 21
188.963709
 31
0.0
  0
LINE
  5
3CE
100
AcDbEntity
  8
0
100
AcDbLine
 10
211.168088
 20
198.963709
 30
0.0
 11
239.268088
 21
198.963709
 31
0.0
  0
LINE
  5
3CF
100
AcDbEntity
  8
0
  6
DASHED
 62
     3
100
AcDbLine
 10
220.118088
 20
183.463709
 30
0.0
 11
220.118088
 21
194.463709
 31
0.0
  0
LINE
  5
3D0
100
AcDbEntity
  8
0
100
AcDbLine
 10
226.218088
 20
178.463709
 30
0.0
 11
226.218088
 21
191.963709
 31
0.0
  0
LINE
  5
3D1
100
AcDbEntity
  8
0
  6
DASHED
 62
     3
100
AcDbLine
 10
220.118088
 20
185.663709
 30
0.0
 11
215.218088
 21
185.663709
 31
0.0
  0
LINE
  5
3D2
100
AcDbEntity
  8
0
  6
DASHED
 62
     3
100
AcDbLine
 10
220.118088
 20
192.263709
 30
0.0
 11
215.218088
 21
192.263709
 31
0.0
  0
LINE
  5
3D3
100
AcDbEntity
  8
0
100
AcDbLine
 10
226.218088
 20
178.463709
 30
0.0
 11
215.218088
 21
178.463709
 31
0.0
  0
LINE
  5
3D4
100
AcDbEntity
  8
0
100
AcDbLine
 10
215.218088
 20
178.463709
 30
0.0
 11
215.218088
 21
191.963709
 31
0.0
  0
LINE
  5
3D5
100
AcDbEntity
  8
0
  6
DASHED
 62
     3
100
AcDbLine
 10
226.218088
 20
183.463709
 30
0.0
 11
220.118088
 21
183.463709
 31
0.0
  0
LINE
  5
3D6
100
AcDbEntity
  8
0
100
AcDbLine
 10
210.735088
 20
200.080619
 30
0.0
 11
210.735088
 21
203.363729
 31
0.0
  0
LINE
  5
3D7
100
AcDbEntity
  8
0
100
AcDbLine
 10
210.535088
 20
200.163589
 30
0.0
 11
210.535088
 21
203.363719
 31
0.0
  0
LINE
  5
3D8
100
AcDbEntity
  8
0
100
AcDbLine
 10
209.985087
 20
199.330628
 30
0.0
 11
210.735088
 21
200.080619
 31
0.0
  0
LINE
  5
3D9
100
AcDbEntity
  8
0
100
AcDbLine
 10
209.785088
 20
199.413559
 30
0.0
 11
210.535088
 21
200.163589
 31
0.0
  0
ARC
  5
3DA
100
AcDbEntity
  8
0
100
AcDbCircle
 10
210.128624
 20
198.459072
 30
0.0
 40
0.3
100
AcDbArc
 50
184.996693
 51
320.001968
  0
LINE
  5
3DB
100
AcDbEntity
  8
0
100
AcDbLine
 10
210.028275
 20
198.453794
 30
0.0
 11
209.985087
 21
199.330628
 31
0.0
  0
LINE
  5
3DC
100
AcDbEntity
  8
0
100
AcDbLine
 10
209.665491
 20
199.263709
 30
0.0
 11
207.673707
 21
199.263709
 31
0.0
  0
ARC
  5
3DD
100
AcDbEntity
  8
0
100
AcDbCircle
 10
209.665491
 20
199.163709
 30
0.0
 40
0.1
100
AcDbArc
 50
4.996693
 51
90.0
  0
LINE
  5
3DE
100
AcDbEntity
  8
0
100
AcDbLine
 10
209.829764
 20
198.432943
 30
0.0
 11
209.765111
 21
199.172419
 31
0.0
  0
LINE
  5
3DF
100
AcDbEntity
  8
0
100
AcDbLine
 10
209.785088
 20
198.943719
 30
0.0
 11
209.785088
 21
199.413559
 31
0.0
  0
ARC
  5
3E0
100
AcDbEntity
  8
0
100
AcDbCircle
 10
210.168088
 20
196.963709
 30
0.0
 40
1.0
100
AcDbArc
 50
270.0
 51
0.0
  0
LINE
  5
3E1
100
AcDbEntity
  8
0
100
AcDbLine
 10
211.068088
 20
198.563719
 30
0.0
 11
210.608038
 21
198.563719
 31
0.0
  0
ARC
  5
3E2
100
AcDbEntity
  8
0
100
AcDbCircle
 10
211.068088
 20
198.463719
 30
0.0
 40
0.1
100
AcDbArc
 50
0.0
 51
90.0
  0
ARC
  5
3E3
100
AcDbEntity
  8
0
100
AcDbCircle
 10
210.128154
 20
198.458714
 30
0.0
 40
0.1
100
AcDbArc
 50
182.819785
 51
320.000221
  0
LINE
  5
3E4
100
AcDbEntity
  8
0
100
AcDbLine
 10
210.60805
 20
198.563733
 30
0.0
 11
210.358444
 21
198.266244
 31
0.0
  0
LINE
  5
3E5
100
AcDbEntity
  8
0
100
AcDbLine
 10
210.430071
 20
198.973772
 30
0.0
 11
210.583173
 21
198.845679
 31
0.0
  0
ARC
  5
3E6
100
AcDbEntity
  8
0
100
AcDbCircle
 10
210.454836
 20
198.692285
 30
0.0
 40
0.2
100
AcDbArc
 50
320.001968
 51
50.08262
  0
LINE
  5
3E7
100
AcDbEntity
  8
0
100
AcDbLine
 10
210.455083
 20
198.692763
 30
0.0
 11
210.204758
 21
198.394435
 31
0.0
  0
LINE
  5
3E8
100
AcDbEntity
  8
0
100
AcDbLine
 10
210.302081
 20
198.820784
 30
0.0
 11
210.455083
 21
198.692763
 31
0.0
  0
LINE
  5
3E9
100
AcDbEntity
  8
0
100
AcDbLine
 10
210.430071
 20
198.973772
 30
0.0
 11
210.302081
 21
198.820784
 31
0.0
  0
ARC
  5
3EA
100
AcDbEntity
  8
0
100
AcDbCircle
 10
210.174173
 20
203.963719
 30
0.0
 40
0.2
100
AcDbArc
 50
90.0
 51
159.991395
  0
ARC
  5
3EB
100
AcDbEntity
  8
0
100
AcDbCircle
 10
209.529994
 20
203.363719
 30
0.0
 40
0.2
100
AcDbArc
 50
270.0
 51
339.991395
  0
LINE
  5
3EC
100
AcDbEntity
  8
0
100
AcDbLine
 10
209.986245
 20
204.032151
 30
0.0
 11
209.717922
 21
203.295286
 31
0.0
  0
LINE
  5
3ED
100
AcDbEntity
  8
0
100
AcDbLine
 10
209.529994
 20
203.163719
 30
0.0
 11
207.673699
 21
203.163719
 31
0.0
  0
LINE
  5
3EE
100
AcDbEntity
  8
0
100
AcDbLine
 10
210.968088
 20
203.763729
 30
0.0
 11
210.668106
 21
203.763729
 31
0.0
  0
ARC
  5
3EF
100
AcDbEntity
  8
0
100
AcDbCircle
 10
210.168088
 20
205.963709
 30
0.0
 40
1.0
100
AcDbArc
 50
0.0
 51
90.0
  0
ARC
  5
3F0
100
AcDbEntity
  8
0
100
AcDbCircle
 10
210.968088
 20
203.963729
 30
0.0
 40
0.2
100
AcDbArc
 50
270.0
 51
0.0
  0
LINE
  5
3F1
100
AcDbEntity
  8
0
100
AcDbLine
 10
210.535088
 20
203.563729
 30
0.0
 11
210.085088
 21
203.563729
 31
0.0
  0
LINE
  5
3F2
100
AcDbEntity
  8
0
100
AcDbLine
 10
210.085088
 20
203.363719
 30
0.0
 11
210.535088
 21
203.363719
 31
0.0
  0
LINE
  5
3F3
100
AcDbEntity
  8
0
100
AcDbLine
 10
210.668106
 20
203.763729
 30
0.0
 11
210.392488
 21
204.092262
 31
0.0
  0
ARC
  5
3F4
100
AcDbEntity
  8
0
100
AcDbCircle
 10
210.535088
 20
203.363729
 30
0.0
 40
0.2
100
AcDbArc
 50
0.0
 51
90.0
  0
ARC
  5
3F5
100
AcDbEntity
  8
0
100
AcDbCircle
 10
210.239267
 20
203.963719
 30
0.0
 40
0.2
100
AcDbArc
 50
39.994504
 51
90.0
  0
LINE
  5
3F6
100
AcDbEntity
  8
0
100
AcDbLine
 10
210.239267
 20
204.163719
 30
0.0
 11
210.174173
 21
204.163719
 31
0.0
  0
LINE
  5
3F7
100
AcDbEntity
  8
0
100
AcDbLine
 10
210.085088
 20
203.563729
 30
0.0
 11
210.085088
 21
203.363719
 31
0.0
  0
LINE
  5
3F8
100
AcDbEntity
  8
0
  6
DASHED
 62
     3
100
AcDbLine
 10
226.218088
 20
194.463709
 30
0.0
 11
220.118088
 21
194.463709
 31
0.0
  0
LINE
  5
3F9
100
AcDbEntity
  8
0
100
AcDbLine
 10
239.901088
 20
200.163589
 30
0.0
 11
239.901088
 21
203.363719
 31
0.0
  0
LINE
  5
3FA
100
AcDbEntity
  8
0
100
AcDbLine
 10
239.701088
 20
200.080619
 30
0.0
 11
239.701088
 21
203.363729
 31
0.0
  0
CIRCLE
  5
3FB
100
AcDbEntity
  8
0
100
AcDbCircle
 10
245.268088
 20
201.213709
 30
0.0
 40
3.175
  0
LINE
  5
3FC
100
AcDbEntity
  8
0
100
AcDbLine
 10
240.651088
 20
198.943719
 30
0.0
 11
240.651088
 21
199.413559
 31
0.0
  0
LINE
  5
3FD
100
AcDbEntity
  8
0
100
AcDbLine
 10
240.407901
 20
198.453794
 30
0.0
 11
240.451089
 21
199.330628
 31
0.0
  0
LINE
  5
3FE
100
AcDbEntity
  8
0
100
AcDbLine
 10
240.606412
 20
198.432943
 30
0.0
 11
240.671065
 21
199.172419
 31
0.0
  0
ARC
  5
3FF
100
AcDbEntity
  8
0
100
AcDbCircle
 10
240.770685
 20
199.163709
 30
0.0
 40
0.1
100
AcDbArc
 50
90.0
 51
175.003307
  0
LINE
  5
400
100
AcDbEntity
  8
0
100
AcDbLine
 10
240.006106
 20
198.973772
 30
0.0
 11
240.134095
 21
198.820784
 31
0.0
  0
LINE
  5
401
100
AcDbEntity
  8
0
100
AcDbLine
 10
240.134095
 20
198.820784
 30
0.0
 11
239.981093
 21
198.692763
 31
0.0
  0
LINE
  5
402
100
AcDbEntity
  8
0
100
AcDbLine
 10
239.981093
 20
198.692763
 30
0.0
 11
240.231418
 21
198.394435
 31
0.0
  0
ARC
  5
403
100
AcDbEntity
  8
0
100
AcDbCircle
 10
239.98134
 20
198.692285
 30
0.0
 40
0.2
100
AcDbArc
 50
129.91738
 51
219.998032
  0
LINE
  5
404
100
AcDbEntity
  8
0
100
AcDbLine
 10
240.006106
 20
198.973772
 30
0.0
 11
239.853003
 21
198.845679
 31
0.0
  0
LINE
  5
405
100
AcDbEntity
  8
0
100
AcDbLine
 10
239.828126
 20
198.563733
 30
0.0
 11
240.077732
 21
198.266244
 31
0.0
  0
ARC
  5
406
100
AcDbEntity
  8
0
100
AcDbCircle
 10
240.308022
 20
198.458714
 30
0.0
 40
0.1
100
AcDbArc
 50
219.999779
 51
357.180215
  0
ARC
  5
407
100
AcDbEntity
  8
0
100
AcDbCircle
 10
240.307552
 20
198.459072
 30
0.0
 40
0.3
100
AcDbArc
 50
219.998032
 51
355.003307
  0
LINE
  5
408
100
AcDbEntity
  8
0
100
AcDbLine
 10
240.651088
 20
199.413559
 30
0.0
 11
239.901088
 21
200.163589
 31
0.0
  0
LINE
  5
409
100
AcDbEntity
  8
0
100
AcDbLine
 10
240.451089
 20
199.330628
 30
0.0
 11
239.701088
 21
200.080619
 31
0.0
  0
LINE
  5
40A
100
AcDbEntity
  8
0
100
AcDbLine
 10
240.770685
 20
199.263709
 30
0.0
 11
242.762469
 21
199.263709
 31
0.0
  0
ARC
  5
40B
100
AcDbEntity
  8
0
100
AcDbCircle
 10
239.368088
 20
198.463719
 30
0.0
 40
0.1
100
AcDbArc
 50
90.0
 51
180.0
  0
LINE
  5
40C
100
AcDbEntity
  8
0
100
AcDbLine
 10
239.368088
 20
198.563719
 30
0.0
 11
239.828138
 21
198.563719
 31
0.0
  0
ARC
  5
40D
100
AcDbEntity
  8
0
100
AcDbCircle
 10
240.268088
 20
196.963709
 30
0.0
 40
1.0
100
AcDbArc
 50
180.0
 51
270.0
  0
ARC
  5
40E
100
AcDbEntity
  8
0
100
AcDbCircle
 10
249.765491
 20
199.163709
 30
0.0
 40
0.1
100
AcDbArc
 50
4.996693
 51
90.0
  0
LINE
  5
40F
100
AcDbEntity
  8
0
100
AcDbLine
 10
249.929764
 20
198.432943
 30
0.0
 11
249.865111
 21
199.172419
 31
0.0
  0
LINE
  5
410
100
AcDbEntity
  8
0
100
AcDbLine
 10
250.128275
 20
198.453794
 30
0.0
 11
250.085087
 21
199.330628
 31
0.0
  0
LINE
  5
411
100
AcDbEntity
  8
0
100
AcDbLine
 10
249.885088
 20
198.943719
 30
0.0
 11
249.885088
 21
199.413559
 31
0.0
  0
ARC
  5
412
100
AcDbEntity
  8
0
100
AcDbCircle
 10
250.228154
 20
198.458714
 30
0.0
 40
0.1
100
AcDbArc
 50
182.819785
 51
320.000221
  0
ARC
  5
413
100
AcDbEntity
  8
0
100
AcDbCircle
 10
250.228624
 20
198.459072
 30
0.0
 40
0.3
100
AcDbArc
 50
184.996693
 51
320.001968
  0
LINE
  5
414
100
AcDbEntity
  8
0
100
AcDbLine
 10
250.555083
 20
198.692763
 30
0.0
 11
250.304758
 21
198.394435
 31
0.0
  0
LINE
  5
415
100
AcDbEntity
  8
0
100
AcDbLine
 10
250.402081
 20
198.820784
 30
0.0
 11
250.555083
 21
198.692763
 31
0.0
  0
LINE
  5
416
100
AcDbEntity
  8
0
100
AcDbLine
 10
250.530071
 20
198.973772
 30
0.0
 11
250.402081
 21
198.820784
 31
0.0
  0
LINE
  5
417
100
AcDbEntity
  8
0
100
AcDbLine
 10
249.765491
 20
199.263709
 30
0.0
 11
247.773707
 21
199.263709
 31
0.0
  0
LINE
  5
418
100
AcDbEntity
  8
0
100
AcDbLine
 10
240.268088
 20
206.963709
 30
0.0
 11
250.268088
 21
206.963709
 31
0.0
  0
LINE
  5
419
100
AcDbEntity
  8
0
100
AcDbLine
 10
240.351088
 20
203.563729
 30
0.0
 11
240.351088
 21
203.363719
 31
0.0
  0
LINE
  5
41A
100
AcDbEntity
  8
0
100
AcDbLine
 10
240.449932
 20
204.032151
 30
0.0
 11
240.718254
 21
203.295286
 31
0.0
  0
ARC
  5
41B
100
AcDbEntity
  8
0
100
AcDbCircle
 10
240.906182
 20
203.363719
 30
0.0
 40
0.2
100
AcDbArc
 50
200.008605
 51
270.0
  0
LINE
  5
41C
100
AcDbEntity
  8
0
100
AcDbLine
 10
240.196909
 20
204.163719
 30
0.0
 11
240.262003
 21
204.163719
 31
0.0
  0
ARC
  5
41D
100
AcDbEntity
  8
0
100
AcDbCircle
 10
240.196909
 20
203.963719
 30
0.0
 40
0.2
100
AcDbArc
 50
90.0
 51
140.005496
  0
ARC
  5
41E
100
AcDbEntity
  8
0
100
AcDbCircle
 10
239.901088
 20
203.363729
 30
0.0
 40
0.2
100
AcDbArc
 50
90.0
 51
180.0
  0
LINE
  5
41F
100
AcDbEntity
  8
0
100
AcDbLine
 10
239.76807
 20
203.763729
 30
0.0
 11
240.043688
 21
204.092262
 31
0.0
  0
ARC
  5
420
100
AcDbEntity
  8
0
100
AcDbCircle
 10
240.262003
 20
203.963719
 30
0.0
 40
0.2
100
AcDbArc
 50
20.008605
 51
90.0
  0
LINE
  5
421
100
AcDbEntity
  8
0
100
AcDbLine
 10
240.351088
 20
203.363719
 30
0.0
 11
239.901088
 21
203.363719
 31
0.0
  0
LINE
  5
422
100
AcDbEntity
  8
0
100
AcDbLine
 10
239.901088
 20
203.563729
 30
0.0
 11
240.351088
 21
203.563729
 31
0.0
  0
LINE
  5
423
100
AcDbEntity
  8
0
100
AcDbLine
 10
240.906182
 20
203.163719
 30
0.0
 11
242.762477
 21
203.163719
 31
0.0
  0
ARC
  5
424
100
AcDbEntity
  8
0
100
AcDbCircle
 10
239.468088
 20
203.963729
 30
0.0
 40
0.2
100
AcDbArc
 50
180.0
 51
270.0
  0
ARC
  5
425
100
AcDbEntity
  8
0
100
AcDbCircle
 10
240.268088
 20
205.963709
 30
0.0
 40
1.0
100
AcDbArc
 50
90.0
 51
180.0
  0
LINE
  5
426
100
AcDbEntity
  8
0
100
AcDbLine
 10
239.468088
 20
203.763729
 30
0.0
 11
239.76807
 21
203.763729
 31
0.0
  0
ARC
  5
427
100
AcDbEntity
  8
0
100
AcDbCircle
 10
249.629994
 20
203.363719
 30
0.0
 40
0.2
100
AcDbArc
 50
270.0
 51
339.991395
  0
LINE
  5
428
100
AcDbEntity
  8
0
100
AcDbLine
 10
250.339267
 20
204.163719
 30
0.0
 11
250.274173
 21
204.163719
 31
0.0
  0
ARC
  5
429
100
AcDbEntity
  8
0
100
AcDbCircle
 10
250.339267
 20
203.963719
 30
0.0
 40
0.2
100
AcDbArc
 50
39.994504
 51
90.0
  0
LINE
  5
42A
100
AcDbEntity
  8
0
100
AcDbLine
 10
250.086245
 20
204.032151
 30
0.0
 11
249.817922
 21
203.295286
 31
0.0
  0
LINE
  5
42B
100
AcDbEntity
  8
0
100
AcDbLine
 10
250.185088
 20
203.563729
 30
0.0
 11
250.185088
 21
203.363719
 31
0.0
  0
ARC
  5
42C
100
AcDbEntity
  8
0
100
AcDbCircle
 10
250.274173
 20
203.963719
 30
0.0
 40
0.2
100
AcDbArc
 50
90.0
 51
159.991395
  0
LINE
  5
42D
100
AcDbEntity
  8
0
100
AcDbLine
 10
249.629994
 20
203.163719
 30
0.0
 11
247.773699
 21
203.163719
 31
0.0
  0
LINE
  5
42E
100
AcDbEntity
  8
0
100
AcDbLine
 10
250.835088
 20
200.080619
 30
0.0
 11
250.835088
 21
203.363729
 31
0.0
  0
LINE
  5
42F
100
AcDbEntity
  8
0
100
AcDbLine
 10
250.635088
 20
200.163589
 30
0.0
 11
250.635088
 21
203.363719
 31
0.0
  0
LINE
  5
430
100
AcDbEntity
  8
0
100
AcDbLine
 10
251.268088
 20
198.713709
 30
0.0
 11
253.218088
 21
198.713709
 31
0.0
  0
LINE
  5
431
100
AcDbEntity
  8
0
100
AcDbLine
 10
253.218088
 20
195.963709
 30
0.0
 11
255.218088
 21
195.963709
 31
0.0
  0
LINE
  5
432
100
AcDbEntity
  8
0
100
AcDbLine
 10
251.268088
 20
194.713709
 30
0.0
 11
253.218088
 21
194.713709
 31
0.0
  0
ARC
  5
433
100
AcDbEntity
  8
0
100
AcDbCircle
 10
250.554836
 20
198.692285
 30
0.0
 40
0.2
100
AcDbArc
 50
320.001968
 51
50.08262
  0
LINE
  5
434
100
AcDbEntity
  8
0
100
AcDbLine
 10
251.168088
 20
198.563719
 30
0.0
 11
250.708038
 21
198.563719
 31
0.0
  0
ARC
  5
435
100
AcDbEntity
  8
0
100
AcDbCircle
 10
251.168088
 20
198.463719
 30
0.0
 40
0.1
100
AcDbArc
 50
360.0
 51
90.0
  0
ARC
  5
436
100
AcDbEntity
  8
0
100
AcDbCircle
 10
250.635088
 20
203.363729
 30
0.0
 40
0.2
100
AcDbArc
 50
360.0
 51
90.0
  0
LINE
  5
437
100
AcDbEntity
  8
0
100
AcDbLine
 10
251.068088
 20
203.763729
 30
0.0
 11
250.768106
 21
203.763729
 31
0.0
  0
ARC
  5
438
100
AcDbEntity
  8
0
100
AcDbCircle
 10
251.068088
 20
203.963729
 30
0.0
 40
0.2
100
AcDbArc
 50
270.0
 51
360.0
  0
LINE
  5
439
100
AcDbEntity
  8
CENTER
  6
CENTER
 62
     1
100
AcDbLine
 10
189.511482
 20
216.963709
 30
0.0
 11
263.214957
 21
216.963709
 31
0.0
  0
LINE
  5
43A
100
AcDbEntity
  8
0
100
AcDbLine
 10
210.168088
 20
226.963709
 30
0.0
 11
200.168088
 21
226.963709
 31
0.0
  0
CIRCLE
  5
43B
100
AcDbEntity
  8
0
100
AcDbCircle
 10
205.168088
 20
232.713709
 30
0.0
 40
3.175
  0
LINE
  5
43C
100
AcDbEntity
  8
0
100
AcDbLine
 10
210.168088
 20
237.963709
 30
0.0
 11
199.168088
 21
237.963709
 31
0.0
  0
LINE
  5
43D
100
AcDbEntity
  8
0
100
AcDbLine
 10
195.218088
 20
241.963709
 30
0.0
 11
215.218088
 21
241.963709
 31
0.0
  0
LINE
  5
43E
100
AcDbEntity
  8
0
100
AcDbLine
 10
200.551088
 20
234.983699
 30
0.0
 11
200.551088
 21
234.513859
 31
0.0
  0
LINE
  5
43F
100
AcDbEntity
  8
0
100
AcDbLine
 10
200.307901
 20
235.473623
 30
0.0
 11
200.351089
 21
234.59679
 31
0.0
  0
LINE
  5
440
100
AcDbEntity
  8
0
100
AcDbLine
 10
199.801088
 20
233.763829
 30
0.0
 11
199.801088
 21
230.563699
 31
0.0
  0
LINE
  5
441
100
AcDbEntity
  8
0
100
AcDbLine
 10
199.601088
 20
233.846799
 30
0.0
 11
199.601088
 21
230.563689
 31
0.0
  0
ARC
  5
442
100
AcDbEntity
  8
0
100
AcDbCircle
 10
199.368088
 20
229.963689
 30
0.0
 40
0.2
100
AcDbArc
 50
90.0
 51
180.0
  0
LINE
  5
443
100
AcDbEntity
  8
0
100
AcDbLine
 10
199.368088
 20
230.163689
 30
0.0
 11
199.66807
 21
230.163689
 31
0.0
  0
ARC
  5
444
100
AcDbEntity
  8
0
100
AcDbCircle
 10
199.801088
 20
230.563689
 30
0.0
 40
0.2
100
AcDbArc
 50
180.0
 51
270.0
  0
ARC
  5
445
100
AcDbEntity
  8
0
100
AcDbCircle
 10
200.162003
 20
229.963699
 30
0.0
 40
0.2
100
AcDbArc
 50
270.0
 51
339.991395
  0
LINE
  5
446
100
AcDbEntity
  8
0
100
AcDbLine
 10
200.251088
 20
230.363689
 30
0.0
 11
200.251088
 21
230.563699
 31
0.0
  0
LINE
  5
447
100
AcDbEntity
  8
0
100
AcDbLine
 10
200.349932
 20
229.895266
 30
0.0
 11
200.618254
 21
230.632131
 31
0.0
  0
ARC
  5
448
100
AcDbEntity
  8
0
100
AcDbCircle
 10
200.806182
 20
230.563699
 30
0.0
 40
0.2
100
AcDbArc
 50
90.0
 51
159.991395
  0
ARC
  5
449
100
AcDbEntity
  8
0
100
AcDbCircle
 10
200.096909
 20
229.963699
 30
0.0
 40
0.2
100
AcDbArc
 50
219.994504
 51
270.0
  0
LINE
  5
44A
100
AcDbEntity
  8
0
100
AcDbLine
 10
200.096909
 20
229.763699
 30
0.0
 11
200.162003
 21
229.763699
 31
0.0
  0
LINE
  5
44B
100
AcDbEntity
  8
0
100
AcDbLine
 10
200.806182
 20
230.763699
 30
0.0
 11
202.662477
 21
230.763699
 31
0.0
  0
ARC
  5
44C
100
AcDbEntity
  8
0
100
AcDbCircle
 10
200.168088
 20
227.963709
 30
0.0
 40
1.0
100
AcDbArc
 50
180.0
 51
270.0
  0
LINE
  5
44D
100
AcDbEntity
  8
0
100
AcDbLine
 10
200.251088
 20
230.563699
 30
0.0
 11
199.801088
 21
230.563699
 31
0.0
  0
LINE
  5
44E
100
AcDbEntity
  8
0
100
AcDbLine
 10
199.801088
 20
230.363689
 30
0.0
 11
200.251088
 21
230.363689
 31
0.0
  0
LINE
  5
44F
100
AcDbEntity
  8
0
100
AcDbLine
 10
199.66807
 20
230.163689
 30
0.0
 11
199.943688
 21
229.835156
 31
0.0
  0
LINE
  5
450
100
AcDbEntity
  8
0
100
AcDbLine
 10
200.551088
 20
234.513859
 30
0.0
 11
199.801088
 21
233.763829
 31
0.0
  0
LINE
  5
451
100
AcDbEntity
  8
0
100
AcDbLine
 10
200.351089
 20
234.59679
 30
0.0
 11
199.601088
 21
233.846799
 31
0.0
  0
LINE
  5
452
100
AcDbEntity
  8
0
100
AcDbLine
 10
199.168088
 20
235.213709
 30
0.0
 11
197.218088
 21
235.213709
 31
0.0
  0
LINE
  5
453
100
AcDbEntity
  8
0
100
AcDbLine
 10
199.168088
 20
239.213709
 30
0.0
 11
197.218088
 21
239.213709
 31
0.0
  0
LINE
  5
454
100
AcDbEntity
  8
0
100
AcDbLine
 10
197.218088
 20
237.963709
 30
0.0
 11
195.218088
 21
237.963709
 31
0.0
  0
ARC
  5
455
100
AcDbEntity
  8
0
100
AcDbCircle
 10
199.268088
 20
235.463699
 30
0.0
 40
0.1
100
AcDbArc
 50
180.0
 51
270.0
  0
LINE
  5
456
100
AcDbEntity
  8
0
100
AcDbLine
 10
199.268088
 20
235.363699
 30
0.0
 11
199.728138
 21
235.363699
 31
0.0
  0
ARC
  5
457
100
AcDbEntity
  8
0
100
AcDbCircle
 10
199.88134
 20
235.235132
 30
0.0
 40
0.2
100
AcDbArc
 50
140.001968
 51
230.08262
  0
ARC
  5
458
100
AcDbEntity
  8
0
100
AcDbCircle
 10
200.207552
 20
235.468345
 30
0.0
 40
0.3
100
AcDbArc
 50
4.996693
 51
140.001968
  0
ARC
  5
459
100
AcDbEntity
  8
0
100
AcDbCircle
 10
200.208022
 20
235.468704
 30
0.0
 40
0.1
100
AcDbArc
 50
2.819785
 51
140.000221
  0
LINE
  5
45A
100
AcDbEntity
  8
0
100
AcDbLine
 10
200.506412
 20
235.494475
 30
0.0
 11
200.571065
 21
234.754999
 31
0.0
  0
ARC
  5
45B
100
AcDbEntity
  8
0
100
AcDbCircle
 10
200.670685
 20
234.763709
 30
0.0
 40
0.1
100
AcDbArc
 50
184.996693
 51
270.0
  0
LINE
  5
45C
100
AcDbEntity
  8
0
100
AcDbLine
 10
199.906106
 20
234.953646
 30
0.0
 11
200.034095
 21
235.106633
 31
0.0
  0
LINE
  5
45D
100
AcDbEntity
  8
0
100
AcDbLine
 10
200.034095
 20
235.106633
 30
0.0
 11
199.881093
 21
235.234655
 31
0.0
  0
LINE
  5
45E
100
AcDbEntity
  8
0
100
AcDbLine
 10
199.881093
 20
235.234655
 30
0.0
 11
200.131418
 21
235.532982
 31
0.0
  0
LINE
  5
45F
100
AcDbEntity
  8
0
100
AcDbLine
 10
200.670685
 20
234.663709
 30
0.0
 11
202.662469
 21
234.663709
 31
0.0
  0
LINE
  5
460
100
AcDbEntity
  8
0
100
AcDbLine
 10
199.728126
 20
235.363684
 30
0.0
 11
199.977732
 21
235.661174
 31
0.0
  0
LINE
  5
461
100
AcDbEntity
  8
0
100
AcDbLine
 10
199.906106
 20
234.953646
 30
0.0
 11
199.753003
 21
235.081738
 31
0.0
  0
ARC
  5
462
100
AcDbEntity
  8
0
100
AcDbCircle
 10
200.168088
 20
236.963709
 30
0.0
 40
1.0
100
AcDbArc
 50
90.0
 51
180.0
  0
LINE
  5
463
100
AcDbEntity
  8
0
100
AcDbLine
 10
226.218088
 20
241.963709
 30
0.0
 11
255.218088
 21
241.963709
 31
0.0
  0
ARC
  5
464
100
AcDbEntity
  8
0
100
AcDbCircle
 10
250.268088
 20
236.963709
 30
0.0
 40
1.0
100
AcDbArc
 50
0.0
 51
90.0
  0
LINE
  5
465
100
AcDbEntity
  8
0
100
AcDbLine
 10
250.530071
 20
234.953646
 30
0.0
 11
250.683173
 21
235.081738
 31
0.0
  0
LINE
  5
466
100
AcDbEntity
  8
0
100
AcDbLine
 10
250.70805
 20
235.363684
 30
0.0
 11
250.458444
 21
235.661174
 31
0.0
  0
LINE
  5
467
100
AcDbEntity
  8
0
100
AcDbLine
 10
250.085087
 20
234.59679
 30
0.0
 11
250.835088
 21
233.846799
 31
0.0
  0
LINE
  5
468
100
AcDbEntity
  8
0
100
AcDbLine
 10
249.885088
 20
234.513859
 30
0.0
 11
250.635088
 21
233.763829
 31
0.0
  0
LINE
  5
469
100
AcDbEntity
  8
0
100
AcDbLine
 10
250.768106
 20
230.163689
 30
0.0
 11
250.492488
 21
229.835156
 31
0.0
  0
LINE
  5
46A
100
AcDbEntity
  8
0
100
AcDbLine
 10
250.635088
 20
230.363689
 30
0.0
 11
250.185088
 21
230.363689
 31
0.0
  0
LINE
  5
46B
100
AcDbEntity
  8
0
100
AcDbLine
 10
250.185088
 20
230.563699
 30
0.0
 11
250.635088
 21
230.563699
 31
0.0
  0
LINE
  5
46C
100
AcDbEntity
  8
0
100
AcDbLine
 10
240.268088
 20
237.963709
 30
0.0
 11
251.268088
 21
237.963709
 31
0.0
  0
ARC
  5
46D
100
AcDbEntity
  8
0
100
AcDbCircle
 10
250.268088
 20
227.963709
 30
0.0
 40
1.0
100
AcDbArc
 50
270.0
 51
0.0
  0
LINE
  5
46E
100
AcDbEntity
  8
0
100
AcDbLine
 10
226.218088
 20
255.463709
 30
0.0
 11
226.218088
 21
241.963709
 31
0.0
  0
LINE
  5
46F
100
AcDbEntity
  8
0
100
AcDbLine
 10
215.218088
 20
255.463709
 30
0.0
 11
215.218088
 21
241.963709
 31
0.0
  0
LINE
  5
470
100
AcDbEntity
  8
0
  6
DASHED
 62
     3
100
AcDbLine
 10
220.118088
 20
250.463709
 30
0.0
 11
220.118088
 21
239.463709
 31
0.0
  0
LINE
  5
471
100
AcDbEntity
  8
0
100
AcDbLine
 10
211.168088
 20
234.963709
 30
0.0
 11
239.268088
 21
234.963709
 31
0.0
  0
LINE
  5
472
100
AcDbEntity
  8
0
  6
DASHED
 62
     3
100
AcDbLine
 10
220.118088
 20
241.663709
 30
0.0
 11
215.218088
 21
241.663709
 31
0.0
  0
LINE
  5
473
100
AcDbEntity
  8
0
100
AcDbLine
 10
210.028275
 20
235.473623
 30
0.0
 11
209.985087
 21
234.59679
 31
0.0
  0
LINE
  5
474
100
AcDbEntity
  8
0
100
AcDbLine
 10
209.785088
 20
234.983699
 30
0.0
 11
209.785088
 21
234.513859
 31
0.0
  0
LINE
  5
475
100
AcDbEntity
  8
0
100
AcDbLine
 10
209.985087
 20
234.59679
 30
0.0
 11
210.735088
 21
233.846799
 31
0.0
  0
LINE
  5
476
100
AcDbEntity
  8
0
100
AcDbLine
 10
209.785088
 20
234.513859
 30
0.0
 11
210.535088
 21
233.763829
 31
0.0
  0
ARC
  5
477
100
AcDbEntity
  8
0
100
AcDbCircle
 10
210.174173
 20
229.963699
 30
0.0
 40
0.2
100
AcDbArc
 50
200.008605
 51
270.0
  0
ARC
  5
478
100
AcDbEntity
  8
0
100
AcDbCircle
 10
209.529994
 20
230.563699
 30
0.0
 40
0.2
100
AcDbArc
 50
20.008605
 51
90.0
  0
LINE
  5
479
100
AcDbEntity
  8
0
100
AcDbLine
 10
209.986245
 20
229.895266
 30
0.0
 11
209.717922
 21
230.632131
 31
0.0
  0
LINE
  5
47A
100
AcDbEntity
  8
0
100
AcDbLine
 10
209.529994
 20
230.763699
 30
0.0
 11
207.673699
 21
230.763699
 31
0.0
  0
ARC
  5
47B
100
AcDbEntity
  8
0
100
AcDbCircle
 10
210.168088
 20
227.963709
 30
0.0
 40
1.0
100
AcDbArc
 50
270.0
 51
0.0
  0
LINE
  5
47C
100
AcDbEntity
  8
0
100
AcDbLine
 10
210.668106
 20
230.163689
 30
0.0
 11
210.392488
 21
229.835156
 31
0.0
  0
LINE
  5
47D
100
AcDbEntity
  8
0
100
AcDbLine
 10
210.535088
 20
230.363689
 30
0.0
 11
210.085088
 21
230.363689
 31
0.0
  0
LINE
  5
47E
100
AcDbEntity
  8
0
100
AcDbLine
 10
210.085088
 20
230.563699
 30
0.0
 11
210.535088
 21
230.563699
 31
0.0
  0
LINE
  5
47F
100
AcDbEntity
  8
0
100
AcDbLine
 10
210.735088
 20
233.846799
 30
0.0
 11
210.735088
 21
230.563689
 31
0.0
  0
LINE
  5
480
100
AcDbEntity
  8
0
100
AcDbLine
 10
210.535088
 20
233.763829
 30
0.0
 11
210.535088
 21
230.563699
 31
0.0
  0
ARC
  5
481
100
AcDbEntity
  8
0
100
AcDbCircle
 10
210.968088
 20
229.963689
 30
0.0
 40
0.2
100
AcDbArc
 50
0.0
 51
90.0
  0
ARC
  5
482
100
AcDbEntity
  8
0
100
AcDbCircle
 10
210.535088
 20
230.563689
 30
0.0
 40
0.2
100
AcDbArc
 50
270.0
 51
0.0
  0
LINE
  5
483
100
AcDbEntity
  8
0
100
AcDbLine
 10
210.968088
 20
230.163689
 30
0.0
 11
210.668106
 21
230.163689
 31
0.0
  0
ARC
  5
484
100
AcDbEntity
  8
0
100
AcDbCircle
 10
210.239267
 20
229.963699
 30
0.0
 40
0.2
100
AcDbArc
 50
270.0
 51
320.005496
  0
LINE
  5
485
100
AcDbEntity
  8
0
100
AcDbLine
 10
210.239267
 20
229.763699
 30
0.0
 11
210.174173
 21
229.763699
 31
0.0
  0
LINE
  5
486
100
AcDbEntity
  8
0
100
AcDbLine
 10
210.085088
 20
230.363689
 30
0.0
 11
210.085088
 21
230.563699
 31
0.0
  0
ARC
  5
487
100
AcDbEntity
  8
0
100
AcDbCircle
 10
210.128624
 20
235.468345
 30
0.0
 40
0.3
100
AcDbArc
 50
39.998032
 51
175.003307
  0
LINE
  5
488
100
AcDbEntity
  8
0
100
AcDbLine
 10
209.665491
 20
234.663709
 30
0.0
 11
207.673707
 21
234.663709
 31
0.0
  0
ARC
  5
489
100
AcDbEntity
  8
0
100
AcDbCircle
 10
209.665491
 20
234.763709
 30
0.0
 40
0.1
100
AcDbArc
 50
270.0
 51
355.003307
  0
LINE
  5
48A
100
AcDbEntity
  8
0
100
AcDbLine
 10
209.829764
 20
235.494475
 30
0.0
 11
209.765111
 21
234.754999
 31
0.0
  0
LINE
  5
48B
100
AcDbEntity
  8
0
100
AcDbLine
 10
210.60805
 20
235.363684
 30
0.0
 11
210.358444
 21
235.661174
 31
0.0
  0
LINE
  5
48C
100
AcDbEntity
  8
0
100
AcDbLine
 10
210.430071
 20
234.953646
 30
0.0
 11
210.583173
 21
235.081738
 31
0.0
  0
ARC
  5
48D
100
AcDbEntity
  8
0
100
AcDbCircle
 10
210.168088
 20
236.963709
 30
0.0
 40
1.0
100
AcDbArc
 50
0.0
 51
90.0
  0
ARC
  5
48E
100
AcDbEntity
  8
0
100
AcDbCircle
 10
211.068088
 20
235.463699
 30
0.0
 40
0.1
100
AcDbArc
 50
270.0
 51
0.0
  0
ARC
  5
48F
100
AcDbEntity
  8
0
100
AcDbCircle
 10
210.454836
 20
235.235132
 30
0.0
 40
0.2
100
AcDbArc
 50
309.91738
 51
39.998032
  0
LINE
  5
490
100
AcDbEntity
  8
0
100
AcDbLine
 10
211.068088
 20
235.363699
 30
0.0
 11
210.608038
 21
235.363699
 31
0.0
  0
ARC
  5
491
100
AcDbEntity
  8
0
100
AcDbCircle
 10
210.128154
 20
235.468704
 30
0.0
 40
0.1
100
AcDbArc
 50
39.999779
 51
177.180215
  0
LINE
  5
492
100
AcDbEntity
  8
0
100
AcDbLine
 10
210.455083
 20
235.234655
 30
0.0
 11
210.204758
 21
235.532982
 31
0.0
  0
LINE
  5
493
100
AcDbEntity
  8
0
100
AcDbLine
 10
210.302081
 20
235.106633
 30
0.0
 11
210.455083
 21
235.234655
 31
0.0
  0
LINE
  5
494
100
AcDbEntity
  8
0
100
AcDbLine
 10
210.430071
 20
234.953646
 30
0.0
 11
210.302081
 21
235.106633
 31
0.0
  0
LINE
  5
495
100
AcDbEntity
  8
0
  6
DASHED
 62
     3
100
AcDbLine
 10
226.218088
 20
239.463709
 30
0.0
 11
220.118088
 21
239.463709
 31
0.0
  0
LINE
  5
496
100
AcDbEntity
  8
0
100
AcDbLine
 10
250.128275
 20
235.473623
 30
0.0
 11
250.085087
 21
234.59679
 31
0.0
  0
LINE
  5
497
100
AcDbEntity
  8
0
100
AcDbLine
 10
249.885088
 20
234.983699
 30
0.0
 11
249.885088
 21
234.513859
 31
0.0
  0
LINE
  5
498
100
AcDbEntity
  8
0
100
AcDbLine
 10
240.651088
 20
234.983699
 30
0.0
 11
240.651088
 21
234.513859
 31
0.0
  0
LINE
  5
499
100
AcDbEntity
  8
0
100
AcDbLine
 10
240.407901
 20
235.473623
 30
0.0
 11
240.451089
 21
234.59679
 31
0.0
  0
CIRCLE
  5
49A
100
AcDbEntity
  8
0
100
AcDbCircle
 10
245.268088
 20
232.713709
 30
0.0
 40
3.175
  0
LINE
  5
49B
100
AcDbEntity
  8
0
100
AcDbLine
 10
240.268088
 20
226.963709
 30
0.0
 11
250.268088
 21
226.963709
 31
0.0
  0
LINE
  5
49C
100
AcDbEntity
  8
0
100
AcDbLine
 10
240.351088
 20
230.363689
 30
0.0
 11
240.351088
 21
230.563699
 31
0.0
  0
LINE
  5
49D
100
AcDbEntity
  8
0
100
AcDbLine
 10
240.449932
 20
229.895266
 30
0.0
 11
240.718254
 21
230.632131
 31
0.0
  0
ARC
  5
49E
100
AcDbEntity
  8
0
100
AcDbCircle
 10
240.906182
 20
230.563699
 30
0.0
 40
0.2
100
AcDbArc
 50
90.0
 51
159.991395
  0
LINE
  5
49F
100
AcDbEntity
  8
0
100
AcDbLine
 10
240.196909
 20
229.763699
 30
0.0
 11
240.262003
 21
229.763699
 31
0.0
  0
ARC
  5
4A0
100
AcDbEntity
  8
0
100
AcDbCircle
 10
240.196909
 20
229.963699
 30
0.0
 40
0.2
100
AcDbArc
 50
219.994504
 51
270.0
  0
ARC
  5
4A1
100
AcDbEntity
  8
0
100
AcDbCircle
 10
240.262003
 20
229.963699
 30
0.0
 40
0.2
100
AcDbArc
 50
270.0
 51
339.991395
  0
LINE
  5
4A2
100
AcDbEntity
  8
0
100
AcDbLine
 10
240.906182
 20
230.763699
 30
0.0
 11
242.762477
 21
230.763699
 31
0.0
  0
LINE
  5
4A3
100
AcDbEntity
  8
0
100
AcDbLine
 10
239.468088
 20
230.163689
 30
0.0
 11
239.76807
 21
230.163689
 31
0.0
  0
ARC
  5
4A4
100
AcDbEntity
  8
0
100
AcDbCircle
 10
239.901088
 20
230.563689
 30
0.0
 40
0.2
100
AcDbArc
 50
180.0
 51
270.0
  0
ARC
  5
4A5
100
AcDbEntity
  8
0
100
AcDbCircle
 10
239.468088
 20
229.963689
 30
0.0
 40
0.2
100
AcDbArc
 50
90.0
 51
180.0
  0
LINE
  5
4A6
100
AcDbEntity
  8
0
100
AcDbLine
 10
239.901088
 20
233.763829
 30
0.0
 11
239.901088
 21
230.563699
 31
0.0
  0
LINE
  5
4A7
100
AcDbEntity
  8
0
100
AcDbLine
 10
239.701088
 20
233.846799
 30
0.0
 11
239.701088
 21
230.563689
 31
0.0
  0
LINE
  5
4A8
100
AcDbEntity
  8
0
100
AcDbLine
 10
240.351088
 20
230.563699
 30
0.0
 11
239.901088
 21
230.563699
 31
0.0
  0
LINE
  5
4A9
100
AcDbEntity
  8
0
100
AcDbLine
 10
239.901088
 20
230.363689
 30
0.0
 11
240.351088
 21
230.363689
 31
0.0
  0
LINE
  5
4AA
100
AcDbEntity
  8
0
100
AcDbLine
 10
239.76807
 20
230.163689
 30
0.0
 11
240.043688
 21
229.835156
 31
0.0
  0
ARC
  5
4AB
100
AcDbEntity
  8
0
100
AcDbCircle
 10
240.268088
 20
227.963709
 30
0.0
 40
1.0
100
AcDbArc
 50
180.0
 51
270.0
  0
LINE
  5
4AC
100
AcDbEntity
  8
0
100
AcDbLine
 10
240.651088
 20
234.513859
 30
0.0
 11
239.901088
 21
233.763829
 31
0.0
  0
LINE
  5
4AD
100
AcDbEntity
  8
0
100
AcDbLine
 10
240.451089
 20
234.59679
 30
0.0
 11
239.701088
 21
233.846799
 31
0.0
  0
LINE
  5
4AE
100
AcDbEntity
  8
0
100
AcDbLine
 10
250.339267
 20
229.763699
 30
0.0
 11
250.274173
 21
229.763699
 31
0.0
  0
ARC
  5
4AF
100
AcDbEntity
  8
0
100
AcDbCircle
 10
250.339267
 20
229.963699
 30
0.0
 40
0.2
100
AcDbArc
 50
270.0
 51
320.005496
  0
ARC
  5
4B0
100
AcDbEntity
  8
0
100
AcDbCircle
 10
249.629994
 20
230.563699
 30
0.0
 40
0.2
100
AcDbArc
 50
20.008605
 51
90.0
  0
LINE
  5
4B1
100
AcDbEntity
  8
0
100
AcDbLine
 10
250.086245
 20
229.895266
 30
0.0
 11
249.817922
 21
230.632131
 31
0.0
  0
LINE
  5
4B2
100
AcDbEntity
  8
0
100
AcDbLine
 10
250.185088
 20
230.363689
 30
0.0
 11
250.185088
 21
230.563699
 31
0.0
  0
ARC
  5
4B3
100
AcDbEntity
  8
0
100
AcDbCircle
 10
250.274173
 20
229.963699
 30
0.0
 40
0.2
100
AcDbArc
 50
200.008605
 51
270.0
  0
LINE
  5
4B4
100
AcDbEntity
  8
0
100
AcDbLine
 10
249.629994
 20
230.763699
 30
0.0
 11
247.773699
 21
230.763699
 31
0.0
  0
LINE
  5
4B5
100
AcDbEntity
  8
0
100
AcDbLine
 10
240.006106
 20
234.953646
 30
0.0
 11
240.134095
 21
235.106633
 31
0.0
  0
LINE
  5
4B6
100
AcDbEntity
  8
0
100
AcDbLine
 10
240.134095
 20
235.106633
 30
0.0
 11
239.981093
 21
235.234655
 31
0.0
  0
LINE
  5
4B7
100
AcDbEntity
  8
0
100
AcDbLine
 10
239.981093
 20
235.234655
 30
0.0
 11
240.231418
 21
235.532982
 31
0.0
  0
ARC
  5
4B8
100
AcDbEntity
  8
0
100
AcDbCircle
 10
240.308022
 20
235.468704
 30
0.0
 40
0.1
100
AcDbArc
 50
2.819785
 51
140.000221
  0
LINE
  5
4B9
100
AcDbEntity
  8
0
100
AcDbLine
 10
240.606412
 20
235.494475
 30
0.0
 11
240.671065
 21
234.754999
 31
0.0
  0
ARC
  5
4BA
100
AcDbEntity
  8
0
100
AcDbCircle
 10
240.770685
 20
234.763709
 30
0.0
 40
0.1
100
AcDbArc
 50
184.996693
 51
270.0
  0
ARC
  5
4BB
100
AcDbEntity
  8
0
100
AcDbCircle
 10
240.307552
 20
235.468345
 30
0.0
 40
0.3
100
AcDbArc
 50
4.996693
 51
140.001968
  0
LINE
  5
4BC
100
AcDbEntity
  8
0
100
AcDbLine
 10
240.770685
 20
234.663709
 30
0.0
 11
242.762469
 21
234.663709
 31
0.0
  0
LINE
  5
4BD
100
AcDbEntity
  8
0
100
AcDbLine
 10
239.368088
 20
235.363699
 30
0.0
 11
239.828138
 21
235.363699
 31
0.0
  0
ARC
  5
4BE
100
AcDbEntity
  8
0
100
AcDbCircle
 10
239.98134
 20
235.235132
 30
0.0
 40
0.2
100
AcDbArc
 50
140.001968
 51
230.08262
  0
ARC
  5
4BF
100
AcDbEntity
  8
0
100
AcDbCircle
 10
239.368088
 20
235.463699
 30
0.0
 40
0.1
100
AcDbArc
 50
180.0
 51
270.0
  0
ARC
  5
4C0
100
AcDbEntity
  8
0
100
AcDbCircle
 10
240.268088
 20
236.963709
 30
0.0
 40
1.0
100
AcDbArc
 50
90.0
 51
180.0
  0
LINE
  5
4C1
100
AcDbEntity
  8
0
100
AcDbLine
 10
240.006106
 20
234.953646
 30
0.0
 11
239.853003
 21
235.081738
 31
0.0
  0
LINE
  5
4C2
100
AcDbEntity
  8
0
100
AcDbLine
 10
239.828126
 20
235.363684
 30
0.0
 11
240.077732
 21
235.661174
 31
0.0
  0
LINE
  5
4C3
100
AcDbEntity
  8
0
100
AcDbLine
 10
250.555083
 20
235.234655
 30
0.0
 11
250.304758
 21
235.532982
 31
0.0
  0
LINE
  5
4C4
100
AcDbEntity
  8
0
100
AcDbLine
 10
250.402081
 20
235.106633
 30
0.0
 11
250.555083
 21
235.234655
 31
0.0
  0
LINE
  5
4C5
100
AcDbEntity
  8
0
100
AcDbLine
 10
250.530071
 20
234.953646
 30
0.0
 11
250.402081
 21
235.106633
 31
0.0
  0
ARC
  5
4C6
100
AcDbEntity
  8
0
100
AcDbCircle
 10
249.765491
 20
234.763709
 30
0.0
 40
0.1
100
AcDbArc
 50
270.0
 51
355.003307
  0
LINE
  5
4C7
100
AcDbEntity
  8
0
100
AcDbLine
 10
249.929764
 20
235.494475
 30
0.0
 11
249.865111
 21
234.754999
 31
0.0
  0
ARC
  5
4C8
100
AcDbEntity
  8
0
100
AcDbCircle
 10
250.228154
 20
235.468704
 30
0.0
 40
0.1
100
AcDbArc
 50
39.999779
 51
177.180215
  0
ARC
  5
4C9
100
AcDbEntity
  8
0
100
AcDbCircle
 10
250.228624
 20
235.468345
 30
0.0
 40
0.3
100
AcDbArc
 50
39.998032
 51
175.003307
  0
LINE
  5
4CA
100
AcDbEntity
  8
0
100
AcDbLine
 10
249.765491
 20
234.663709
 30
0.0
 11
247.773707
 21
234.663709
 31
0.0
  0
LINE
  5
4CB
100
AcDbEntity
  8
CENTER
  6
CENTER
 62
     1
100
AcDbLine
 10
213.218088
 20
244.963709
 30
0.0
 11
228.218088
 21
244.963709
 31
0.0
  0
LINE
  5
4CC
100
AcDbEntity
  8
0
  6
DASHED
 62
     3
100
AcDbLine
 10
220.118088
 20
248.263709
 30
0.0
 11
215.218088
 21
248.263709
 31
0.0
  0
LINE
  5
4CD
100
AcDbEntity
  8
0
100
AcDbLine
 10
226.218088
 20
255.463709
 30
0.0
 11
215.218088
 21
255.463709
 31
0.0
  0
LINE
  5
4CE
100
AcDbEntity
  8
0
  6
DASHED
 62
     3
100
AcDbLine
 10
226.218088
 20
250.463709
 30
0.0
 11
220.118088
 21
250.463709
 31
0.0
  0
LINE
  5
4CF
100
AcDbEntity
  8
0
100
AcDbLine
 10
220.718088
 20
255.463709
 30
0.0
 11
220.718188
 21
255.463709
 31
0.0
  0
LINE
  5
4D0
100
AcDbEntity
  8
0
100
AcDbLine
 10
223.468088
 20
255.463709
 30
0.0
 11
223.468088
 21
255.463809
 31
0.0
  0
ARC
  5
4D1
100
AcDbEntity
  8
0
100
AcDbCircle
 10
250.635088
 20
230.563689
 30
0.0
 40
0.2
100
AcDbArc
 50
270.0
 51
0.0
  0
LINE
  5
4D2
100
AcDbEntity
  8
0
100
AcDbLine
 10
251.068088
 20
230.163689
 30
0.0
 11
250.768106
 21
230.163689
 31
0.0
  0
ARC
  5
4D3
100
AcDbEntity
  8
0
100
AcDbCircle
 10
251.068088
 20
229.963689
 30
0.0
 40
0.2
100
AcDbArc
 50
0.0
 51
90.0
  0
LINE
  5
4D4
100
AcDbEntity
  8
0
100
AcDbLine
 10
250.835088
 20
233.846799
 30
0.0
 11
250.835088
 21
230.563689
 31
0.0
  0
LINE
  5
4D5
100
AcDbEntity
  8
0
100
AcDbLine
 10
250.635088
 20
233.763829
 30
0.0
 11
250.635088
 21
230.563699
 31
0.0
  0
LINE
  5
4D6
100
AcDbEntity
  8
0
100
AcDbLine
 10
251.268088
 20
235.213709
 30
0.0
 11
253.218088
 21
235.213709
 31
0.0
  0
LINE
  5
4D7
100
AcDbEntity
  8
0
100
AcDbLine
 10
253.218088
 20
237.963709
 30
0.0
 11
255.218088
 21
237.963709
 31
0.0
  0
LINE
  5
4D8
100
AcDbEntity
  8
0
100
AcDbLine
 10
251.268088
 20
239.213709
 30
0.0
 11
253.218088
 21
239.213709
 31
0.0
  0
ARC
  5
4D9
100
AcDbEntity
  8
0
100
AcDbCircle
 10
250.554836
 20
235.235132
 30
0.0
 40
0.2
100
AcDbArc
 50
309.91738
 51
39.998032
  0
LINE
  5
4DA
100
AcDbEntity
  8
0
100
AcDbLine
 10
251.168088
 20
235.363699
 30
0.0
 11
250.708038
 21
235.363699
 31
0.0
  0
ARC
  5
4DB
100
AcDbEntity
  8
0
100
AcDbCircle
 10
251.168088
 20
235.463699
 30
0.0
 40
0.1
100
AcDbArc
 50
270.0
 51
0.0
  0
LINE
  5
4DC
100
AcDbEntity
  8
CENTER
  6
CENTER
 62
     1
100
AcDbLine
 10
400.969779
 20
169.954845
 30
0.0
 11
400.969779
 21
263.972572
 31
0.0
  0
CIRCLE
  5
4DD
100
AcDbEntity
  8
0
100
AcDbCircle
 10
400.969779
 20
216.963709
 30
0.0
 40
25.0
  0
CIRCLE
  5
4DE
100
AcDbEntity
  8
0
100
AcDbCircle
 10
400.969779
 20
216.963709
 30
0.0
 40
10.0
  0
CIRCLE
  5
4DF
100
AcDbEntity
  8
0
100
AcDbCircle
 10
400.969779
 20
216.963709
 30
0.0
 40
21.0
  0
LINE
  5
4E0
100
AcDbEntity
  8
0
100
AcDbLine
 10
427.969779
 20
189.518308
 30
0.0
 11
427.969779
 21
244.409109
 31
0.0
  0
LINE
  5
4E1
100
AcDbEntity
  8
0
100
AcDbLine
 10
373.969779
 20
189.518308
 30
0.0
 11
373.969779
 21
244.409109
 31
0.0
  0
LINE
  5
4E2
100
AcDbEntity
  8
CENTER
  6
CENTER
 62
     1
100
AcDbLine
 10
394.938983
 20
188.963709
 30
0.0
 11
375.000576
 21
188.963709
 31
0.0
  0
CIRCLE
  5
4E3
100
AcDbEntity
  8
0
100
AcDbCircle
 10
384.969779
 20
188.963709
 30
0.0
 40
5.5
  0
ARC
  5
4E4
100
AcDbEntity
  8
0
100
AcDbCircle
 10
400.969779
 20
216.963709
 30
0.0
 40
38.5
100
AcDbArc
 50
225.468708
 51
314.531292
  0
LINE
  5
4E5
100
AcDbEntity
  8
CENTER
  6
CENTER
 62
     1
100
AcDbLine
 10
384.969779
 20
198.932912
 30
0.0
 11
384.969779
 21
178.994505
 31
0.0
  0
CIRCLE
  5
4E6
100
AcDbEntity
  8
0
100
AcDbCircle
 10
384.969779
 20
188.963709
 30
0.0
 40
3.3
  0
LINE
  5
4E7
100
AcDbEntity
  8
CENTER
  6
CENTER
 62
     1
100
AcDbLine
 10
407.000576
 20
188.963709
 30
0.0
 11
426.938983
 21
188.963709
 31
0.0
  0
CIRCLE
  5
4E8
100
AcDbEntity
  8
0
100
AcDbCircle
 10
416.969779
 20
188.963709
 30
0.0
 40
5.5
  0
LINE
  5
4E9
100
AcDbEntity
  8
CENTER
  6
CENTER
 62
     1
100
AcDbLine
 10
416.969779
 20
198.932912
 30
0.0
 11
416.969779
 21
178.994505
 31
0.0
  0
CIRCLE
  5
4EA
100
AcDbEntity
  8
0
100
AcDbCircle
 10
416.969779
 20
188.963709
 30
0.0
 40
3.3
  0
LINE
  5
4EB
100
AcDbEntity
  8
CENTER
  6
CENTER
 62
     1
100
AcDbLine
 10
368.135684
 20
216.963709
 30
0.0
 11
434.422566
 21
216.963709
 31
0.0
  0
LINE
  5
4EC
100
AcDbEntity
  8
CENTER
  6
CENTER
 62
     1
100
AcDbLine
 10
394.938983
 20
244.963709
 30
0.0
 11
375.000576
 21
244.963709
 31
0.0
  0
CIRCLE
  5
4ED
100
AcDbEntity
  8
0
100
AcDbCircle
 10
384.969779
 20
244.963709
 30
0.0
 40
5.5
  0
ARC
  5
4EE
100
AcDbEntity
  8
0
100
AcDbCircle
 10
400.969779
 20
216.963709
 30
0.0
 40
38.5
100
AcDbArc
 50
45.468708
 51
134.531292
  0
LINE
  5
4EF
100
AcDbEntity
  8
CENTER
  6
CENTER
 62
     1
100
AcDbLine
 10
384.969779
 20
234.994505
 30
0.0
 11
384.969779
 21
254.932912
 31
0.0
  0
CIRCLE
  5
4F0
100
AcDbEntity
  8
0
100
AcDbCircle
 10
384.969779
 20
244.963709
 30
0.0
 40
3.3
  0
LINE
  5
4F1
100
AcDbEntity
  8
CENTER
  6
CENTER
 62
     1
100
AcDbLine
 10
416.969779
 20
234.994505
 30
0.0
 11
416.969779
 21
254.932912
 31
0.0
  0
CIRCLE
  5
4F2
100
AcDbEntity
  8
0
100
AcDbCircle
 10
416.969779
 20
244.963709
 30
0.0
 40
3.3
  0
CIRCLE
  5
4F3
100
AcDbEntity
  8
0
100
AcDbCircle
 10
416.969779
 20
244.963709
 30
0.0
 40
5.5
  0
LINE
  5
4F4
100
AcDbEntity
  8
CENTER
  6
CENTER
 62
     1
100
AcDbLine
 10
407.000576
 20
244.963709
 30
0.0
 11
426.938983
 21
244.963709
 31
0.0
  0
LINE
  5
4F5
100
AcDbEntity
  8
0
  6
DASHED
 62
     3
100
AcDbLine
 10
215.218088
 20
241.663709
 30
0.0
 11
215.218088
 21
241.963709
 31
0.0
  0
LINE
  5
4F6
100
AcDbEntity
  8
0
  6
DASHED
 62
     3
100
AcDbLine
 10
226.218088
 20
239.463709
 30
0.0
 11
226.218088
 21
241.963709
 31
0.0
  0
LINE
  5
4F7
100
AcDbEntity
  8
0
  6
DASHED
 62
     3
100
AcDbLine
 10
215.218088
 20
191.963709
 30
0.0
 11
215.218088
 21
192.263709
 31
0.0
  0
LINE
  5
4F8
100
AcDbEntity
  8
0
  6
DASHED
 62
     3
100
AcDbLine
 10
226.218088
 20
191.963709
 30
0.0
 11
226.218088
 21
194.463709
 31
0.0
  0
ENDSEC
  0
SECTION
  2
OBJECTS
  0
DICTIONARY
  5
35E
100
AcDbDictionary
  3
ACAD_GROUP
350
35F
  3
ACAD_LAYOUT
350
36B
  3
ACAD_MLINESTYLE
350
368
  3
ACAD_PLOTSETTINGS
350
36A
  3
ACAD_PLOTSTYLENAME
350
360
  3
ACDBHEADERROUNDTRIPXREC
350
505
  3
AcDbVariableDictionary
350
52E
  0
DICTIONARY
  5
503
100
AcDbDictionary
280
     1
  3
ACAD_XREC_ROUNDTRIP
360
504
  0
DICTIONARY
  5
4FF
100
AcDbDictionary
280
     1
  3
ACAD_XREC_ROUNDTRIP
360
500
  0
DICTIONARY
  5
501
100
AcDbDictionary
280
     1
  3
ACAD_XREC_ROUNDTRIP
360
502
  0
DICTIONARY
  5
52C
100
AcDbDictionary
280
     1
  3
ACAD_XREC_ROUNDTRIP
360
52D
  0
DICTIONARY
  5
4FB
100
AcDbDictionary
280
     1
  3
ACAD_LAYOUTSELFREF
360
52B
  3
ACAD_XREC_ROUNDTRIP
360
4FC
  0
DICTIONARY
  5
4FD
100
AcDbDictionary
280
     1
  3
ACAD_LAYOUTSELFREF
360
52A
  3
ACAD_XREC_ROUNDTRIP
360
4FE
  0
DICTIONARY
  5
35F
102
{ACAD_REACTORS
330
35E
102
}
100
AcDbDictionary
  0
DICTIONARY
  5
36B
102
{ACAD_XDICTIONARY
360
528
102
}
102
{ACAD_REACTORS
330
35E
102
}
100
AcDbDictionary
  3
MODEL
350
373
  3
ﾚｲｱｳﾄ1
350
36F
  0
DICTIONARY
  5
368
102
{ACAD_XDICTIONARY
360
526
102
}
102
{ACAD_REACTORS
330
35E
102
}
100
AcDbDictionary
  3
STANDARD
350
369
  0
DICTIONARY
  5
36A
102
{ACAD_REACTORS
330
35E
102
}
100
AcDbDictionary
  0
ACAD_PROXY_OBJECT
  5
360
102
{ACAD_REACTORS
330
35E
102
}
100
AcDbProxyObject
 90
      499
 91
      500
 93
       86
310
405010041939BDC9B585B2
350
361
340
361
 94
        0
  0
DICTIONARY
  5
505
102
{ACAD_REACTORS
330
35E
102
}
100
AcDbDictionary
  3
CEPSNTYPE
350
50F
  3
DIMSTYLEDATA
350
513
  3
FINGERPRINTGUID
350
510
  3
HYPERLINKBASE
350
508
  3
INSUNITS
350
50E
  3
LAYOUTDICT
350
50A
  3
LWETCUNION
350
50D
  3
PLOTSETDICT
350
50B
  3
PLOTSTYLNAMDICT
350
50C
  3
PSVPSCALE
350
512
  3
PUCSBASE
350
516
  3
PUCSORGBACK
350
51C
  3
PUCSORGBOTTOM
350
518
  3
PUCSORGFRONT
350
51B
  3
PUCSORGLEFT
350
519
  3
PUCSORGRIGHT
350
51A
  3
PUCSORGTOP
350
517
  3
PUCSORTHOREF
350
514
  3
PUCSORTHOVIEW
350
515
  3
STYLESHEET
350
509
  3
TSTACKALIGN
350
506
  3
TSTACKSIZE
350
507
  3
UCSBASE
350
51F
  3
UCSORGBACK
350
525
  3
UCSORGBOTTOM
350
521
  3
UCSORGFRONT
350
524
  3
UCSORGLEFT
350
522
  3
UCSORGRIGHT
350
523
  3
UCSORGTOP
350
520
  3
UCSORTHOREF
350
51D
  3
UCSORTHOVIEW
350
51E
  3
VERSIONGUID
350
511
  0
DICTIONARY
  5
52E
102
{ACAD_REACTORS
330
35E
102
}
100
AcDbDictionary
  3
DIMASSOC
350
52F
  0
XRECORD
  5
504
102
{ACAD_REACTORS
330
503
102
}
100
AcDbXrecord
102
EXTNAMES
  1
*ACTIVE
  2
*Active
102
UCS
 74
     0
 71
     0
 10
0.0
 20
0.0
 30
0.0
 10
1.0
 20
0.0
 30
0.0
 10
0.0
 20
1.0
 30
0.0
146
0.0
 79
     0
102
VIEW
281
     0
  0
XRECORD
  5
500
102
{ACAD_REACTORS
330
4FF
102
}
100
AcDbXrecord
102
EXTNAMES
  1
BYBLOCK
  2
ByBlock
  0
XRECORD
  5
502
102
{ACAD_REACTORS
330
501
102
}
100
AcDbXrecord
102
EXTNAMES
  1
BYLAYER
  2
ByLayer
  0
XRECORD
  5
52D
102
{ACAD_REACTORS
330
52C
102
}
100
AcDbXrecord
102
ACADR14ROUNDTRIP
1000
DSTYLE
1002
{
1070
   279
 70
     2
1002
}
  0
XRECORD
  5
52B
102
{ACAD_REACTORS
330
4FB
102
}
100
AcDbXrecord
340
370
  0
XRECORD
  5
4FC
102
{ACAD_REACTORS
330
4FB
102
}
100
AcDbXrecord
102
EXTNAMES
  1
*MODEL_SPACE
  2
*Model_Space
  0
XRECORD
  5
52A
102
{ACAD_REACTORS
330
4FD
102
}
100
AcDbXrecord
340
36C
  0
XRECORD
  5
4FE
102
{ACAD_REACTORS
330
4FD
102
}
100
AcDbXrecord
102
EXTNAMES
  1
*PAPER_SPACE
  2
*Paper_Space
  0
DICTIONARY
  5
528
100
AcDbDictionary
280
     1
  3
ACAD_XREC_ROUNDTRIP
360
529
  0
ACAD_PROXY_OBJECT
  5
373
102
{ACAD_REACTORS
330
36B
102
}
100
AcDbProxyObject
 90
      499
 91
      502
 93
      836
310
932433A5C50524F4752414D2046494C45535C4D4454365C706C6F74746572735C526F6C616E64204458592D313235302E7063332C01AAAAAAAAA5A69054D6F64656C901A800000000000000000000000000000000000000000000A1000000000000008902A6A6AAAA4
330
370
330
0
340
0
340
0
 94
        0
  0
ACAD_PROXY_OBJECT
  5
36F
102
{ACAD_REACTORS
330
36B
102
}
100
AcDbProxyObject
 90
      499
 91
      502
 93
     1244
310
932433A5C50524F4752414D2046494C45535C4D4454365C706C6F74746572735C526F6C616E64204458592D313235302E7063332C00AAAAAA416AA59106906DAB2B1B3C431406A800000000000000000000000000000000000000000101E900000000000241C902A6A6A10232D5E076BC5510408CB5781DAF154410232D5E0
310
76BC5510408CB5781DAF15C410232D5E076BC5710408CB5781DAF15C40
330
36C
330
0
340
0
340
0
 94
        0
  0
DICTIONARY
  5
526
100
AcDbDictionary
280
     1
  3
ACAD_XREC_ROUNDTRIP
360
527
  0
MLINESTYLE
  5
369
102
{ACAD_REACTORS
330
368
102
}
100
AcDbMlineStyle
  2
STANDARD
 70
     0
  3

 62
   256
 51
90.0
 52
90.0
 71
     2
 49
0.5
 62
   256
  6
BYLAYER
 49
-0.5
 62
   256
  6
BYLAYER
  0
ACAD_PROXY_OBJECT
  5
361
102
{ACAD_REACTORS
330
360
102
}
100
AcDbProxyObject
 90
      499
 91
      501
 93
        0
 94
        0
  0
XRECORD
  5
50F
102
{ACAD_REACTORS
330
505
102
}
100
AcDbXrecord
 90
        0
  0
XRECORD
  5
513
102
{ACAD_REACTORS
330
505
102
}
100
AcDbXrecord
1000
DSTYLE
1002
{
1070
   341
340
387
1070
   343
340
387
1070
   344
340
381
1002
}
  0
XRECORD
  5
510
102
{ACAD_REACTORS
330
505
102
}
100
AcDbXrecord
  1
{7DDE4E2B-E33E-4BC9-8D85-B35BFF16E46C}
  0
XRECORD
  5
508
102
{ACAD_REACTORS
330
505
102
}
100
AcDbXrecord
  1

  0
XRECORD
  5
50E
102
{ACAD_REACTORS
330
505
102
}
100
AcDbXrecord
 90
        0
  0
XRECORD
  5
50A
102
{ACAD_REACTORS
330
505
102
}
100
AcDbXrecord
340
36B
  0
XRECORD
  5
50D
102
{ACAD_REACTORS
330
505
102
}
100
AcDbXrecord
 90
    10781
  0
XRECORD
  5
50B
102
{ACAD_REACTORS
330
505
102
}
100
AcDbXrecord
340
36A
  0
XRECORD
  5
50C
102
{ACAD_REACTORS
330
505
102
}
100
AcDbXrecord
340
360
  0
XRECORD
  5
512
102
{ACAD_REACTORS
330
505
102
}
100
AcDbXrecord
 40
0.0
  0
XRECORD
  5
516
102
{ACAD_REACTORS
330
505
102
}
100
AcDbXrecord
340
0
  0
XRECORD
  5
51C
102
{ACAD_REACTORS
330
505
102
}
100
AcDbXrecord
 10
0.0
 20
0.0
 30
0.0
  0
XRECORD
  5
518
102
{ACAD_REACTORS
330
505
102
}
100
AcDbXrecord
 10
0.0
 20
0.0
 30
0.0
  0
XRECORD
  5
51B
102
{ACAD_REACTORS
330
505
102
}
100
AcDbXrecord
 10
0.0
 20
0.0
 30
0.0
  0
XRECORD
  5
519
102
{ACAD_REACTORS
330
505
102
}
100
AcDbXrecord
 10
0.0
 20
0.0
 30
0.0
  0
XRECORD
  5
51A
102
{ACAD_REACTORS
330
505
102
}
100
AcDbXrecord
 10
0.0
 20
0.0
 30
0.0
  0
XRECORD
  5
517
102
{ACAD_REACTORS
330
505
102
}
100
AcDbXrecord
 10
0.0
 20
0.0
 30
0.0
  0
XRECORD
  5
514
102
{ACAD_REACTORS
330
505
102
}
100
AcDbXrecord
340
0
  0
XRECORD
  5
515
102
{ACAD_REACTORS
330
505
102
}
100
AcDbXrecord
 70
     0
  0
XRECORD
  5
509
102
{ACAD_REACTORS
330
505
102
}
100
AcDbXrecord
  1

  0
XRECORD
  5
506
102
{ACAD_REACTORS
330
505
102
}
100
AcDbXrecord
 90
        1
  0
XRECORD
  5
507
102
{ACAD_REACTORS
330
505
102
}
100
AcDbXrecord
 90
       70
  0
XRECORD
  5
51F
102
{ACAD_REACTORS
330
505
102
}
100
AcDbXrecord
340
0
  0
XRECORD
  5
525
102
{ACAD_REACTORS
330
505
102
}
100
AcDbXrecord
 10
0.0
 20
0.0
 30
0.0
  0
XRECORD
  5
521
102
{ACAD_REACTORS
330
505
102
}
100
AcDbXrecord
 10
0.0
 20
0.0
 30
0.0
  0
XRECORD
  5
524
102
{ACAD_REACTORS
330
505
102
}
100
AcDbXrecord
 10
0.0
 20
0.0
 30
0.0
  0
XRECORD
  5
522
102
{ACAD_REACTORS
330
505
102
}
100
AcDbXrecord
 10
0.0
 20
0.0
 30
0.0
  0
XRECORD
  5
523
102
{ACAD_REACTORS
330
505
102
}
100
AcDbXrecord
 10
0.0
 20
0.0
 30
0.0
  0
XRECORD
  5
520
102
{ACAD_REACTORS
330
505
102
}
100
AcDbXrecord
 10
0.0
 20
0.0
 30
0.0
  0
XRECORD
  5
51D
102
{ACAD_REACTORS
330
505
102
}
100
AcDbXrecord
340
0
  0
XRECORD
  5
51E
102
{ACAD_REACTORS
330
505
102
}
100
AcDbXrecord
 70
     0
  0
XRECORD
  5
511
102
{ACAD_REACTORS
330
505
102
}
100
AcDbXrecord
  1
{AD626E24-82DE-4CD4-B2BC-371B585AC1F0}
  0
DICTIONARYVAR
  5
52F
102
{ACAD_REACTORS
330
52E
102
}
100
DictionaryVariables
280
     0
  1
1
  0
XRECORD
  5
529
102
{ACAD_REACTORS
330
528
102
}
100
AcDbXrecord
102
EXTNAMES
  1
MODEL
  2
Model
  0
XRECORD
  5
527
102
{ACAD_REACTORS
330
526
102
}
100
AcDbXrecord
102
EXTNAMES
  1
STANDARD
  2
Standard
  0
ENDSEC
  0
EOF
