  0
SECTION
  2
HEADER
  9
$ACADVER
  1
AC1014
  9
$ACADMAINTVER
 70
     0
  9
$DWGCODEPAGE
  3
ANSI_932
  9
$INSBASE
 10
0.0
 20
0.0
 30
0.0
  9
$EXTMIN
 10
48.5
 20
12.5
 30
0.0
  9
$EXTMAX
 10
212.5
 20
87.5
 30
0.0
  9
$LIMMIN
 10
0.0
 20
0.0
  9
$LIMMAX
 10
420.0
 20
297.0
  9
$ORTHOMODE
 70
     1
  9
$REGENMODE
 70
     1
  9
$FILLMODE
 70
     1
  9
$QTEXTMODE
 70
     0
  9
$MIRRTEXT
 70
     1
  9
$DRAGMODE
 70
     2
  9
$LTSCALE
 40
0.25
  9
$OSMODE
 70
    37
  9
$ATTMODE
 70
     1
  9
$TEXTSIZE
 40
2.0
  9
$TRACEWID
 40
1.0
  9
$TEXTSTYLE
  7
STANDARD
  9
$CLAYER
  8
0
  9
$CELTYPE
  6
BYLAYER
  9
$CECOLOR
 62
   256
  9
$CELTSCALE
 40
1.0
  9
$DELOBJ
 70
     1
  9
$DISPSILH
 70
     0
  9
$DIMSCALE
 40
1.0
  9
$DIMASZ
 40
2.5
  9
$DIMEXO
 40
0.625
  9
$DIMDLI
 40
3.75
  9
$DIMRND
 40
0.0
  9
$DIMDLE
 40
0.0
  9
$DIMEXE
 40
1.25
  9
$DIMTP
 40
0.0
  9
$DIMTM
 40
0.0
  9
$DIMTXT
 40
2.5
  9
$DIMCEN
 40
2.5
  9
$DIMTSZ
 40
0.0
  9
$DIMTOL
 70
     0
  9
$DIMLIM
 70
     0
  9
$DIMTIH
 70
     0
  9
$DIMTOH
 70
     0
  9
$DIMSE1
 70
     0
  9
$DIMSE2
 70
     0
  9
$DIMTAD
 70
     1
  9
$DIMZIN
 70
     8
  9
$DIMBLK
  1

  9
$DIMASO
 70
     1
  9
$DIMSHO
 70
     1
  9
$DIMPOST
  1

  9
$DIMAPOST
  1

  9
$DIMALT
 70
     0
  9
$DIMALTD
 70
     4
  9
$DIMALTF
 40
0.0394
  9
$DIMLFAC
 40
1.0
  9
$DIMTOFL
 70
     1
  9
$DIMTVP
 40
0.0
  9
$DIMTIX
 70
     0
  9
$DIMSOXD
 70
     0
  9
$DIMSAH
 70
     0
  9
$DIMBLK1
  1

  9
$DIMBLK2
  1

  9
$DIMSTYLE
  2
ISO-25
  9
$DIMCLRD
 70
     0
  9
$DIMCLRE
 70
     0
  9
$DIMCLRT
 70
     0
  9
$DIMTFAC
 40
1.0
  9
$DIMGAP
 40
0.625
  9
$DIMJUST
 70
     0
  9
$DIMSD1
 70
     0
  9
$DIMSD2
 70
     0
  9
$DIMTOLJ
 70
     1
  9
$DIMTZIN
 70
     0
  9
$DIMALTZ
 70
     0
  9
$DIMALTTZ
 70
     0
  9
$DIMFIT
 70
     3
  9
$DIMUPT
 70
     0
  9
$DIMUNIT
 70
     2
  9
$DIMDEC
 70
     4
  9
$DIMTDEC
 70
     4
  9
$DIMALTU
 70
     2
  9
$DIMALTTD
 70
     2
  9
$DIMTXSTY
  7
STANDARD
  9
$DIMAUNIT
 70
     0
  9
$LUNITS
 70
     2
  9
$LUPREC
 70
     2
  9
$SKETCHINC
 40
1.0
  9
$FILLETRAD
 40
2.5
  9
$AUNITS
 70
     0
  9
$AUPREC
 70
     0
  9
$MENU
  1
.
  9
$ELEVATION
 40
0.0
  9
$PELEVATION
 40
0.0
  9
$THICKNESS
 40
0.0
  9
$LIMCHECK
 70
     0
  9
$BLIPMODE
 70
     0
  9
$CHAMFERA
 40
2.5
  9
$CHAMFERB
 40
2.5
  9
$CHAMFERC
 40
0.0
  9
$CHAMFERD
 40
0.0
  9
$SKPOLY
 70
     1
  9
$TDCREATE
 40
2451789.017465856
  9
$TDUPDATE
 40
2452821.806230555
  9
$TDINDWG
 40
0.0260177199
  9
$TDUSRTIMER
 40
0.0260177199
  9
$USRTIMER
 70
     1
  9
$ANGBASE
 50
0.0
  9
$ANGDIR
 70
     0
  9
$PDMODE
 70
     0
  9
$PDSIZE
 40
0.0
  9
$PLINEWID
 40
0.0
  9
$COORDS
 70
     1
  9
$SPLFRAME
 70
     0
  9
$SPLINETYPE
 70
     6
  9
$SPLINESEGS
 70
     8
  9
$ATTDIA
 70
     0
  9
$ATTREQ
 70
     1
  9
$HANDLING
 70
     1
  9
$HANDSEED
  5
549
  9
$SURFTAB1
 70
     6
  9
$SURFTAB2
 70
     6
  9
$SURFTYPE
 70
     6
  9
$SURFU
 70
     6
  9
$SURFV
 70
     6
  9
$UCSNAME
  2

  9
$UCSORG
 10
0.0
 20
0.0
 30
0.0
  9
$UCSXDIR
 10
1.0
 20
0.0
 30
0.0
  9
$UCSYDIR
 10
0.0
 20
1.0
 30
0.0
  9
$PUCSNAME
  2

  9
$PUCSORG
 10
0.0
 20
0.0
 30
0.0
  9
$PUCSXDIR
 10
1.0
 20
0.0
 30
0.0
  9
$PUCSYDIR
 10
0.0
 20
1.0
 30
0.0
  9
$USERI1
 70
     0
  9
$USERI2
 70
     0
  9
$USERI3
 70
     0
  9
$USERI4
 70
     0
  9
$USERI5
 70
     0
  9
$USERR1
 40
0.0
  9
$USERR2
 40
0.0
  9
$USERR3
 40
0.0
  9
$USERR4
 40
0.0
  9
$USERR5
 40
0.0
  9
$WORLDVIEW
 70
     1
  9
$SHADEDGE
 70
     3
  9
$SHADEDIF
 70
    70
  9
$TILEMODE
 70
     1
  9
$MAXACTVP
 70
    48
  9
$PINSBASE
 10
0.0
 20
0.0
 30
0.0
  9
$PLIMCHECK
 70
     0
  9
$PEXTMIN
 10
1.000000E+20
 20
1.000000E+20
 30
1.000000E+20
  9
$PEXTMAX
 10
-1.000000E+20
 20
-1.000000E+20
 30
-1.000000E+20
  9
$PLIMMIN
 10
0.0
 20
0.0
  9
$PLIMMAX
 10
420.0
 20
297.0
  9
$UNITMODE
 70
     0
  9
$VISRETAIN
 70
     1
  9
$PLINEGEN
 70
     0
  9
$PSLTSCALE
 70
     1
  9
$TREEDEPTH
 70
  3020
  9
$PICKSTYLE
 70
     1
  9
$CMLSTYLE
  2
STANDARD
  9
$CMLJUST
 70
     0
  9
$CMLSCALE
 40
1.0
  9
$PROXYGRAPHICS
 70
     1
  9
$MEASUREMENT
 70
     0
  0
ENDSEC
  0
SECTION
  2
CLASSES
  0
CLASS
  1
ACDBDICTIONARYWDFLT
  2
AcDbDictionaryWithDefault
  3
AutoCAD 2000
 90
        0
280
     0
281
     0
  0
CLASS
  1
ACDBPLACEHOLDER
  2
AcDbPlaceHolder
  3
AutoCAD 2000
 90
        0
280
     0
281
     0
  0
CLASS
  1
LAYOUT
  2
AcDbLayout
  3
AutoCAD 2000
 90
        0
280
     0
281
     0
  0
CLASS
  1
DICTIONARYVAR
  2
AcDbDictionaryVar
  3
"AutoCAD"
 90
        0
280
     0
281
     0
  0
CLASS
  1
LONG_TRANSACTION
  2
AcDbLongTransaction
  3
AutoCAD 2000
 90
        0
280
     0
281
     0
  0
CLASS
  1
LWPOLYLINE
  2
AcDbPolyline
  3
"AutoCAD"
 90
        0
280
     0
281
     1
  0
CLASS
  1
HATCH
  2
AcDbHatch
  3
"ACAD_SEDONA"
 90
        0
280
     0
281
     1
  0
CLASS
  1
XRECORD
  2
AcDbXrecord
  3
"<Built In>"
 90
        0
280
     0
281
     0
  0
ENDSEC
  0
SECTION
  2
TABLES
  0
TABLE
  2
VPORT
  5
379
100
AcDbSymbolTable
 70
     2
  0
VPORT
  5
548
100
AcDbSymbolTableRecord
100
AcDbViewportTableRecord
  2
*ACTIVE
 70
     0
 10
0.0
 20
0.0
 11
1.0
 21
1.0
 12
213.353598
 22
148.5
 13
0.0
 23
0.0
 14
1.0
 24
1.0
 15
10.0
 25
10.0
 16
0.0
 26
0.0
 36
1.0
 17
0.0
 27
0.0
 37
0.0
 40
297.0
 41
1.436725
 42
50.0
 43
0.0
 44
0.0
 50
0.0
 51
0.0
 71
     0
 72
   100
 73
     1
 74
     1
 75
     0
 76
     0
 77
     0
 78
     0
  0
ENDTAB
  0
TABLE
  2
LTYPE
  5
376
100
AcDbSymbolTable
 70
     2
  0
LTYPE
  5
384
102
{ACAD_XDICTIONARY
360
50F
102
}
100
AcDbSymbolTableRecord
100
AcDbLinetypeTableRecord
  2
BYBLOCK
 70
     0
  3

 72
    65
 73
     0
 40
0.0
  0
LTYPE
  5
385
102
{ACAD_XDICTIONARY
360
511
102
}
100
AcDbSymbolTableRecord
100
AcDbLinetypeTableRecord
  2
BYLAYER
 70
     0
  3

 72
    65
 73
     0
 40
0.0
  0
LTYPE
  5
386
100
AcDbSymbolTableRecord
100
AcDbLinetypeTableRecord
  2
CONTINUOUS
 70
     0
  3
Solid line
 72
    65
 73
     0
 40
0.0
  0
LTYPE
  5
394
100
AcDbSymbolTableRecord
100
AcDbLinetypeTableRecord
  2
CENTER
 70
     0
  3
Center ____ _ ____ _ ____ _ ____ _ ____ _ ____
 72
    65
 73
     4
 40
50.8
 49
31.75
 74
     0
 49
-6.35
 74
     0
 49
6.35
 74
     0
 49
-6.35
 74
     0
  0
ENDTAB
  0
TABLE
  2
LAYER
  5
373
100
AcDbSymbolTable
 70
     2
  0
LAYER
  5
381
100
AcDbSymbolTableRecord
100
AcDbLayerTableRecord
  2
0
 70
     0
 62
     7
  6
CONTINUOUS
  0
LAYER
  5
395
100
AcDbSymbolTableRecord
100
AcDbLayerTableRecord
  2
CENTER
 70
     0
 62
     1
  6
CENTER
  0
ENDTAB
  0
TABLE
  2
STYLE
  5
374
100
AcDbSymbolTable
 70
     1
  0
STYLE
  5
382
100
AcDbSymbolTableRecord
100
AcDbTextStyleTableRecord
  2
STANDARD
 70
     0
 40
0.0
 41
1.0
 50
0.0
 71
     0
 42
2.0
  3
txt.shx
  4
extfont.shx
  0
ENDTAB
  0
TABLE
  2
VIEW
  5
377
100
AcDbSymbolTable
 70
     0
  0
ENDTAB
  0
TABLE
  2
UCS
  5
378
100
AcDbSymbolTable
 70
     0
  0
ENDTAB
  0
TABLE
  2
APPID
  5
37A
100
AcDbSymbolTable
 70
     1
  0
APPID
  5
383
100
AcDbSymbolTableRecord
100
AcDbRegAppTableRecord
  2
ACAD
 70
     0
  0
ENDTAB
  0
TABLE
  2
DIMSTYLE
  5
37B
100
AcDbSymbolTable
 70
     1
  0
DIMSTYLE
105
396
102
{ACAD_XDICTIONARY
360
53B
102
}
100
AcDbSymbolTableRecord
100
AcDbDimStyleTableRecord
  2
ISO-25
 70
     0
  3

  4

  5

  6

  7

 40
1.0
 41
2.5
 42
0.625
 43
3.75
 44
1.25
 45
0.0
 46
0.0
 47
0.0
 48
0.0
140
2.5
141
2.5
142
0.0
143
0.0394
144
1.0
145
0.0
146
1.0
147
0.625
 71
     0
 72
     0
 73
     0
 74
     0
 75
     0
 76
     0
 77
     1
 78
     8
170
     0
171
     4
172
     1
173
     0
174
     0
175
     0
176
     0
177
     0
178
     0
270
     2
271
     2
272
     2
273
     2
274
     4
340
382
275
     0
280
     0
281
     0
282
     0
283
     1
284
     8
285
     8
286
     8
287
     5
288
     0
  0
ENDTAB
  0
TABLE
  2
BLOCK_RECORD
  5
372
100
AcDbSymbolTable
 70
     2
  0
BLOCK_RECORD
  5
38F
102
{ACAD_XDICTIONARY
360
50B
102
}
100
AcDbSymbolTableRecord
100
AcDbBlockTableRecord
  2
*MODEL_SPACE
  0
BLOCK_RECORD
  5
38B
102
{ACAD_XDICTIONARY
360
50D
102
}
100
AcDbSymbolTableRecord
100
AcDbBlockTableRecord
  2
*PAPER_SPACE
  0
BLOCK_RECORD
  5
399
100
AcDbSymbolTableRecord
100
AcDbBlockTableRecord
  2
$MODEL_SPACE
  0
BLOCK_RECORD
  5
39C
100
AcDbSymbolTableRecord
100
AcDbBlockTableRecord
  2
$PAPER_SPACE
  0
ENDTAB
  0
ENDSEC
  0
SECTION
  2
BLOCKS
  0
BLOCK
  5
390
100
AcDbEntity
  8
0
100
AcDbBlockBegin
  2
*MODEL_SPACE
 70
     0
 10
0.0
 20
0.0
 30
0.0
  3
*MODEL_SPACE
  1

  0
ENDBLK
  5
391
100
AcDbEntity
  8
0
100
AcDbBlockEnd
  0
BLOCK
  5
38C
100
AcDbEntity
 67
     1
  8
0
100
AcDbBlockBegin
  2
*PAPER_SPACE
 70
     0
 10
0.0
 20
0.0
 30
0.0
  3
*PAPER_SPACE
  1

  0
ENDBLK
  5
38D
100
AcDbEntity
 67
     1
  8
0
100
AcDbBlockEnd
  0
BLOCK
  5
39A
100
AcDbEntity
  8
0
100
AcDbBlockBegin
  2
$MODEL_SPACE
 70
     0
 10
0.0
 20
0.0
 30
0.0
  3
$MODEL_SPACE
  1

  0
ENDBLK
  5
39B
100
AcDbEntity
  8
0
100
AcDbBlockEnd
  0
BLOCK
  5
39D
100
AcDbEntity
  8
0
100
AcDbBlockBegin
  2
$PAPER_SPACE
 70
     0
 10
0.0
 20
0.0
 30
0.0
  3
$PAPER_SPACE
  1

  0
ENDBLK
  5
39E
100
AcDbEntity
  8
0
100
AcDbBlockEnd
  0
ENDSEC
  0
SECTION
  2
ENTITIES
  0
LINE
  5
39F
100
AcDbEntity
  8
CENTER
  6
CENTER
 62
     1
100
AcDbLine
 10
212.5
 20
50.0
 30
0.0
 11
137.5
 21
50.0
 31
0.0
  0
LINE
  5
3A0
100
AcDbEntity
  8
0
100
AcDbLine
 10
210.929341
 20
52.254425
 30
0.0
 11
177.254425
 21
85.929341
 31
0.0
  0
LINE
  5
3A1
100
AcDbEntity
  8
0
100
AcDbLine
 10
210.929341
 20
47.745575
 30
0.0
 11
177.254425
 21
14.070659
 31
0.0
  0
LINE
  5
3A2
100
AcDbEntity
  8
CENTER
  6
CENTER
 62
     1
100
AcDbLine
 10
48.5
 20
50.0
 30
0.0
 11
101.5
 21
50.0
 31
0.0
  0
LINE
  5
3A3
100
AcDbEntity
  8
0
100
AcDbLine
 10
76.0
 20
72.5
 30
0.0
 11
100.0
 21
72.5
 31
0.0
  0
LINE
  5
3A4
100
AcDbEntity
  8
0
100
AcDbLine
 10
76.0
 20
27.5
 30
0.0
 11
100.0
 21
27.5
 31
0.0
  0
LINE
  5
3A5
100
AcDbEntity
  8
0
100
AcDbLine
 10
53.75
 20
69.425
 30
0.0
 11
53.75
 21
50.0
 31
0.0
  0
LINE
  5
3A6
100
AcDbEntity
  8
0
100
AcDbLine
 10
52.25
 20
50.0
 30
0.0
 11
52.25
 21
69.425
 31
0.0
  0
LINE
  5
3A7
100
AcDbEntity
  8
0
100
AcDbLine
 10
50.0
 20
50.0
 30
0.0
 11
50.0
 21
72.5
 31
0.0
  0
LINE
  5
3AA
100
AcDbEntity
  8
0
100
AcDbLine
 10
52.25
 20
50.0
 30
0.0
 11
52.25
 21
30.575
 31
0.0
  0
LINE
  5
3AB
100
AcDbEntity
  8
0
100
AcDbLine
 10
53.75
 20
30.575
 30
0.0
 11
53.75
 21
50.0
 31
0.0
  0
LINE
  5
3AC
100
AcDbEntity
  8
0
100
AcDbLine
 10
50.0
 20
50.0
 30
0.0
 11
50.0
 21
27.5
 31
0.0
  0
LINE
  5
3AD
100
AcDbEntity
  8
0
100
AcDbLine
 10
50.0
 20
27.5
 30
0.0
 11
65.0
 21
27.5
 31
0.0
  0
LINE
  5
3AE
100
AcDbEntity
  8
0
100
AcDbLine
 10
50.0
 20
31.5
 30
0.0
 11
52.25
 21
31.5
 31
0.0
  0
LINE
  5
3AF
100
AcDbEntity
  8
0
100
AcDbLine
 10
52.25
 20
30.575
 30
0.0
 11
53.75
 21
30.575
 31
0.0
  0
LINE
  5
3B0
100
AcDbEntity
  8
0
100
AcDbLine
 10
69.9
 20
26.0
 30
0.0
 11
69.9
 21
20.5
 31
0.0
  0
LINE
  5
3B1
100
AcDbEntity
  8
0
100
AcDbLine
 10
76.0
 20
14.0
 30
0.0
 11
76.0
 21
27.5
 31
0.0
  0
LINE
  5
3B2
100
AcDbEntity
  8
0
100
AcDbLine
 10
65.0
 20
27.5
 30
0.0
 11
65.0
 21
14.0
 31
0.0
  0
LINE
  5
3B3
100
AcDbEntity
  8
CENTER
  6
CENTER
 62
     1
100
AcDbLine
 10
77.5
 20
20.5
 30
0.0
 11
63.5
 21
20.5
 31
0.0
  0
LINE
  5
3B4
100
AcDbEntity
  8
0
100
AcDbLine
 10
76.0
 20
15.0
 30
0.0
 11
69.9
 21
15.0
 31
0.0
  0
LINE
  5
3B5
100
AcDbEntity
  8
0
100
AcDbLine
 10
65.0
 20
14.0
 30
0.0
 11
76.0
 21
14.0
 31
0.0
  0
LINE
  5
3B6
100
AcDbEntity
  8
0
100
AcDbLine
 10
76.0
 20
14.070659
 30
0.0
 11
65.0
 21
14.070659
 31
0.0
  0
LINE
  5
3B7
100
AcDbEntity
  8
0
100
AcDbLine
 10
69.9
 20
15.0
 30
0.0
 11
69.9
 21
20.5
 31
0.0
  0
LINE
  5
3B8
100
AcDbEntity
  8
0
100
AcDbLine
 10
69.9
 20
17.2
 30
0.0
 11
65.0
 21
17.2
 31
0.0
  0
LINE
  5
3B9
100
AcDbEntity
  8
0
100
AcDbLine
 10
76.0
 20
26.0
 30
0.0
 11
69.9
 21
26.0
 31
0.0
  0
LINE
  5
3BA
100
AcDbEntity
  8
0
100
AcDbLine
 10
69.9
 20
23.8
 30
0.0
 11
65.0
 21
23.8
 31
0.0
  0
LINE
  5
3BB
100
AcDbEntity
  8
0
100
AcDbLine
 10
69.9
 20
74.0
 30
0.0
 11
69.9
 21
79.5
 31
0.0
  0
LINE
  5
3BC
100
AcDbEntity
  8
0
100
AcDbLine
 10
76.0
 20
86.0
 30
0.0
 11
76.0
 21
72.5
 31
0.0
  0
LINE
  5
3BD
100
AcDbEntity
  8
0
100
AcDbLine
 10
65.0
 20
72.5
 30
0.0
 11
65.0
 21
86.0
 31
0.0
  0
LINE
  5
3BE
100
AcDbEntity
  8
0
100
AcDbLine
 10
50.0
 20
72.5
 30
0.0
 11
65.0
 21
72.5
 31
0.0
  0
LINE
  5
3BF
100
AcDbEntity
  8
0
100
AcDbLine
 10
50.0
 20
68.5
 30
0.0
 11
52.25
 21
68.5
 31
0.0
  0
LINE
  5
3C0
100
AcDbEntity
  8
0
100
AcDbLine
 10
52.25
 20
69.425
 30
0.0
 11
53.75
 21
69.425
 31
0.0
  0
LINE
  5
3C1
100
AcDbEntity
  8
0
100
AcDbLine
 10
76.0
 20
74.0
 30
0.0
 11
69.9
 21
74.0
 31
0.0
  0
LINE
  5
3C2
100
AcDbEntity
  8
0
100
AcDbLine
 10
69.9
 20
76.2
 30
0.0
 11
65.0
 21
76.2
 31
0.0
  0
LINE
  5
3C3
100
AcDbEntity
  8
CENTER
  6
CENTER
 62
     1
100
AcDbLine
 10
77.5
 20
79.5
 30
0.0
 11
63.5
 21
79.5
 31
0.0
  0
LINE
  5
3C4
100
AcDbEntity
  8
0
100
AcDbLine
 10
76.0
 20
85.0
 30
0.0
 11
69.9
 21
85.0
 31
0.0
  0
LINE
  5
3C5
100
AcDbEntity
  8
0
100
AcDbLine
 10
65.0
 20
86.0
 30
0.0
 11
76.0
 21
86.0
 31
0.0
  0
LINE
  5
3C6
100
AcDbEntity
  8
0
100
AcDbLine
 10
76.0
 20
85.929341
 30
0.0
 11
65.0
 21
85.929341
 31
0.0
  0
LINE
  5
3C7
100
AcDbEntity
  8
0
100
AcDbLine
 10
69.9
 20
85.0
 30
0.0
 11
69.9
 21
79.5
 31
0.0
  0
LINE
  5
3C8
100
AcDbEntity
  8
0
100
AcDbLine
 10
69.9
 20
82.8
 30
0.0
 11
65.0
 21
82.8
 31
0.0
  0
LINE
  5
3C9
100
AcDbEntity
  8
CENTER
  6
CENTER
 62
     1
100
AcDbLine
 10
175.0
 20
87.5
 30
0.0
 11
175.0
 21
12.5
 31
0.0
  0
ARC
  5
3CA
100
AcDbEntity
  8
CENTER
  6
CENTER
 62
     1
100
AcDbCircle
 10
175.0
 20
50.0
 30
0.0
 40
29.5
100
AcDbArc
 50
158.509723
 51
201.490277
  0
ARC
  5
3CB
100
AcDbEntity
  8
CENTER
  6
CENTER
 62
     1
100
AcDbCircle
 10
175.0
 20
50.0
 30
0.0
 40
29.5
100
AcDbArc
 50
338.509723
 51
21.490277
  0
LINE
  5
3CC
100
AcDbEntity
  8
0
100
AcDbLine
 10
97.75
 20
50.0
 30
0.0
 11
97.75
 21
69.425
 31
0.0
  0
LINE
  5
3CD
100
AcDbEntity
  8
0
100
AcDbLine
 10
96.25
 20
69.425
 30
0.0
 11
96.25
 21
50.0
 31
0.0
  0
LINE
  5
3CE
100
AcDbEntity
  8
0
100
AcDbLine
 10
139.070659
 20
52.254425
 30
0.0
 11
172.745575
 21
85.929341
 31
0.0
  0
CIRCLE
  5
3CF
100
AcDbEntity
  8
0
100
AcDbCircle
 10
175.0
 20
50.0
 30
0.0
 40
10.0
  0
CIRCLE
  5
3D0
100
AcDbEntity
  8
0
100
AcDbCircle
 10
175.0
 20
50.0
 30
0.0
 40
22.5
  0
CIRCLE
  5
3D1
100
AcDbEntity
  8
0
100
AcDbCircle
 10
175.0
 20
50.0
 30
0.0
 40
18.5
  0
LINE
  5
3D2
100
AcDbEntity
  8
0
100
AcDbLine
 10
100.0
 20
72.5
 30
0.0
 11
100.0
 21
50.0
 31
0.0
  0
CIRCLE
  5
3D3
100
AcDbEntity
  8
0
100
AcDbCircle
 10
145.5
 20
50.0
 30
0.0
 40
3.3
  0
LINE
  5
3D4
100
AcDbEntity
  8
0
100
AcDbLine
 10
139.070659
 20
47.745575
 30
0.0
 11
172.745575
 21
14.070659
 31
0.0
  0
CIRCLE
  5
3D5
100
AcDbEntity
  8
0
100
AcDbCircle
 10
145.5
 20
50.0
 30
0.0
 40
5.5
  0
LINE
  5
3D6
100
AcDbEntity
  8
0
100
AcDbLine
 10
96.25
 20
30.575
 30
0.0
 11
96.25
 21
50.0
 31
0.0
  0
LINE
  5
3D7
100
AcDbEntity
  8
0
100
AcDbLine
 10
97.75
 20
50.0
 30
0.0
 11
97.75
 21
30.575
 31
0.0
  0
LINE
  5
3D8
100
AcDbEntity
  8
0
100
AcDbLine
 10
100.0
 20
27.5
 30
0.0
 11
100.0
 21
50.0
 31
0.0
  0
LINE
  5
3D9
100
AcDbEntity
  8
0
100
AcDbLine
 10
100.0
 20
31.5
 30
0.0
 11
97.75
 21
31.5
 31
0.0
  0
LINE
  5
3DA
100
AcDbEntity
  8
0
100
AcDbLine
 10
97.75
 20
30.575
 30
0.0
 11
96.25
 21
30.575
 31
0.0
  0
ARC
  5
3DB
100
AcDbEntity
  8
0
100
AcDbCircle
 10
175.0
 20
50.0
 30
0.0
 40
36.0
100
AcDbArc
 50
176.409622
 51
183.590378
  0
ARC
  5
3DC
100
AcDbEntity
  8
CENTER
  6
CENTER
 62
     1
100
AcDbCircle
 10
175.0
 20
50.0
 30
0.0
 40
29.5
100
AcDbArc
 50
248.509723
 51
291.490277
  0
CIRCLE
  5
3DD
100
AcDbEntity
  8
0
100
AcDbCircle
 10
175.0
 20
20.5
 30
0.0
 40
3.3
  0
CIRCLE
  5
3DE
100
AcDbEntity
  8
0
100
AcDbCircle
 10
175.0
 20
20.5
 30
0.0
 40
5.5
  0
ARC
  5
3DF
100
AcDbEntity
  8
0
100
AcDbCircle
 10
175.0
 20
50.0
 30
0.0
 40
36.0
100
AcDbArc
 50
266.409622
 51
273.590378
  0
CIRCLE
  5
3E0
100
AcDbEntity
  8
0
100
AcDbCircle
 10
204.5
 20
50.0
 30
0.0
 40
5.5
  0
CIRCLE
  5
3E1
100
AcDbEntity
  8
0
100
AcDbCircle
 10
204.5
 20
50.0
 30
0.0
 40
3.3
  0
LINE
  5
3E2
100
AcDbEntity
  8
0
100
AcDbLine
 10
100.0
 20
68.5
 30
0.0
 11
97.75
 21
68.5
 31
0.0
  0
LINE
  5
3E3
100
AcDbEntity
  8
0
100
AcDbLine
 10
97.75
 20
69.425
 30
0.0
 11
96.25
 21
69.425
 31
0.0
  0
ARC
  5
3E4
100
AcDbEntity
  8
CENTER
  6
CENTER
 62
     1
100
AcDbCircle
 10
175.0
 20
50.0
 30
0.0
 40
29.5
100
AcDbArc
 50
68.509723
 51
111.490277
  0
CIRCLE
  5
3E5
100
AcDbEntity
  8
0
100
AcDbCircle
 10
175.0
 20
79.5
 30
0.0
 40
5.5
  0
CIRCLE
  5
3E6
100
AcDbEntity
  8
0
100
AcDbCircle
 10
175.0
 20
79.5
 30
0.0
 40
3.3
  0
ARC
  5
3E7
100
AcDbEntity
  8
0
100
AcDbCircle
 10
175.0
 20
50.0
 30
0.0
 40
36.0
100
AcDbArc
 50
86.409622
 51
93.590378
  0
ARC
  5
3E8
100
AcDbEntity
  8
0
100
AcDbCircle
 10
175.0
 20
50.0
 30
0.0
 40
36.0
100
AcDbArc
 50
356.409622
 51
3.590378
  0
LINE
  5
3E9
100
AcDbEntity
  8
0
100
AcDbLine
 10
87.25
 20
68.2
 30
0.0
 11
87.25
 21
31.8
 31
0.0
  0
LINE
  5
3EA
100
AcDbEntity
  8
0
100
AcDbLine
 10
62.75
 20
68.2
 30
0.0
 11
62.75
 21
31.8
 31
0.0
  0
LINE
  5
3EC
100
AcDbEntity
  8
0
100
AcDbLine
 10
87.55
 20
40.0
 30
0.0
 11
95.95
 21
40.0
 31
0.0
  0
LINE
  5
3ED
100
AcDbEntity
  8
0
100
AcDbLine
 10
96.15
 20
33.55
 30
0.0
 11
95.69
 21
33.55
 31
0.0
  0
LINE
  5
3EE
100
AcDbEntity
  8
0
100
AcDbLine
 10
87.55
 20
31.5
 30
0.0
 11
96.25
 21
31.5
 31
0.0
  0
LINE
  5
3EF
100
AcDbEntity
  8
0
100
AcDbLine
 10
53.75
 20
31.5
 30
0.0
 11
62.45
 21
31.5
 31
0.0
  0
ARC
  5
3F0
100
AcDbEntity
  8
0
100
AcDbCircle
 10
54.05
 20
31.8
 30
0.0
 40
0.3
100
AcDbArc
 50
180.0
 51
270.0
  0
ARC
  5
3F1
100
AcDbEntity
  8
0
100
AcDbCircle
 10
62.45
 20
31.8
 30
0.0
 40
0.3
100
AcDbArc
 50
270.0
 51
0.0
  0
ARC
  5
3F2
100
AcDbEntity
  8
0
100
AcDbCircle
 10
87.55
 20
31.8
 30
0.0
 40
0.3
100
AcDbArc
 50
180.0
 51
270.0
  0
LINE
  5
3F3
100
AcDbEntity
  8
0
100
AcDbLine
 10
62.75
 20
33.0
 30
0.0
 11
87.25
 21
33.0
 31
0.0
  0
LINE
  5
3F4
100
AcDbEntity
  8
0
100
AcDbLine
 10
54.05
 20
40.0
 30
0.0
 11
62.45
 21
40.0
 31
0.0
  0
CIRCLE
  5
3F5
100
AcDbEntity
  8
0
100
AcDbCircle
 10
58.25
 20
35.75
 30
0.0
 40
2.38125
  0
LINE
  5
3F6
100
AcDbEntity
  8
0
100
AcDbLine
 10
55.2526
 20
34.25002
 30
0.0
 11
56.400556
 21
34.25003
 31
0.0
  0
LINE
  5
3F7
100
AcDbEntity
  8
0
100
AcDbLine
 10
55.388097
 20
37.25
 30
0.0
 11
56.400581
 21
37.25
 31
0.0
  0
LINE
  5
401
100
AcDbEntity
  8
0
100
AcDbLine
 10
53.85
 20
33.55
 30
0.0
 11
54.310042
 21
33.55
 31
0.0
  0
ARC
  5
407
100
AcDbEntity
  8
0
100
AcDbCircle
 10
53.85
 20
33.45
 30
0.0
 40
0.1
100
AcDbArc
 50
90.0
 51
180.0
  0
LINE
  5
40D
100
AcDbEntity
  8
0
100
AcDbLine
 10
53.95
 20
37.85002
 30
0.0
 11
54.25
 21
37.85002
 31
0.0
  0
ARC
  5
414
100
AcDbEntity
  8
0
100
AcDbCircle
 10
53.95
 20
38.05002
 30
0.0
 40
0.2
100
AcDbArc
 50
180.0
 51
270.0
  0
ARC
  5
416
100
AcDbEntity
  8
0
100
AcDbCircle
 10
54.05
 20
39.7
 30
0.0
 40
0.3
100
AcDbArc
 50
90.0
 51
180.0
  0
LINE
  5
417
100
AcDbEntity
  8
0
100
AcDbLine
 10
60.09941
 20
34.25003
 30
0.0
 11
61.24699
 21
34.25002
 31
0.0
  0
LINE
  5
418
100
AcDbEntity
  8
0
100
AcDbLine
 10
60.09942
 20
37.25
 30
0.0
 11
61.112
 21
37.25
 31
0.0
  0
LINE
  5
41D
100
AcDbEntity
  8
0
100
AcDbLine
 10
62.65
 20
33.55
 30
0.0
 11
62.19
 21
33.55
 31
0.0
  0
ARC
  5
42A
100
AcDbEntity
  8
0
100
AcDbCircle
 10
62.65
 20
33.45001
 30
0.0
 40
0.1
100
AcDbArc
 50
0.00874
 51
90.00052
  0
LINE
  5
42B
100
AcDbEntity
  8
0
100
AcDbLine
 10
62.55
 20
37.85002
 30
0.0
 11
62.25
 21
37.85002
 31
0.0
  0
ARC
  5
436
100
AcDbEntity
  8
0
100
AcDbCircle
 10
62.55
 20
38.05002
 30
0.0
 40
0.2
100
AcDbArc
 50
269.99976
 51
0.00437
  0
ARC
  5
437
100
AcDbEntity
  8
0
100
AcDbCircle
 10
62.45
 20
39.7
 30
0.0
 40
0.3
100
AcDbArc
 50
0.0
 51
90.0
  0
LINE
  5
439
100
AcDbEntity
  8
0
100
AcDbLine
 10
87.45
 20
37.85002
 30
0.0
 11
87.75
 21
37.85002
 31
0.0
  0
LINE
  5
43A
100
AcDbEntity
  8
0
100
AcDbLine
 10
87.35
 20
33.55
 30
0.0
 11
87.810042
 21
33.55
 31
0.0
  0
ARC
  5
43C
100
AcDbEntity
  8
0
100
AcDbCircle
 10
87.45
 20
38.05002
 30
0.0
 40
0.2
100
AcDbArc
 50
180.0
 51
270.0
  0
ARC
  5
43D
100
AcDbEntity
  8
0
100
AcDbCircle
 10
87.35
 20
33.45
 30
0.0
 40
0.1
100
AcDbArc
 50
90.0
 51
180.0
  0
ARC
  5
43F
100
AcDbEntity
  8
0
100
AcDbCircle
 10
87.55
 20
39.7
 30
0.0
 40
0.3
100
AcDbArc
 50
90.0
 51
180.0
  0
CIRCLE
  5
440
100
AcDbEntity
  8
0
100
AcDbCircle
 10
91.75
 20
35.75
 30
0.0
 40
2.38125
  0
LINE
  5
44A
100
AcDbEntity
  8
0
100
AcDbLine
 10
88.888097
 20
37.25
 30
0.0
 11
89.900581
 21
37.25
 31
0.0
  0
LINE
  5
458
100
AcDbEntity
  8
0
100
AcDbLine
 10
88.7526
 20
34.25002
 30
0.0
 11
89.900556
 21
34.25003
 31
0.0
  0
LINE
  5
464
100
AcDbEntity
  8
0
100
AcDbLine
 10
93.59942
 20
37.25
 30
0.0
 11
94.612
 21
37.25
 31
0.0
  0
LINE
  5
473
100
AcDbEntity
  8
0
100
AcDbLine
 10
93.59941
 20
34.25003
 30
0.0
 11
94.74699
 21
34.25002
 31
0.0
  0
ARC
  5
476
100
AcDbEntity
  8
0
100
AcDbCircle
 10
95.95
 20
31.8
 30
0.0
 40
0.3
100
AcDbArc
 50
270.0
 51
0.0
  0
ARC
  5
477
100
AcDbEntity
  8
0
100
AcDbCircle
 10
96.05
 20
38.05002
 30
0.0
 40
0.2
100
AcDbArc
 50
269.99976
 51
0.00437
  0
ARC
  5
478
100
AcDbEntity
  8
0
100
AcDbCircle
 10
96.15
 20
33.45001
 30
0.0
 40
0.1
100
AcDbArc
 50
0.00874
 51
90.00052
  0
ARC
  5
479
100
AcDbEntity
  8
0
100
AcDbCircle
 10
95.95
 20
39.7
 30
0.0
 40
0.3
100
AcDbArc
 50
0.0
 51
90.0
  0
LINE
  5
47A
100
AcDbEntity
  8
0
100
AcDbLine
 10
96.15
 20
66.45
 30
0.0
 11
95.69
 21
66.45
 31
0.0
  0
LINE
  5
47C
100
AcDbEntity
  8
0
100
AcDbLine
 10
87.55
 20
60.0
 30
0.0
 11
96.25
 21
60.0
 31
0.0
  0
LINE
  5
47D
100
AcDbEntity
  8
0
100
AcDbLine
 10
87.55
 20
68.5
 30
0.0
 11
96.25
 21
68.5
 31
0.0
  0
LINE
  5
47E
100
AcDbEntity
  8
0
100
AcDbLine
 10
62.75
 20
67.0
 30
0.0
 11
87.25
 21
67.0
 31
0.0
  0
LINE
  5
47F
100
AcDbEntity
  8
0
100
AcDbLine
 10
54.05
 20
60.0
 30
0.0
 11
62.45
 21
60.0
 31
0.0
  0
CIRCLE
  5
480
100
AcDbEntity
  8
0
100
AcDbCircle
 10
58.25
 20
64.25
 30
0.0
 40
2.38125
  0
LINE
  5
481
100
AcDbEntity
  8
0
100
AcDbLine
 10
55.388097
 20
62.75
 30
0.0
 11
56.400581
 21
62.75
 31
0.0
  0
LINE
  5
482
100
AcDbEntity
  8
0
100
AcDbLine
 10
55.2526
 20
65.74998
 30
0.0
 11
56.400556
 21
65.74997
 31
0.0
  0
ARC
  5
483
100
AcDbEntity
  8
0
100
AcDbCircle
 10
54.05
 20
60.3
 30
0.0
 40
0.3
100
AcDbArc
 50
180.0
 51
270.0
  0
ARC
  5
48A
100
AcDbEntity
  8
0
100
AcDbCircle
 10
53.95
 20
61.94998
 30
0.0
 40
0.2
100
AcDbArc
 50
90.0
 51
180.0
  0
LINE
  5
491
100
AcDbEntity
  8
0
100
AcDbLine
 10
53.95
 20
62.14998
 30
0.0
 11
54.25
 21
62.14998
 31
0.0
  0
ARC
  5
498
100
AcDbEntity
  8
0
100
AcDbCircle
 10
53.85
 20
66.55
 30
0.0
 40
0.1
100
AcDbArc
 50
180.0
 51
270.0
  0
ARC
  5
49C
100
AcDbEntity
  8
0
100
AcDbCircle
 10
54.463252
 20
66.321443
 30
0.0
 40
0.2
100
AcDbArc
 50
140.001002
 51
230.080057
  0
LINE
  5
49E
100
AcDbEntity
  8
0
100
AcDbLine
 10
53.85
 20
66.45
 30
0.0
 11
54.310042
 21
66.45
 31
0.0
  0
ARC
  5
4A2
100
AcDbEntity
  8
0
100
AcDbCircle
 10
62.45
 20
60.3
 30
0.0
 40
0.3
100
AcDbArc
 50
270.0
 51
0.0
  0
LINE
  5
4A3
100
AcDbEntity
  8
0
100
AcDbLine
 10
60.09942
 20
62.75
 30
0.0
 11
61.112
 21
62.75
 31
0.0
  0
LINE
  5
4A4
100
AcDbEntity
  8
0
100
AcDbLine
 10
60.09941
 20
65.74997
 30
0.0
 11
61.24699
 21
65.74998
 31
0.0
  0
LINE
  5
4A9
100
AcDbEntity
  8
0
100
AcDbLine
 10
62.55
 20
62.14998
 30
0.0
 11
62.25
 21
62.14998
 31
0.0
  0
ARC
  5
4B4
100
AcDbEntity
  8
0
100
AcDbCircle
 10
62.55
 20
61.94998
 30
0.0
 40
0.2
100
AcDbArc
 50
359.99563
 51
90.00024
  0
LINE
  5
4B7
100
AcDbEntity
  8
0
100
AcDbLine
 10
62.65
 20
66.45
 30
0.0
 11
62.19
 21
66.45
 31
0.0
  0
ARC
  5
4C2
100
AcDbEntity
  8
0
100
AcDbCircle
 10
62.65
 20
66.54999
 30
0.0
 40
0.1
100
AcDbArc
 50
269.99948
 51
359.99126
  0
LINE
  5
4C3
100
AcDbEntity
  8
0
100
AcDbLine
 10
53.75
 20
68.5
 30
0.0
 11
62.45
 21
68.5
 31
0.0
  0
ARC
  5
4C4
100
AcDbEntity
  8
0
100
AcDbCircle
 10
54.05
 20
68.2
 30
0.0
 40
0.3
100
AcDbArc
 50
90.0
 51
180.0
  0
ARC
  5
4C5
100
AcDbEntity
  8
0
100
AcDbCircle
 10
62.45
 20
68.2
 30
0.0
 40
0.3
100
AcDbArc
 50
0.0
 51
90.0
  0
LINE
  5
4C6
100
AcDbEntity
  8
0
100
AcDbLine
 10
87.35
 20
66.45
 30
0.0
 11
87.810042
 21
66.45
 31
0.0
  0
LINE
  5
4C7
100
AcDbEntity
  8
0
100
AcDbLine
 10
87.45
 20
62.14998
 30
0.0
 11
87.75
 21
62.14998
 31
0.0
  0
ARC
  5
4CA
100
AcDbEntity
  8
0
100
AcDbCircle
 10
87.55
 20
60.3
 30
0.0
 40
0.3
100
AcDbArc
 50
180.0
 51
270.0
  0
ARC
  5
4CB
100
AcDbEntity
  8
0
100
AcDbCircle
 10
87.35
 20
66.55
 30
0.0
 40
0.1
100
AcDbArc
 50
180.0
 51
270.0
  0
ARC
  5
4CC
100
AcDbEntity
  8
0
100
AcDbCircle
 10
87.45
 20
61.94998
 30
0.0
 40
0.2
100
AcDbArc
 50
90.0
 51
180.0
  0
CIRCLE
  5
4CE
100
AcDbEntity
  8
0
100
AcDbCircle
 10
91.75
 20
64.25
 30
0.0
 40
2.38125
  0
LINE
  5
4DB
100
AcDbEntity
  8
0
100
AcDbLine
 10
88.7526
 20
65.74998
 30
0.0
 11
89.900556
 21
65.74997
 31
0.0
  0
LINE
  5
4E6
100
AcDbEntity
  8
0
100
AcDbLine
 10
88.888097
 20
62.75
 30
0.0
 11
89.900581
 21
62.75
 31
0.0
  0
LINE
  5
4F2
100
AcDbEntity
  8
0
100
AcDbLine
 10
93.59941
 20
65.74997
 30
0.0
 11
94.74699
 21
65.74998
 31
0.0
  0
ARC
  5
4F5
100
AcDbEntity
  8
0
100
AcDbCircle
 10
94.612
 20
62.54999
 30
0.0
 40
0.2
100
AcDbArc
 50
19.88452
 51
90.00024
  0
LINE
  5
501
100
AcDbEntity
  8
0
100
AcDbLine
 10
93.59942
 20
62.75
 30
0.0
 11
94.612
 21
62.75
 31
0.0
  0
ARC
  5
504
100
AcDbEntity
  8
0
100
AcDbCircle
 10
87.55
 20
68.2
 30
0.0
 40
0.3
100
AcDbArc
 50
90.0
 51
180.0
  0
ARC
  5
505
100
AcDbEntity
  8
0
100
AcDbCircle
 10
95.95
 20
60.3
 30
0.0
 40
0.3
100
AcDbArc
 50
270.0
 51
0.0
  0
ARC
  5
506
100
AcDbEntity
  8
0
100
AcDbCircle
 10
96.15
 20
66.54999
 30
0.0
 40
0.1
100
AcDbArc
 50
269.99948
 51
359.99126
  0
ARC
  5
507
100
AcDbEntity
  8
0
100
AcDbCircle
 10
96.05
 20
61.94998
 30
0.0
 40
0.2
100
AcDbArc
 50
359.99563
 51
90.00024
  0
ARC
  5
508
100
AcDbEntity
  8
0
100
AcDbCircle
 10
95.95
 20
68.2
 30
0.0
 40
0.3
100
AcDbArc
 50
0.0
 51
90.0
  0
ENDSEC
  0
SECTION
  2
OBJECTS
  0
DICTIONARY
  5
37D
100
AcDbDictionary
  3
ACAD_GROUP
350
37E
  3
ACAD_LAYOUT
350
38A
  3
ACAD_MLINESTYLE
350
387
  3
ACAD_PLOTSETTINGS
350
389
  3
ACAD_PLOTSTYLENAME
350
37F
  3
ACDBHEADERROUNDTRIPXREC
350
515
  3
AcDbVariableDictionary
350
53D
  0
DICTIONARY
  5
50F
100
AcDbDictionary
280
     1
  3
ACAD_XREC_ROUNDTRIP
360
510
  0
DICTIONARY
  5
511
100
AcDbDictionary
280
     1
  3
ACAD_XREC_ROUNDTRIP
360
512
  0
DICTIONARY
  5
53B
100
AcDbDictionary
280
     1
  3
ACAD_XREC_ROUNDTRIP
360
53C
  0
DICTIONARY
  5
50B
100
AcDbDictionary
280
     1
  3
ACAD_LAYOUTSELFREF
360
53A
  3
ACAD_XREC_ROUNDTRIP
360
50C
  0
DICTIONARY
  5
50D
100
AcDbDictionary
280
     1
  3
ACAD_LAYOUTSELFREF
360
539
  3
ACAD_XREC_ROUNDTRIP
360
50E
  0
DICTIONARY
  5
37E
102
{ACAD_REACTORS
330
37D
102
}
100
AcDbDictionary
  0
DICTIONARY
  5
38A
102
{ACAD_XDICTIONARY
360
537
102
}
102
{ACAD_REACTORS
330
37D
102
}
100
AcDbDictionary
  3
MODEL
350
392
  3
ﾚｲｱｳﾄ1
350
38E
  0
DICTIONARY
  5
387
102
{ACAD_XDICTIONARY
360
535
102
}
102
{ACAD_REACTORS
330
37D
102
}
100
AcDbDictionary
  3
STANDARD
350
388
  0
DICTIONARY
  5
389
102
{ACAD_REACTORS
330
37D
102
}
100
AcDbDictionary
  0
ACAD_PROXY_OBJECT
  5
37F
102
{ACAD_REACTORS
330
37D
102
}
100
AcDbProxyObject
 90
      499
 91
      500
 93
       86
310
405010041939BDC9B585B0
350
380
340
380
 94
        0
  0
DICTIONARY
  5
515
102
{ACAD_REACTORS
330
37D
102
}
100
AcDbDictionary
  0
DICTIONARY
  5
53D
102
{ACAD_REACTORS
330
37D
102
}
100
AcDbDictionary
  0
XRECORD
  5
510
102
{ACAD_REACTORS
330
50F
102
}
100
AcDbXrecord
102
EXTNAMES
  1
BYBLOCK
  2
ByBlock
  0
XRECORD
  5
512
102
{ACAD_REACTORS
330
511
102
}
100
AcDbXrecord
102
EXTNAMES
  1
BYLAYER
  2
ByLayer
  0
XRECORD
  5
53C
102
{ACAD_REACTORS
330
53B
102
}
100
AcDbXrecord
102
ACADR14ROUNDTRIP
1000
DSTYLE
1002
{
1070
   279
 70
     2
1002
}
  0
XRECORD
  5
53A
102
{ACAD_REACTORS
330
50B
102
}
100
AcDbXrecord
340
38F
  0
XRECORD
  5
50C
102
{ACAD_REACTORS
330
50B
102
}
100
AcDbXrecord
102
EXTNAMES
  1
*MODEL_SPACE
  2
*Model_Space
  0
XRECORD
  5
539
102
{ACAD_REACTORS
330
50D
102
}
100
AcDbXrecord
340
38B
  0
XRECORD
  5
50E
102
{ACAD_REACTORS
330
50D
102
}
100
AcDbXrecord
102
EXTNAMES
  1
*PAPER_SPACE
  2
*Paper_Space
  0
DICTIONARY
  5
537
100
AcDbDictionary
280
     1
  0
ACAD_PROXY_OBJECT
  5
392
102
{ACAD_REACTORS
330
38A
102
}
100
AcDbProxyObject
 90
      499
 91
      502
 93
      836
310
932433A5C50524F4752414D2046494C45535C4D4454365C706C6F74746572735C526F6C616E64204458592D313235302E7063332C01AAAAAAAAA5A69054D6F64656C901A800000000000000000000000000000000000000000000A1000000000000008902A6A6AAAA0
330
38F
330
0
340
0
340
0
 94
        0
  0
ACAD_PROXY_OBJECT
  5
38E
102
{ACAD_REACTORS
330
38A
102
}
100
AcDbProxyObject
 90
      499
 91
      502
 93
     1252
310
932433A5C50524F4752414D2046494C45535C4D4454365C706C6F74746572735C526F6C616E64204458592D313235302E7063332C00AAAAAA416AA59106906DAB2B1B3C43140501A800000000000000000000000000000000000000000101E900000000000241C902A6A6A10232D5E076BC5510408CB5781DAF154410232D5
310
E076BC5510408CB5781DAF15C410232D5E076BC5710408CB5781DAF15C40
330
38B
330
0
340
0
340
0
 94
        0
  0
DICTIONARY
  5
535
100
AcDbDictionary
280
     1
  0
MLINESTYLE
  5
388
102
{ACAD_REACTORS
330
387
102
}
100
AcDbMlineStyle
  2
STANDARD
 70
     0
  3

 62
   256
 51
90.0
 52
90.0
 71
     2
 49
0.5
 62
   256
  6
BYLAYER
 49
-0.5
 62
   256
  6
BYLAYER
  0
ENDSEC
  0
EOF
