  0
SECTION
  2
HEADER
  9
$ACADVER
  1
AC1014
  9
$ACADMAINTVER
 70
     0
  9
$DWGCODEPAGE
  3
ANSI_932
  9
$INSBASE
 10
0.0
 20
0.0
 30
0.0
  9
$EXTMIN
 10
48.5
 20
23.5
 30
0.0
  9
$EXTMAX
 10
181.5
 20
76.5
 30
0.0
  9
$LIMMIN
 10
0.0
 20
0.0
  9
$LIMMAX
 10
420.0
 20
297.0
  9
$ORTHOMODE
 70
     1
  9
$REGENMODE
 70
     1
  9
$FILLMODE
 70
     1
  9
$QTEXTMODE
 70
     0
  9
$MIRRTEXT
 70
     1
  9
$DRAGMODE
 70
     2
  9
$LTSCALE
 40
0.25
  9
$OSMODE
 70
    37
  9
$ATTMODE
 70
     1
  9
$TEXTSIZE
 40
2.0
  9
$TRACEWID
 40
1.0
  9
$TEXTSTYLE
  7
STANDARD
  9
$CLAYER
  8
0
  9
$CELTYPE
  6
BYLAYER
  9
$CECOLOR
 62
   256
  9
$CELTSCALE
 40
1.0
  9
$DELOBJ
 70
     1
  9
$DISPSILH
 70
     0
  9
$DIMSCALE
 40
1.0
  9
$DIMASZ
 40
2.5
  9
$DIMEXO
 40
0.625
  9
$DIMDLI
 40
3.75
  9
$DIMRND
 40
0.0
  9
$DIMDLE
 40
0.0
  9
$DIMEXE
 40
1.25
  9
$DIMTP
 40
0.0
  9
$DIMTM
 40
0.0
  9
$DIMTXT
 40
2.5
  9
$DIMCEN
 40
2.5
  9
$DIMTSZ
 40
0.0
  9
$DIMTOL
 70
     0
  9
$DIMLIM
 70
     0
  9
$DIMTIH
 70
     0
  9
$DIMTOH
 70
     0
  9
$DIMSE1
 70
     0
  9
$DIMSE2
 70
     0
  9
$DIMTAD
 70
     1
  9
$DIMZIN
 70
     8
  9
$DIMBLK
  1

  9
$DIMASO
 70
     1
  9
$DIMSHO
 70
     1
  9
$DIMPOST
  1

  9
$DIMAPOST
  1

  9
$DIMALT
 70
     0
  9
$DIMALTD
 70
     4
  9
$DIMALTF
 40
0.0394
  9
$DIMLFAC
 40
1.0
  9
$DIMTOFL
 70
     1
  9
$DIMTVP
 40
0.0
  9
$DIMTIX
 70
     0
  9
$DIMSOXD
 70
     0
  9
$DIMSAH
 70
     0
  9
$DIMBLK1
  1

  9
$DIMBLK2
  1

  9
$DIMSTYLE
  2
ISO-25
  9
$DIMCLRD
 70
     0
  9
$DIMCLRE
 70
     0
  9
$DIMCLRT
 70
     0
  9
$DIMTFAC
 40
1.0
  9
$DIMGAP
 40
0.625
  9
$DIMJUST
 70
     0
  9
$DIMSD1
 70
     0
  9
$DIMSD2
 70
     0
  9
$DIMTOLJ
 70
     1
  9
$DIMTZIN
 70
     0
  9
$DIMALTZ
 70
     0
  9
$DIMALTTZ
 70
     0
  9
$DIMFIT
 70
     3
  9
$DIMUPT
 70
     0
  9
$DIMUNIT
 70
     2
  9
$DIMDEC
 70
     4
  9
$DIMTDEC
 70
     4
  9
$DIMALTU
 70
     2
  9
$DIMALTTD
 70
     2
  9
$DIMTXSTY
  7
STANDARD
  9
$DIMAUNIT
 70
     0
  9
$LUNITS
 70
     2
  9
$LUPREC
 70
     2
  9
$SKETCHINC
 40
1.0
  9
$FILLETRAD
 40
2.5
  9
$AUNITS
 70
     0
  9
$AUPREC
 70
     0
  9
$MENU
  1
.
  9
$ELEVATION
 40
0.0
  9
$PELEVATION
 40
0.0
  9
$THICKNESS
 40
0.0
  9
$LIMCHECK
 70
     0
  9
$BLIPMODE
 70
     0
  9
$CHAMFERA
 40
2.5
  9
$CHAMFERB
 40
2.5
  9
$CHAMFERC
 40
0.0
  9
$CHAMFERD
 40
0.0
  9
$SKPOLY
 70
     1
  9
$TDCREATE
 40
2451789.016665509
  9
$TDUPDATE
 40
2452821.805017014
  9
$TDINDWG
 40
0.0347147685
  9
$TDUSRTIMER
 40
0.0347147685
  9
$USRTIMER
 70
     1
  9
$ANGBASE
 50
0.0
  9
$ANGDIR
 70
     0
  9
$PDMODE
 70
     0
  9
$PDSIZE
 40
0.0
  9
$PLINEWID
 40
0.0
  9
$COORDS
 70
     1
  9
$SPLFRAME
 70
     0
  9
$SPLINETYPE
 70
     6
  9
$SPLINESEGS
 70
     8
  9
$ATTDIA
 70
     0
  9
$ATTREQ
 70
     1
  9
$HANDLING
 70
     1
  9
$HANDSEED
  5
543
  9
$SURFTAB1
 70
     6
  9
$SURFTAB2
 70
     6
  9
$SURFTYPE
 70
     6
  9
$SURFU
 70
     6
  9
$SURFV
 70
     6
  9
$UCSNAME
  2

  9
$UCSORG
 10
0.0
 20
0.0
 30
0.0
  9
$UCSXDIR
 10
1.0
 20
0.0
 30
0.0
  9
$UCSYDIR
 10
0.0
 20
1.0
 30
0.0
  9
$PUCSNAME
  2

  9
$PUCSORG
 10
0.0
 20
0.0
 30
0.0
  9
$PUCSXDIR
 10
1.0
 20
0.0
 30
0.0
  9
$PUCSYDIR
 10
0.0
 20
1.0
 30
0.0
  9
$USERI1
 70
     0
  9
$USERI2
 70
     0
  9
$USERI3
 70
     0
  9
$USERI4
 70
     0
  9
$USERI5
 70
     0
  9
$USERR1
 40
0.0
  9
$USERR2
 40
0.0
  9
$USERR3
 40
0.0
  9
$USERR4
 40
0.0
  9
$USERR5
 40
0.0
  9
$WORLDVIEW
 70
     1
  9
$SHADEDGE
 70
     3
  9
$SHADEDIF
 70
    70
  9
$TILEMODE
 70
     1
  9
$MAXACTVP
 70
    48
  9
$PINSBASE
 10
0.0
 20
0.0
 30
0.0
  9
$PLIMCHECK
 70
     0
  9
$PEXTMIN
 10
1.000000E+20
 20
1.000000E+20
 30
1.000000E+20
  9
$PEXTMAX
 10
-1.000000E+20
 20
-1.000000E+20
 30
-1.000000E+20
  9
$PLIMMIN
 10
0.0
 20
0.0
  9
$PLIMMAX
 10
420.0
 20
297.0
  9
$UNITMODE
 70
     0
  9
$VISRETAIN
 70
     1
  9
$PLINEGEN
 70
     0
  9
$PSLTSCALE
 70
     1
  9
$TREEDEPTH
 70
  3020
  9
$PICKSTYLE
 70
     1
  9
$CMLSTYLE
  2
STANDARD
  9
$CMLJUST
 70
     0
  9
$CMLSCALE
 40
1.0
  9
$PROXYGRAPHICS
 70
     1
  9
$MEASUREMENT
 70
     0
  0
ENDSEC
  0
SECTION
  2
CLASSES
  0
CLASS
  1
ACDBDICTIONARYWDFLT
  2
AcDbDictionaryWithDefault
  3
AutoCAD 2000
 90
        0
280
     0
281
     0
  0
CLASS
  1
ACDBPLACEHOLDER
  2
AcDbPlaceHolder
  3
AutoCAD 2000
 90
        0
280
     0
281
     0
  0
CLASS
  1
LAYOUT
  2
AcDbLayout
  3
AutoCAD 2000
 90
        0
280
     0
281
     0
  0
CLASS
  1
DICTIONARYVAR
  2
AcDbDictionaryVar
  3
"AutoCAD"
 90
        0
280
     0
281
     0
  0
CLASS
  1
LONG_TRANSACTION
  2
AcDbLongTransaction
  3
AutoCAD 2000
 90
        0
280
     0
281
     0
  0
CLASS
  1
LWPOLYLINE
  2
AcDbPolyline
  3
"AutoCAD"
 90
        0
280
     0
281
     1
  0
CLASS
  1
HATCH
  2
AcDbHatch
  3
"ACAD_SEDONA"
 90
        0
280
     0
281
     1
  0
CLASS
  1
XRECORD
  2
AcDbXrecord
  3
"<Built In>"
 90
        0
280
     0
281
     0
  0
ENDSEC
  0
SECTION
  2
TABLES
  0
TABLE
  2
VPORT
  5
379
100
AcDbSymbolTable
 70
     1
  0
VPORT
  5
50A
102
{ACAD_XDICTIONARY
360
513
102
}
100
AcDbSymbolTableRecord
100
AcDbViewportTableRecord
  2
*ACTIVE
 70
     0
 10
0.0
 20
0.0
 11
1.0
 21
1.0
 12
95.749055
 22
44.362932
 13
0.0
 23
0.0
 14
1.0
 24
1.0
 15
10.0
 25
10.0
 16
0.0
 26
0.0
 36
1.0
 17
0.0
 27
0.0
 37
0.0
 40
104.883621
 41
1.64366
 42
50.0
 43
0.0
 44
0.0
 50
0.0
 51
0.0
 71
     0
 72
   100
 73
     1
 74
     1
 75
     0
 76
     0
 77
     0
 78
     0
  0
ENDTAB
  0
TABLE
  2
LTYPE
  5
376
100
AcDbSymbolTable
 70
     2
  0
LTYPE
  5
384
102
{ACAD_XDICTIONARY
360
50F
102
}
100
AcDbSymbolTableRecord
100
AcDbLinetypeTableRecord
  2
BYBLOCK
 70
     0
  3

 72
    65
 73
     0
 40
0.0
  0
LTYPE
  5
385
102
{ACAD_XDICTIONARY
360
511
102
}
100
AcDbSymbolTableRecord
100
AcDbLinetypeTableRecord
  2
BYLAYER
 70
     0
  3

 72
    65
 73
     0
 40
0.0
  0
LTYPE
  5
386
100
AcDbSymbolTableRecord
100
AcDbLinetypeTableRecord
  2
CONTINUOUS
 70
     0
  3
Solid line
 72
    65
 73
     0
 40
0.0
  0
LTYPE
  5
394
100
AcDbSymbolTableRecord
100
AcDbLinetypeTableRecord
  2
CENTER
 70
     0
  3
Center ____ _ ____ _ ____ _ ____ _ ____ _ ____
 72
    65
 73
     4
 40
50.8
 49
31.75
 74
     0
 49
-6.35
 74
     0
 49
6.35
 74
     0
 49
-6.35
 74
     0
  0
ENDTAB
  0
TABLE
  2
LAYER
  5
373
100
AcDbSymbolTable
 70
     2
  0
LAYER
  5
381
100
AcDbSymbolTableRecord
100
AcDbLayerTableRecord
  2
0
 70
     0
 62
     7
  6
CONTINUOUS
  0
LAYER
  5
395
100
AcDbSymbolTableRecord
100
AcDbLayerTableRecord
  2
CENTER
 70
     0
 62
     1
  6
CENTER
  0
ENDTAB
  0
TABLE
  2
STYLE
  5
374
100
AcDbSymbolTable
 70
     1
  0
STYLE
  5
382
100
AcDbSymbolTableRecord
100
AcDbTextStyleTableRecord
  2
STANDARD
 70
     0
 40
0.0
 41
1.0
 50
0.0
 71
     0
 42
2.0
  3
txt.shx
  4
extfont.shx
  0
ENDTAB
  0
TABLE
  2
VIEW
  5
377
100
AcDbSymbolTable
 70
     0
  0
ENDTAB
  0
TABLE
  2
UCS
  5
378
100
AcDbSymbolTable
 70
     0
  0
ENDTAB
  0
TABLE
  2
APPID
  5
37A
100
AcDbSymbolTable
 70
     1
  0
APPID
  5
383
100
AcDbSymbolTableRecord
100
AcDbRegAppTableRecord
  2
ACAD
 70
     0
  0
ENDTAB
  0
TABLE
  2
DIMSTYLE
  5
37B
100
AcDbSymbolTable
 70
     1
  0
DIMSTYLE
105
396
102
{ACAD_XDICTIONARY
360
53B
102
}
100
AcDbSymbolTableRecord
100
AcDbDimStyleTableRecord
  2
ISO-25
 70
     0
  3

  4

  5

  6

  7

 40
1.0
 41
2.5
 42
0.625
 43
3.75
 44
1.25
 45
0.0
 46
0.0
 47
0.0
 48
0.0
140
2.5
141
2.5
142
0.0
143
0.0394
144
1.0
145
0.0
146
1.0
147
0.625
 71
     0
 72
     0
 73
     0
 74
     0
 75
     0
 76
     0
 77
     1
 78
     8
170
     0
171
     4
172
     1
173
     0
174
     0
175
     0
176
     0
177
     0
178
     0
270
     2
271
     2
272
     2
273
     2
274
     4
340
382
275
     0
280
     0
281
     0
282
     0
283
     1
284
     8
285
     8
286
     8
287
     5
288
     0
  0
ENDTAB
  0
TABLE
  2
BLOCK_RECORD
  5
372
100
AcDbSymbolTable
 70
     2
  0
BLOCK_RECORD
  5
38F
102
{ACAD_XDICTIONARY
360
50B
102
}
100
AcDbSymbolTableRecord
100
AcDbBlockTableRecord
  2
*MODEL_SPACE
  0
BLOCK_RECORD
  5
38B
102
{ACAD_XDICTIONARY
360
50D
102
}
100
AcDbSymbolTableRecord
100
AcDbBlockTableRecord
  2
*PAPER_SPACE
  0
BLOCK_RECORD
  5
399
100
AcDbSymbolTableRecord
100
AcDbBlockTableRecord
  2
$MODEL_SPACE
  0
BLOCK_RECORD
  5
39C
100
AcDbSymbolTableRecord
100
AcDbBlockTableRecord
  2
$PAPER_SPACE
  0
ENDTAB
  0
ENDSEC
  0
SECTION
  2
BLOCKS
  0
BLOCK
  5
390
100
AcDbEntity
  8
0
100
AcDbBlockBegin
  2
*MODEL_SPACE
 70
     0
 10
0.0
 20
0.0
 30
0.0
  3
*MODEL_SPACE
  1

  0
ENDBLK
  5
391
100
AcDbEntity
  8
0
100
AcDbBlockEnd
  0
BLOCK
  5
38C
100
AcDbEntity
 67
     1
  8
0
100
AcDbBlockBegin
  2
*PAPER_SPACE
 70
     0
 10
0.0
 20
0.0
 30
0.0
  3
*PAPER_SPACE
  1

  0
ENDBLK
  5
38D
100
AcDbEntity
 67
     1
  8
0
100
AcDbBlockEnd
  0
BLOCK
  5
39A
100
AcDbEntity
  8
0
100
AcDbBlockBegin
  2
$MODEL_SPACE
 70
     0
 10
0.0
 20
0.0
 30
0.0
  3
$MODEL_SPACE
  1

  0
ENDBLK
  5
39B
100
AcDbEntity
  8
0
100
AcDbBlockEnd
  0
BLOCK
  5
39D
100
AcDbEntity
  8
0
100
AcDbBlockBegin
  2
$PAPER_SPACE
 70
     0
 10
0.0
 20
0.0
 30
0.0
  3
$PAPER_SPACE
  1

  0
ENDBLK
  5
39E
100
AcDbEntity
  8
0
100
AcDbBlockEnd
  0
ENDSEC
  0
SECTION
  2
ENTITIES
  0
LINE
  5
39F
100
AcDbEntity
  8
CENTER
  6
CENTER
 62
     1
100
AcDbLine
 10
48.5
 20
50.0
 30
0.0
 11
86.5
 21
50.0
 31
0.0
  0
LINE
  5
3A0
100
AcDbEntity
  8
0
100
AcDbLine
 10
68.0
 20
65.0
 30
0.0
 11
85.0
 21
65.0
 31
0.0
  0
LINE
  5
3A1
100
AcDbEntity
  8
0
100
AcDbLine
 10
68.0
 20
35.0
 30
0.0
 11
85.0
 21
35.0
 31
0.0
  0
LINE
  5
3A2
100
AcDbEntity
  8
0
100
AcDbLine
 10
52.85
 20
62.6
 30
0.0
 11
52.85
 21
50.0
 31
0.0
  0
LINE
  5
3A3
100
AcDbEntity
  8
0
100
AcDbLine
 10
51.71
 20
50.0
 30
0.0
 11
51.71
 21
62.6
 31
0.0
  0
LINE
  5
3A4
100
AcDbEntity
  8
0
100
AcDbLine
 10
50.0
 20
50.0
 30
0.0
 11
50.0
 21
65.0
 31
0.0
  0
LINE
  5
3A7
100
AcDbEntity
  8
0
100
AcDbLine
 10
63.9
 20
34.0
 30
0.0
 11
63.9
 21
30.0
 31
0.0
  0
LINE
  5
3A8
100
AcDbEntity
  8
0
100
AcDbLine
 10
68.0
 20
25.0
 30
0.0
 11
68.0
 21
35.0
 31
0.0
  0
LINE
  5
3A9
100
AcDbEntity
  8
0
100
AcDbLine
 10
60.0
 20
35.0
 30
0.0
 11
60.0
 21
25.0
 31
0.0
  0
LINE
  5
3AA
100
AcDbEntity
  8
CENTER
  6
CENTER
 62
     1
100
AcDbLine
 10
69.5
 20
30.0
 30
0.0
 11
58.5
 21
30.0
 31
0.0
  0
LINE
  5
3AB
100
AcDbEntity
  8
0
100
AcDbLine
 10
63.9
 20
27.75
 30
0.0
 11
60.0
 21
27.75
 31
0.0
  0
LINE
  5
3AC
100
AcDbEntity
  8
0
100
AcDbLine
 10
63.9
 20
32.25
 30
0.0
 11
60.0
 21
32.25
 31
0.0
  0
LINE
  5
3AD
100
AcDbEntity
  8
0
100
AcDbLine
 10
60.0
 20
25.0
 30
0.0
 11
68.0
 21
25.0
 31
0.0
  0
LINE
  5
3AE
100
AcDbEntity
  8
0
100
AcDbLine
 10
68.0
 20
25.075846
 30
0.0
 11
60.0
 21
25.075846
 31
0.0
  0
LINE
  5
3AF
100
AcDbEntity
  8
0
100
AcDbLine
 10
63.9
 20
26.0
 30
0.0
 11
63.9
 21
30.0
 31
0.0
  0
LINE
  5
3B0
100
AcDbEntity
  8
0
100
AcDbLine
 10
68.0
 20
26.0
 30
0.0
 11
63.9
 21
26.0
 31
0.0
  0
LINE
  5
3B1
100
AcDbEntity
  8
0
100
AcDbLine
 10
51.71
 20
50.0
 30
0.0
 11
51.71
 21
37.4
 31
0.0
  0
LINE
  5
3B2
100
AcDbEntity
  8
0
100
AcDbLine
 10
52.85
 20
37.4
 30
0.0
 11
52.85
 21
50.0
 31
0.0
  0
LINE
  5
3B3
100
AcDbEntity
  8
0
100
AcDbLine
 10
50.0
 20
50.0
 30
0.0
 11
50.0
 21
35.0
 31
0.0
  0
LINE
  5
3B4
100
AcDbEntity
  8
0
100
AcDbLine
 10
50.0
 20
35.0
 30
0.0
 11
60.0
 21
35.0
 31
0.0
  0
LINE
  5
3B5
100
AcDbEntity
  8
0
100
AcDbLine
 10
50.0
 20
38.0
 30
0.0
 11
51.71
 21
38.0
 31
0.0
  0
LINE
  5
3B6
100
AcDbEntity
  8
0
100
AcDbLine
 10
51.71
 20
37.4
 30
0.0
 11
52.85
 21
37.4
 31
0.0
  0
LINE
  5
3B7
100
AcDbEntity
  8
0
100
AcDbLine
 10
68.0
 20
34.0
 30
0.0
 11
63.9
 21
34.0
 31
0.0
  0
LINE
  5
3B8
100
AcDbEntity
  8
CENTER
  6
CENTER
 62
     1
100
AcDbLine
 10
69.5
 20
70.0
 30
0.0
 11
58.5
 21
70.0
 31
0.0
  0
LINE
  5
3B9
100
AcDbEntity
  8
0
100
AcDbLine
 10
63.9
 20
67.75
 30
0.0
 11
60.0
 21
67.75
 31
0.0
  0
LINE
  5
3BA
100
AcDbEntity
  8
0
100
AcDbLine
 10
63.9
 20
72.25
 30
0.0
 11
60.0
 21
72.25
 31
0.0
  0
LINE
  5
3BB
100
AcDbEntity
  8
0
100
AcDbLine
 10
60.0
 20
75.0
 30
0.0
 11
68.0
 21
75.0
 31
0.0
  0
LINE
  5
3BC
100
AcDbEntity
  8
0
100
AcDbLine
 10
68.0
 20
74.924154
 30
0.0
 11
60.0
 21
74.924154
 31
0.0
  0
LINE
  5
3BD
100
AcDbEntity
  8
0
100
AcDbLine
 10
60.0
 20
65.0
 30
0.0
 11
60.0
 21
75.0
 31
0.0
  0
LINE
  5
3BE
100
AcDbEntity
  8
0
100
AcDbLine
 10
50.0
 20
65.0
 30
0.0
 11
60.0
 21
65.0
 31
0.0
  0
LINE
  5
3BF
100
AcDbEntity
  8
0
100
AcDbLine
 10
50.0
 20
62.0
 30
0.0
 11
51.71
 21
62.0
 31
0.0
  0
LINE
  5
3C0
100
AcDbEntity
  8
0
100
AcDbLine
 10
51.71
 20
62.6
 30
0.0
 11
52.85
 21
62.6
 31
0.0
  0
LINE
  5
3C1
100
AcDbEntity
  8
0
100
AcDbLine
 10
63.9
 20
66.0
 30
0.0
 11
63.9
 21
70.0
 31
0.0
  0
LINE
  5
3C2
100
AcDbEntity
  8
0
100
AcDbLine
 10
68.0
 20
75.0
 30
0.0
 11
68.0
 21
65.0
 31
0.0
  0
LINE
  5
3C3
100
AcDbEntity
  8
0
100
AcDbLine
 10
68.0
 20
66.0
 30
0.0
 11
63.9
 21
66.0
 31
0.0
  0
LINE
  5
3C4
100
AcDbEntity
  8
0
100
AcDbLine
 10
63.9
 20
74.0
 30
0.0
 11
63.9
 21
70.0
 31
0.0
  0
LINE
  5
3C5
100
AcDbEntity
  8
0
100
AcDbLine
 10
68.0
 20
74.0
 30
0.0
 11
63.9
 21
74.0
 31
0.0
  0
LINE
  5
3C6
100
AcDbEntity
  8
CENTER
  6
CENTER
 62
     1
100
AcDbLine
 10
155.0
 20
76.5
 30
0.0
 11
155.0
 21
23.5
 31
0.0
  0
ARC
  5
3C7
100
AcDbEntity
  8
CENTER
  6
CENTER
 62
     1
100
AcDbCircle
 10
155.0
 20
50.0
 30
0.0
 40
20.0
100
AcDbArc
 50
156.926082
 51
203.073918
  0
ARC
  5
3C8
100
AcDbEntity
  8
CENTER
  6
CENTER
 62
     1
100
AcDbCircle
 10
155.0
 20
50.0
 30
0.0
 40
20.0
100
AcDbArc
 50
336.926082
 51
23.073918
  0
LINE
  5
3C9
100
AcDbEntity
  8
0
100
AcDbLine
 10
83.29
 20
50.0
 30
0.0
 11
83.29
 21
62.6
 31
0.0
  0
LINE
  5
3CA
100
AcDbEntity
  8
0
100
AcDbLine
 10
82.15
 20
62.6
 30
0.0
 11
82.15
 21
50.0
 31
0.0
  0
LINE
  5
3CB
100
AcDbEntity
  8
0
100
AcDbLine
 10
85.0
 20
65.0
 30
0.0
 11
85.0
 21
50.0
 31
0.0
  0
LINE
  5
3CC
100
AcDbEntity
  8
0
100
AcDbLine
 10
130.075846
 20
51.945904
 30
0.0
 11
153.054096
 21
74.924154
 31
0.0
  0
CIRCLE
  5
3CD
100
AcDbEntity
  8
0
100
AcDbCircle
 10
155.0
 20
50.0
 30
0.0
 40
6.0
  0
CIRCLE
  5
3CE
100
AcDbEntity
  8
0
100
AcDbCircle
 10
155.0
 20
50.0
 30
0.0
 40
15.0
  0
LINE
  5
3CF
100
AcDbEntity
  8
0
100
AcDbLine
 10
179.924154
 20
51.945904
 30
0.0
 11
156.945904
 21
74.924154
 31
0.0
  0
CIRCLE
  5
3D0
100
AcDbEntity
  8
0
100
AcDbCircle
 10
155.0
 20
50.0
 30
0.0
 40
12.0
  0
LINE
  5
3D1
100
AcDbEntity
  8
CENTER
  6
CENTER
 62
     1
100
AcDbLine
 10
181.5
 20
50.0
 30
0.0
 11
128.5
 21
50.0
 31
0.0
  0
LINE
  5
3D2
100
AcDbEntity
  8
0
100
AcDbLine
 10
130.075846
 20
48.054096
 30
0.0
 11
153.054096
 21
25.075846
 31
0.0
  0
LINE
  5
3D3
100
AcDbEntity
  8
0
100
AcDbLine
 10
82.15
 20
37.4
 30
0.0
 11
82.15
 21
50.0
 31
0.0
  0
LINE
  5
3D4
100
AcDbEntity
  8
0
100
AcDbLine
 10
83.29
 20
50.0
 30
0.0
 11
83.29
 21
37.4
 31
0.0
  0
LINE
  5
3D5
100
AcDbEntity
  8
0
100
AcDbLine
 10
85.0
 20
35.0
 30
0.0
 11
85.0
 21
50.0
 31
0.0
  0
LINE
  5
3D6
100
AcDbEntity
  8
0
100
AcDbLine
 10
83.29
 20
37.4
 30
0.0
 11
82.15
 21
37.4
 31
0.0
  0
LINE
  5
3D7
100
AcDbEntity
  8
0
100
AcDbLine
 10
85.0
 20
38.0
 30
0.0
 11
83.29
 21
38.0
 31
0.0
  0
CIRCLE
  5
3D8
100
AcDbEntity
  8
0
100
AcDbCircle
 10
135.0
 20
50.0
 30
0.0
 40
2.25
  0
CIRCLE
  5
3D9
100
AcDbEntity
  8
0
100
AcDbCircle
 10
135.0
 20
50.0
 30
0.0
 40
4.0
  0
ARC
  5
3DA
100
AcDbEntity
  8
0
100
AcDbCircle
 10
155.0
 20
50.0
 30
0.0
 40
25.0
100
AcDbArc
 50
175.535802
 51
184.464198
  0
CIRCLE
  5
3DB
100
AcDbEntity
  8
0
100
AcDbCircle
 10
175.0
 20
50.0
 30
0.0
 40
4.0
  0
CIRCLE
  5
3DC
100
AcDbEntity
  8
0
100
AcDbCircle
 10
175.0
 20
50.0
 30
0.0
 40
2.25
  0
LINE
  5
3DD
100
AcDbEntity
  8
0
100
AcDbLine
 10
179.924154
 20
48.054096
 30
0.0
 11
156.945904
 21
25.075846
 31
0.0
  0
CIRCLE
  5
3DE
100
AcDbEntity
  8
0
100
AcDbCircle
 10
155.0
 20
30.0
 30
0.0
 40
4.0
  0
ARC
  5
3DF
100
AcDbEntity
  8
CENTER
  6
CENTER
 62
     1
100
AcDbCircle
 10
155.0
 20
50.0
 30
0.0
 40
20.0
100
AcDbArc
 50
246.926082
 51
293.073918
  0
ARC
  5
3E0
100
AcDbEntity
  8
0
100
AcDbCircle
 10
155.0
 20
50.0
 30
0.0
 40
25.0
100
AcDbArc
 50
265.535802
 51
274.464198
  0
CIRCLE
  5
3E1
100
AcDbEntity
  8
0
100
AcDbCircle
 10
155.0
 20
30.0
 30
0.0
 40
2.25
  0
ARC
  5
3E2
100
AcDbEntity
  8
0
100
AcDbCircle
 10
155.0
 20
50.0
 30
0.0
 40
25.0
100
AcDbArc
 50
355.535802
 51
4.464198
  0
LINE
  5
3E3
100
AcDbEntity
  8
0
100
AcDbLine
 10
83.29
 20
62.6
 30
0.0
 11
82.15
 21
62.6
 31
0.0
  0
LINE
  5
3E4
100
AcDbEntity
  8
0
100
AcDbLine
 10
85.0
 20
62.0
 30
0.0
 11
83.29
 21
62.0
 31
0.0
  0
ARC
  5
3E5
100
AcDbEntity
  8
CENTER
  6
CENTER
 62
     1
100
AcDbCircle
 10
155.0
 20
50.0
 30
0.0
 40
20.0
100
AcDbArc
 50
66.926082
 51
113.073918
  0
CIRCLE
  5
3E6
100
AcDbEntity
  8
0
100
AcDbCircle
 10
155.0
 20
70.0
 30
0.0
 40
4.0
  0
CIRCLE
  5
3E7
100
AcDbEntity
  8
0
100
AcDbCircle
 10
155.0
 20
70.0
 30
0.0
 40
2.25
  0
ARC
  5
3E8
100
AcDbEntity
  8
0
100
AcDbCircle
 10
155.0
 20
50.0
 30
0.0
 40
25.0
100
AcDbArc
 50
85.535802
 51
94.464198
  0
LINE
  5
3E9
100
AcDbEntity
  8
0
100
AcDbLine
 10
76.15
 20
61.7
 30
0.0
 11
76.15
 21
38.3
 31
0.0
  0
LINE
  5
3EA
100
AcDbEntity
  8
0
100
AcDbLine
 10
58.85
 20
61.7
 30
0.0
 11
58.85
 21
38.3
 31
0.0
  0
ARC
  5
3EB
100
AcDbEntity
  8
0
100
AcDbCircle
 10
80.930967
 20
42.10002
 30
0.0
 40
0.1
100
AcDbArc
 50
269.998955
 51
340.058428
  0
ARC
  5
3EC
100
AcDbEntity
  8
0
100
AcDbCircle
 10
80.897407
 20
39.90002
 30
0.0
 40
0.1
100
AcDbArc
 50
4.934961
 51
89.998885
  0
LINE
  5
3ED
100
AcDbEntity
  8
0
100
AcDbLine
 10
76.45
 20
38.0
 30
0.0
 11
82.15
 21
38.0
 31
0.0
  0
LINE
  5
3EE
100
AcDbEntity
  8
0
100
AcDbLine
 10
76.45
 20
44.0
 30
0.0
 11
81.85
 21
44.0
 31
0.0
  0
LINE
  5
3EF
100
AcDbEntity
  8
0
100
AcDbLine
 10
54.069034
 20
42.00002
 30
0.0
 11
54.617078
 21
42.00003
 31
0.0
  0
LINE
  5
3F0
100
AcDbEntity
  8
0
100
AcDbLine
 10
54.102591
 20
40.00002
 30
0.0
 11
54.61706
 21
40.00003
 31
0.0
  0
LINE
  5
3F1
100
AcDbEntity
  8
0
100
AcDbLine
 10
53.15
 20
44.0
 30
0.0
 11
58.55
 21
44.0
 31
0.0
  0
LINE
  5
3F2
100
AcDbEntity
  8
0
100
AcDbLine
 10
52.85
 20
38.0
 30
0.0
 11
58.55
 21
38.0
 31
0.0
  0
CIRCLE
  5
3F3
100
AcDbEntity
  8
0
100
AcDbCircle
 10
55.85
 20
41.0
 30
0.0
 40
1.5875
  0
ARC
  5
3F4
100
AcDbEntity
  8
0
100
AcDbCircle
 10
53.15
 20
38.3
 30
0.0
 40
0.3
100
AcDbArc
 50
180.0
 51
270.0
  0
ARC
  5
3F5
100
AcDbEntity
  8
0
100
AcDbCircle
 10
52.95
 20
39.20002
 30
0.0
 40
0.1
100
AcDbArc
 50
90.0
 51
180.0
  0
ARC
  5
3F6
100
AcDbEntity
  8
0
100
AcDbCircle
 10
53.649551
 20
39.302944
 30
0.0
 40
0.1
100
AcDbArc
 50
220.037185
 51
356.913561
  0
LINE
  5
3F7
100
AcDbEntity
  8
0
100
AcDbLine
 10
53.26009
 20
39.29988
 30
0.0
 11
53.41973
 21
39.109683
 31
0.0
  0
LINE
  5
3F8
100
AcDbEntity
  8
0
100
AcDbLine
 10
53.413
 20
39.42903
 30
0.0
 11
53.572988
 21
39.238615
 31
0.0
  0
LINE
  5
3F9
100
AcDbEntity
  8
0
100
AcDbLine
 10
53.948404
 20
39.276743
 30
0.0
 11
54.002964
 21
39.908622
 31
0.0
  0
ARC
  5
3FA
100
AcDbEntity
  8
0
100
AcDbCircle
 10
53.649516
 20
39.302551
 30
0.0
 40
0.3
100
AcDbArc
 50
220.007904
 51
355.065039
  0
LINE
  5
3FB
100
AcDbEntity
  8
0
100
AcDbLine
 10
53.082
 20
40.33902
 30
0.0
 11
53.082
 21
41.95001
 31
0.0
  0
LINE
  5
3FC
100
AcDbEntity
  8
0
100
AcDbLine
 10
53.282
 20
40.45001
 30
0.0
 11
53.282
 21
41.95001
 31
0.0
  0
LINE
  5
3FD
100
AcDbEntity
  8
0
100
AcDbLine
 10
53.78202
 20
39.90205
 30
0.0
 11
53.08202
 21
40.33907
 31
0.0
  0
LINE
  5
3FE
100
AcDbEntity
  8
0
100
AcDbLine
 10
52.95
 20
39.30002
 30
0.0
 11
53.26
 21
39.30002
 31
0.0
  0
LINE
  5
3FF
100
AcDbEntity
  8
0
100
AcDbLine
 10
53.982
 20
40.01303
 30
0.0
 11
53.282
 21
40.45003
 31
0.0
  0
LINE
  5
400
100
AcDbEntity
  8
0
100
AcDbLine
 10
53.55502
 20
39.57002
 30
0.0
 11
53.41302
 21
39.42903
 31
0.0
  0
LINE
  5
401
100
AcDbEntity
  8
0
100
AcDbLine
 10
53.41301
 20
39.71103
 30
0.0
 11
53.55501
 21
39.57002
 31
0.0
  0
LINE
  5
402
100
AcDbEntity
  8
0
100
AcDbLine
 10
53.41301
 20
39.71104
 30
0.0
 11
53.271855
 21
39.569875
 31
0.0
  0
ARC
  5
403
100
AcDbEntity
  8
0
100
AcDbCircle
 10
53.413282
 20
39.428459
 30
0.0
 40
0.2
100
AcDbArc
 50
135.002032
 51
220.007904
  0
LINE
  5
404
100
AcDbEntity
  8
0
100
AcDbLine
 10
53.982
 20
39.666
 30
0.0
 11
53.982
 21
40.013
 31
0.0
  0
LINE
  5
405
100
AcDbEntity
  8
0
100
AcDbLine
 10
53.749405
 20
39.297559
 30
0.0
 11
53.782
 21
39.90205
 31
0.0
  0
ARC
  5
406
100
AcDbEntity
  8
0
100
AcDbCircle
 10
54.102593
 20
39.90002
 30
0.0
 40
0.1
100
AcDbArc
 50
90.001115
 51
175.065039
  0
LINE
  5
407
100
AcDbEntity
  8
0
100
AcDbLine
 10
52.95
 20
42.3
 30
0.0
 11
53.2
 21
42.3
 31
0.0
  0
ARC
  5
408
100
AcDbEntity
  8
0
100
AcDbCircle
 10
53.282
 20
41.95001
 30
0.0
 40
0.2
100
AcDbArc
 50
90.0
 51
180.0
  0
ARC
  5
409
100
AcDbEntity
  8
0
100
AcDbCircle
 10
52.95
 20
42.4
 30
0.0
 40
0.1
100
AcDbArc
 50
180.0
 51
270.0
  0
LINE
  5
40A
100
AcDbEntity
  8
0
100
AcDbLine
 10
53.810924
 20
42.518222
 30
0.0
 11
53.975029
 21
42.065914
 31
0.0
  0
LINE
  5
40B
100
AcDbEntity
  8
0
100
AcDbLine
 10
53.586841
 20
42.65001
 30
0.0
 11
53.622916
 21
42.65001
 31
0.0
  0
LINE
  5
40C
100
AcDbEntity
  8
0
100
AcDbLine
 10
53.2
 20
42.3
 30
0.0
 11
53.433601
 21
42.578531
 31
0.0
  0
ARC
  5
40D
100
AcDbEntity
  8
0
100
AcDbCircle
 10
53.586841
 20
42.45001
 30
0.0
 40
0.2
100
AcDbArc
 50
90.0
 51
140.013736
  0
ARC
  5
40E
100
AcDbEntity
  8
0
100
AcDbCircle
 10
53.622916
 20
42.45001
 30
0.0
 40
0.2
100
AcDbArc
 50
19.941572
 51
90.0
  0
LINE
  5
40F
100
AcDbEntity
  8
0
100
AcDbLine
 10
53.732
 20
41.95001
 30
0.0
 11
53.282
 21
41.95001
 31
0.0
  0
LINE
  5
410
100
AcDbEntity
  8
0
100
AcDbLine
 10
53.282
 20
42.15001
 30
0.0
 11
53.732
 21
42.15001
 31
0.0
  0
LINE
  5
411
100
AcDbEntity
  8
0
100
AcDbLine
 10
53.732
 20
42.15001
 30
0.0
 11
53.732
 21
41.95003
 31
0.0
  0
ARC
  5
412
100
AcDbEntity
  8
0
100
AcDbCircle
 10
54.069033
 20
42.10002
 30
0.0
 40
0.1
100
AcDbArc
 50
199.941572
 51
270.001045
  0
ARC
  5
413
100
AcDbEntity
  8
0
100
AcDbCircle
 10
53.15
 20
43.7
 30
0.0
 40
0.3
100
AcDbArc
 50
90.0
 51
180.0
  0
LINE
  5
414
100
AcDbEntity
  8
0
100
AcDbLine
 10
58.85
 20
39.5
 30
0.0
 11
76.15
 21
39.5
 31
0.0
  0
ARC
  5
415
100
AcDbEntity
  8
0
100
AcDbCircle
 10
58.55
 20
38.3
 30
0.0
 40
0.3
100
AcDbArc
 50
270.0
 51
0.0
  0
LINE
  5
416
100
AcDbEntity
  8
0
100
AcDbLine
 10
58.75
 20
39.30002
 30
0.0
 11
58.44
 21
39.30002
 31
0.0
  0
LINE
  5
417
100
AcDbEntity
  8
0
100
AcDbLine
 10
58.75
 20
42.3
 30
0.0
 11
58.5
 21
42.3
 31
0.0
  0
ARC
  5
418
100
AcDbEntity
  8
0
100
AcDbCircle
 10
58.418
 20
41.95001
 30
0.0
 40
0.2
100
AcDbArc
 50
0.0
 51
90.0
  0
ARC
  5
419
100
AcDbEntity
  8
0
100
AcDbCircle
 10
58.55
 20
43.7
 30
0.0
 40
0.3
100
AcDbArc
 50
0.0
 51
90.0
  0
LINE
  5
41A
100
AcDbEntity
  8
0
100
AcDbLine
 10
57.597409
 20
40.00002
 30
0.0
 11
57.08294
 21
40.00003
 31
0.0
  0
LINE
  5
41B
100
AcDbEntity
  8
0
100
AcDbLine
 10
57.630966
 20
42.00002
 30
0.0
 11
57.082922
 21
42.00003
 31
0.0
  0
LINE
  5
41C
100
AcDbEntity
  8
0
100
AcDbLine
 10
57.751596
 20
39.276743
 30
0.0
 11
57.697036
 21
39.908622
 31
0.0
  0
LINE
  5
41D
100
AcDbEntity
  8
0
100
AcDbLine
 10
58.43991
 20
39.29988
 30
0.0
 11
58.28027
 21
39.109683
 31
0.0
  0
ARC
  5
41E
100
AcDbEntity
  8
0
100
AcDbCircle
 10
58.050449
 20
39.302944
 30
0.0
 40
0.1
100
AcDbArc
 50
183.086439
 51
319.962815
  0
LINE
  5
41F
100
AcDbEntity
  8
0
100
AcDbLine
 10
58.287
 20
39.42903
 30
0.0
 11
58.127012
 21
39.238615
 31
0.0
  0
ARC
  5
420
100
AcDbEntity
  8
0
100
AcDbCircle
 10
58.050484
 20
39.302551
 30
0.0
 40
0.3
100
AcDbArc
 50
184.934961
 51
319.992096
  0
LINE
  5
421
100
AcDbEntity
  8
0
100
AcDbLine
 10
58.618
 20
40.33902
 30
0.0
 11
58.618
 21
41.95001
 31
0.0
  0
LINE
  5
422
100
AcDbEntity
  8
0
100
AcDbLine
 10
58.418
 20
40.45001
 30
0.0
 11
58.418
 21
41.95001
 31
0.0
  0
LINE
  5
423
100
AcDbEntity
  8
0
100
AcDbLine
 10
57.718
 20
40.01303
 30
0.0
 11
58.418
 21
40.45003
 31
0.0
  0
LINE
  5
424
100
AcDbEntity
  8
0
100
AcDbLine
 10
57.91798
 20
39.90205
 30
0.0
 11
58.61798
 21
40.33907
 31
0.0
  0
ARC
  5
425
100
AcDbEntity
  8
0
100
AcDbCircle
 10
57.597407
 20
39.90002
 30
0.0
 40
0.1
100
AcDbArc
 50
4.934961
 51
89.998885
  0
LINE
  5
426
100
AcDbEntity
  8
0
100
AcDbLine
 10
57.718
 20
39.666
 30
0.0
 11
57.718
 21
40.013
 31
0.0
  0
ARC
  5
427
100
AcDbEntity
  8
0
100
AcDbCircle
 10
58.286718
 20
39.428459
 30
0.0
 40
0.2
100
AcDbArc
 50
319.992096
 51
44.997968
  0
LINE
  5
428
100
AcDbEntity
  8
0
100
AcDbLine
 10
58.28699
 20
39.71104
 30
0.0
 11
58.428145
 21
39.569875
 31
0.0
  0
LINE
  5
429
100
AcDbEntity
  8
0
100
AcDbLine
 10
57.950595
 20
39.297559
 30
0.0
 11
57.918
 21
39.90205
 31
0.0
  0
LINE
  5
42A
100
AcDbEntity
  8
0
100
AcDbLine
 10
58.28699
 20
39.71103
 30
0.0
 11
58.14499
 21
39.57002
 31
0.0
  0
LINE
  5
42B
100
AcDbEntity
  8
0
100
AcDbLine
 10
58.14498
 20
39.57002
 30
0.0
 11
58.28698
 21
39.42903
 31
0.0
  0
LINE
  5
42C
100
AcDbEntity
  8
0
100
AcDbLine
 10
57.889076
 20
42.518222
 30
0.0
 11
57.724971
 21
42.065914
 31
0.0
  0
LINE
  5
42D
100
AcDbEntity
  8
0
100
AcDbLine
 10
58.5
 20
42.3
 30
0.0
 11
58.266399
 21
42.578531
 31
0.0
  0
ARC
  5
42E
100
AcDbEntity
  8
0
100
AcDbCircle
 10
58.077084
 20
42.45001
 30
0.0
 40
0.2
100
AcDbArc
 50
90.0
 51
160.058428
  0
LINE
  5
42F
100
AcDbEntity
  8
0
100
AcDbLine
 10
58.113159
 20
42.65001
 30
0.0
 11
58.077084
 21
42.65001
 31
0.0
  0
ARC
  5
430
100
AcDbEntity
  8
0
100
AcDbCircle
 10
58.113159
 20
42.45001
 30
0.0
 40
0.2
100
AcDbArc
 50
39.986264
 51
90.0
  0
ARC
  5
431
100
AcDbEntity
  8
0
100
AcDbCircle
 10
57.630967
 20
42.10002
 30
0.0
 40
0.1
100
AcDbArc
 50
269.998955
 51
340.058428
  0
LINE
  5
432
100
AcDbEntity
  8
0
100
AcDbLine
 10
57.968
 20
42.15001
 30
0.0
 11
57.968
 21
41.95003
 31
0.0
  0
LINE
  5
433
100
AcDbEntity
  8
0
100
AcDbLine
 10
58.418
 20
42.15001
 30
0.0
 11
57.968
 21
42.15001
 31
0.0
  0
LINE
  5
434
100
AcDbEntity
  8
0
100
AcDbLine
 10
57.968
 20
41.95001
 30
0.0
 11
58.418
 21
41.95001
 31
0.0
  0
ARC
  5
435
100
AcDbEntity
  8
0
100
AcDbCircle
 10
58.75
 20
39.20002
 30
0.0
 40
0.1
100
AcDbArc
 50
0.0
 51
90.0
  0
ARC
  5
436
100
AcDbEntity
  8
0
100
AcDbCircle
 10
58.75
 20
42.4
 30
0.0
 40
0.1
100
AcDbArc
 50
270.0
 51
0.0
  0
ARC
  5
437
100
AcDbEntity
  8
0
100
AcDbCircle
 10
76.45
 20
38.3
 30
0.0
 40
0.3
100
AcDbArc
 50
180.0
 51
270.0
  0
LINE
  5
438
100
AcDbEntity
  8
0
100
AcDbLine
 10
76.582
 20
42.15001
 30
0.0
 11
77.032
 21
42.15001
 31
0.0
  0
LINE
  5
439
100
AcDbEntity
  8
0
100
AcDbLine
 10
77.032
 20
41.95001
 30
0.0
 11
76.582
 21
41.95001
 31
0.0
  0
ARC
  5
43A
100
AcDbEntity
  8
0
100
AcDbCircle
 10
76.886841
 20
42.45001
 30
0.0
 40
0.2
100
AcDbArc
 50
90.0
 51
140.013736
  0
LINE
  5
43B
100
AcDbEntity
  8
0
100
AcDbLine
 10
76.71301
 20
39.71103
 30
0.0
 11
76.85501
 21
39.57002
 31
0.0
  0
LINE
  5
43C
100
AcDbEntity
  8
0
100
AcDbLine
 10
76.85502
 20
39.57002
 30
0.0
 11
76.71302
 21
39.42903
 31
0.0
  0
LINE
  5
43D
100
AcDbEntity
  8
0
100
AcDbLine
 10
77.282
 20
40.01303
 30
0.0
 11
76.582
 21
40.45003
 31
0.0
  0
LINE
  5
43E
100
AcDbEntity
  8
0
100
AcDbLine
 10
77.08202
 20
39.90205
 30
0.0
 11
76.38202
 21
40.33907
 31
0.0
  0
ARC
  5
43F
100
AcDbEntity
  8
0
100
AcDbCircle
 10
76.949516
 20
39.302551
 30
0.0
 40
0.3
100
AcDbArc
 50
220.007904
 51
355.065039
  0
LINE
  5
440
100
AcDbEntity
  8
0
100
AcDbLine
 10
76.713
 20
39.42903
 30
0.0
 11
76.872988
 21
39.238615
 31
0.0
  0
ARC
  5
441
100
AcDbEntity
  8
0
100
AcDbCircle
 10
76.45
 20
43.7
 30
0.0
 40
0.3
100
AcDbArc
 50
90.0
 51
180.0
  0
LINE
  5
442
100
AcDbEntity
  8
0
100
AcDbLine
 10
76.5
 20
42.3
 30
0.0
 11
76.733601
 21
42.578531
 31
0.0
  0
ARC
  5
443
100
AcDbEntity
  8
0
100
AcDbCircle
 10
76.25
 20
42.4
 30
0.0
 40
0.1
100
AcDbArc
 50
180.0
 51
270.0
  0
ARC
  5
444
100
AcDbEntity
  8
0
100
AcDbCircle
 10
76.582
 20
41.95001
 30
0.0
 40
0.2
100
AcDbArc
 50
90.0
 51
180.0
  0
LINE
  5
445
100
AcDbEntity
  8
0
100
AcDbLine
 10
76.25
 20
42.3
 30
0.0
 11
76.5
 21
42.3
 31
0.0
  0
ARC
  5
446
100
AcDbEntity
  8
0
100
AcDbCircle
 10
76.713282
 20
39.428459
 30
0.0
 40
0.2
100
AcDbArc
 50
135.002032
 51
220.007904
  0
LINE
  5
447
100
AcDbEntity
  8
0
100
AcDbLine
 10
76.71301
 20
39.71104
 30
0.0
 11
76.571855
 21
39.569875
 31
0.0
  0
LINE
  5
448
100
AcDbEntity
  8
0
100
AcDbLine
 10
76.25
 20
39.30002
 30
0.0
 11
76.56
 21
39.30002
 31
0.0
  0
LINE
  5
449
100
AcDbEntity
  8
0
100
AcDbLine
 10
76.56009
 20
39.29988
 30
0.0
 11
76.71973
 21
39.109683
 31
0.0
  0
ARC
  5
44A
100
AcDbEntity
  8
0
100
AcDbCircle
 10
76.25
 20
39.20002
 30
0.0
 40
0.1
100
AcDbArc
 50
90.0
 51
180.0
  0
LINE
  5
44B
100
AcDbEntity
  8
0
100
AcDbLine
 10
76.582
 20
40.45001
 30
0.0
 11
76.582
 21
41.95001
 31
0.0
  0
LINE
  5
44C
100
AcDbEntity
  8
0
100
AcDbLine
 10
76.382
 20
40.33902
 30
0.0
 11
76.382
 21
41.95001
 31
0.0
  0
LINE
  5
44D
100
AcDbEntity
  8
0
100
AcDbLine
 10
80.930966
 20
42.00002
 30
0.0
 11
80.382922
 21
42.00003
 31
0.0
  0
LINE
  5
44E
100
AcDbEntity
  8
0
100
AcDbLine
 10
80.897409
 20
40.00002
 30
0.0
 11
80.38294
 21
40.00003
 31
0.0
  0
ARC
  5
44F
100
AcDbEntity
  8
0
100
AcDbCircle
 10
77.369033
 20
42.10002
 30
0.0
 40
0.1
100
AcDbArc
 50
199.941572
 51
270.001045
  0
LINE
  5
450
100
AcDbEntity
  8
0
100
AcDbLine
 10
77.032
 20
42.15001
 30
0.0
 11
77.032
 21
41.95003
 31
0.0
  0
ARC
  5
451
100
AcDbEntity
  8
0
100
AcDbCircle
 10
76.922916
 20
42.45001
 30
0.0
 40
0.2
100
AcDbArc
 50
19.941572
 51
90.0
  0
LINE
  5
452
100
AcDbEntity
  8
0
100
AcDbLine
 10
76.886841
 20
42.65001
 30
0.0
 11
76.922916
 21
42.65001
 31
0.0
  0
LINE
  5
453
100
AcDbEntity
  8
0
100
AcDbLine
 10
77.110924
 20
42.518222
 30
0.0
 11
77.275029
 21
42.065914
 31
0.0
  0
LINE
  5
454
100
AcDbEntity
  8
0
100
AcDbLine
 10
77.369034
 20
42.00002
 30
0.0
 11
77.917078
 21
42.00003
 31
0.0
  0
ARC
  5
455
100
AcDbEntity
  8
0
100
AcDbCircle
 10
77.402593
 20
39.90002
 30
0.0
 40
0.1
100
AcDbArc
 50
90.001115
 51
175.065039
  0
LINE
  5
456
100
AcDbEntity
  8
0
100
AcDbLine
 10
77.049405
 20
39.297559
 30
0.0
 11
77.082
 21
39.90205
 31
0.0
  0
LINE
  5
457
100
AcDbEntity
  8
0
100
AcDbLine
 10
77.282
 20
39.666
 30
0.0
 11
77.282
 21
40.013
 31
0.0
  0
LINE
  5
458
100
AcDbEntity
  8
0
100
AcDbLine
 10
77.402591
 20
40.00002
 30
0.0
 11
77.91706
 21
40.00003
 31
0.0
  0
LINE
  5
459
100
AcDbEntity
  8
0
100
AcDbLine
 10
77.248404
 20
39.276743
 30
0.0
 11
77.302964
 21
39.908622
 31
0.0
  0
ARC
  5
45A
100
AcDbEntity
  8
0
100
AcDbCircle
 10
76.949551
 20
39.302944
 30
0.0
 40
0.1
100
AcDbArc
 50
220.037185
 51
356.913561
  0
CIRCLE
  5
45B
100
AcDbEntity
  8
0
100
AcDbCircle
 10
79.15
 20
41.0
 30
0.0
 40
1.5875
  0
ARC
  5
45C
100
AcDbEntity
  8
0
100
AcDbCircle
 10
81.85
 20
38.3
 30
0.0
 40
0.3
100
AcDbArc
 50
270.0
 51
0.0
  0
ARC
  5
45D
100
AcDbEntity
  8
0
100
AcDbCircle
 10
81.85
 20
43.7
 30
0.0
 40
0.3
100
AcDbArc
 50
0.0
 51
90.0
  0
LINE
  5
45E
100
AcDbEntity
  8
0
100
AcDbLine
 10
81.268
 20
41.95001
 30
0.0
 11
81.718
 21
41.95001
 31
0.0
  0
LINE
  5
45F
100
AcDbEntity
  8
0
100
AcDbLine
 10
81.718
 20
42.15001
 30
0.0
 11
81.268
 21
42.15001
 31
0.0
  0
LINE
  5
460
100
AcDbEntity
  8
0
100
AcDbLine
 10
81.268
 20
42.15001
 30
0.0
 11
81.268
 21
41.95003
 31
0.0
  0
ARC
  5
461
100
AcDbEntity
  8
0
100
AcDbCircle
 10
81.718
 20
41.95001
 30
0.0
 40
0.2
100
AcDbArc
 50
0.0
 51
90.0
  0
ARC
  5
462
100
AcDbEntity
  8
0
100
AcDbCircle
 10
82.05
 20
42.4
 30
0.0
 40
0.1
100
AcDbArc
 50
270.0
 51
0.0
  0
ARC
  5
463
100
AcDbEntity
  8
0
100
AcDbCircle
 10
81.413159
 20
42.45001
 30
0.0
 40
0.2
100
AcDbArc
 50
39.986264
 51
90.0
  0
LINE
  5
464
100
AcDbEntity
  8
0
100
AcDbLine
 10
81.413159
 20
42.65001
 30
0.0
 11
81.377084
 21
42.65001
 31
0.0
  0
ARC
  5
465
100
AcDbEntity
  8
0
100
AcDbCircle
 10
81.377084
 20
42.45001
 30
0.0
 40
0.2
100
AcDbArc
 50
90.0
 51
160.058428
  0
LINE
  5
466
100
AcDbEntity
  8
0
100
AcDbLine
 10
81.8
 20
42.3
 30
0.0
 11
81.566399
 21
42.578531
 31
0.0
  0
LINE
  5
467
100
AcDbEntity
  8
0
100
AcDbLine
 10
82.05
 20
42.3
 30
0.0
 11
81.8
 21
42.3
 31
0.0
  0
LINE
  5
468
100
AcDbEntity
  8
0
100
AcDbLine
 10
81.189076
 20
42.518222
 30
0.0
 11
81.024971
 21
42.065914
 31
0.0
  0
LINE
  5
469
100
AcDbEntity
  8
0
100
AcDbLine
 10
81.44498
 20
39.57002
 30
0.0
 11
81.58698
 21
39.42903
 31
0.0
  0
LINE
  5
46A
100
AcDbEntity
  8
0
100
AcDbLine
 10
81.58699
 20
39.71103
 30
0.0
 11
81.44499
 21
39.57002
 31
0.0
  0
LINE
  5
46B
100
AcDbEntity
  8
0
100
AcDbLine
 10
81.250595
 20
39.297559
 30
0.0
 11
81.218
 21
39.90205
 31
0.0
  0
LINE
  5
46C
100
AcDbEntity
  8
0
100
AcDbLine
 10
81.58699
 20
39.71104
 30
0.0
 11
81.728145
 21
39.569875
 31
0.0
  0
ARC
  5
46D
100
AcDbEntity
  8
0
100
AcDbCircle
 10
81.586718
 20
39.428459
 30
0.0
 40
0.2
100
AcDbArc
 50
319.992096
 51
44.997968
  0
LINE
  5
46E
100
AcDbEntity
  8
0
100
AcDbLine
 10
81.018
 20
39.666
 30
0.0
 11
81.018
 21
40.013
 31
0.0
  0
LINE
  5
46F
100
AcDbEntity
  8
0
100
AcDbLine
 10
82.05
 20
39.30002
 30
0.0
 11
81.74
 21
39.30002
 31
0.0
  0
LINE
  5
470
100
AcDbEntity
  8
0
100
AcDbLine
 10
81.21798
 20
39.90205
 30
0.0
 11
81.91798
 21
40.33907
 31
0.0
  0
LINE
  5
471
100
AcDbEntity
  8
0
100
AcDbLine
 10
81.018
 20
40.01303
 30
0.0
 11
81.718
 21
40.45003
 31
0.0
  0
ARC
  5
472
100
AcDbEntity
  8
0
100
AcDbCircle
 10
81.350484
 20
39.302551
 30
0.0
 40
0.3
100
AcDbArc
 50
184.934961
 51
319.992096
  0
ARC
  5
473
100
AcDbEntity
  8
0
100
AcDbCircle
 10
82.05
 20
39.20002
 30
0.0
 40
0.1
100
AcDbArc
 50
0.0
 51
90.0
  0
LINE
  5
474
100
AcDbEntity
  8
0
100
AcDbLine
 10
81.587
 20
39.42903
 30
0.0
 11
81.427012
 21
39.238615
 31
0.0
  0
ARC
  5
475
100
AcDbEntity
  8
0
100
AcDbCircle
 10
81.350449
 20
39.302944
 30
0.0
 40
0.1
100
AcDbArc
 50
183.086439
 51
319.962815
  0
LINE
  5
476
100
AcDbEntity
  8
0
100
AcDbLine
 10
81.73991
 20
39.29988
 30
0.0
 11
81.58027
 21
39.109683
 31
0.0
  0
LINE
  5
477
100
AcDbEntity
  8
0
100
AcDbLine
 10
81.051596
 20
39.276743
 30
0.0
 11
80.997036
 21
39.908622
 31
0.0
  0
LINE
  5
478
100
AcDbEntity
  8
0
100
AcDbLine
 10
81.718
 20
40.45001
 30
0.0
 11
81.718
 21
41.95001
 31
0.0
  0
LINE
  5
479
100
AcDbEntity
  8
0
100
AcDbLine
 10
81.918
 20
40.33902
 30
0.0
 11
81.918
 21
41.95001
 31
0.0
  0
ARC
  5
47A
100
AcDbEntity
  8
0
100
AcDbCircle
 10
80.897407
 20
60.09998
 30
0.0
 40
0.1
100
AcDbArc
 50
270.001115
 51
355.065039
  0
LINE
  5
47B
100
AcDbEntity
  8
0
100
AcDbLine
 10
76.45
 20
62.0
 30
0.0
 11
82.15
 21
62.0
 31
0.0
  0
ARC
  5
47C
100
AcDbEntity
  8
0
100
AcDbCircle
 10
80.930967
 20
57.89998
 30
0.0
 40
0.1
100
AcDbArc
 50
19.941572
 51
90.001045
  0
LINE
  5
47D
100
AcDbEntity
  8
0
100
AcDbLine
 10
76.45
 20
56.0
 30
0.0
 11
81.85
 21
56.0
 31
0.0
  0
LINE
  5
47E
100
AcDbEntity
  8
0
100
AcDbLine
 10
54.069034
 20
57.99998
 30
0.0
 11
54.617078
 21
57.99997
 31
0.0
  0
LINE
  5
47F
100
AcDbEntity
  8
0
100
AcDbLine
 10
54.102591
 20
59.99998
 30
0.0
 11
54.61706
 21
59.99997
 31
0.0
  0
LINE
  5
480
100
AcDbEntity
  8
0
100
AcDbLine
 10
52.85
 20
62.0
 30
0.0
 11
58.55
 21
62.0
 31
0.0
  0
LINE
  5
481
100
AcDbEntity
  8
0
100
AcDbLine
 10
53.15
 20
56.0
 30
0.0
 11
58.55
 21
56.0
 31
0.0
  0
CIRCLE
  5
482
100
AcDbEntity
  8
0
100
AcDbCircle
 10
55.85
 20
59.0
 30
0.0
 40
1.5875
  0
LINE
  5
483
100
AcDbEntity
  8
0
100
AcDbLine
 10
53.982
 20
59.98697
 30
0.0
 11
53.282
 21
59.54997
 31
0.0
  0
LINE
  5
484
100
AcDbEntity
  8
0
100
AcDbLine
 10
53.78202
 20
60.09795
 30
0.0
 11
53.08202
 21
59.66093
 31
0.0
  0
LINE
  5
485
100
AcDbEntity
  8
0
100
AcDbLine
 10
53.810924
 20
57.481778
 30
0.0
 11
53.975029
 21
57.934086
 31
0.0
  0
LINE
  5
486
100
AcDbEntity
  8
0
100
AcDbLine
 10
52.95
 20
57.7
 30
0.0
 11
53.2
 21
57.7
 31
0.0
  0
ARC
  5
487
100
AcDbEntity
  8
0
100
AcDbCircle
 10
53.15
 20
56.3
 30
0.0
 40
0.3
100
AcDbArc
 50
180.0
 51
270.0
  0
ARC
  5
488
100
AcDbEntity
  8
0
100
AcDbCircle
 10
52.95
 20
57.6
 30
0.0
 40
0.1
100
AcDbArc
 50
90.0
 51
180.0
  0
ARC
  5
489
100
AcDbEntity
  8
0
100
AcDbCircle
 10
53.622916
 20
57.54999
 30
0.0
 40
0.2
100
AcDbArc
 50
270.0
 51
340.058428
  0
ARC
  5
48A
100
AcDbEntity
  8
0
100
AcDbCircle
 10
53.586841
 20
57.54999
 30
0.0
 40
0.2
100
AcDbArc
 50
219.986264
 51
270.0
  0
LINE
  5
48B
100
AcDbEntity
  8
0
100
AcDbLine
 10
53.2
 20
57.7
 30
0.0
 11
53.433601
 21
57.421469
 31
0.0
  0
LINE
  5
48C
100
AcDbEntity
  8
0
100
AcDbLine
 10
53.586841
 20
57.34999
 30
0.0
 11
53.622916
 21
57.34999
 31
0.0
  0
ARC
  5
48D
100
AcDbEntity
  8
0
100
AcDbCircle
 10
53.282
 20
58.04999
 30
0.0
 40
0.2
100
AcDbArc
 50
180.0
 51
270.0
  0
LINE
  5
48E
100
AcDbEntity
  8
0
100
AcDbLine
 10
53.082
 20
59.66098
 30
0.0
 11
53.082
 21
58.04999
 31
0.0
  0
ARC
  5
48F
100
AcDbEntity
  8
0
100
AcDbCircle
 10
54.069033
 20
57.89998
 30
0.0
 40
0.1
100
AcDbArc
 50
89.998955
 51
160.058428
  0
LINE
  5
490
100
AcDbEntity
  8
0
100
AcDbLine
 10
53.732
 20
57.84999
 30
0.0
 11
53.732
 21
58.04997
 31
0.0
  0
LINE
  5
491
100
AcDbEntity
  8
0
100
AcDbLine
 10
53.282
 20
57.84999
 30
0.0
 11
53.732
 21
57.84999
 31
0.0
  0
LINE
  5
492
100
AcDbEntity
  8
0
100
AcDbLine
 10
53.732
 20
58.04999
 30
0.0
 11
53.282
 21
58.04999
 31
0.0
  0
LINE
  5
493
100
AcDbEntity
  8
0
100
AcDbLine
 10
53.282
 20
59.54999
 30
0.0
 11
53.282
 21
58.04999
 31
0.0
  0
LINE
  5
494
100
AcDbEntity
  8
0
100
AcDbLine
 10
52.95
 20
60.69998
 30
0.0
 11
53.26
 21
60.69998
 31
0.0
  0
ARC
  5
495
100
AcDbEntity
  8
0
100
AcDbCircle
 10
52.95
 20
60.79998
 30
0.0
 40
0.1
100
AcDbArc
 50
180.0
 51
270.0
  0
ARC
  5
496
100
AcDbEntity
  8
0
100
AcDbCircle
 10
54.102593
 20
60.09998
 30
0.0
 40
0.1
100
AcDbArc
 50
184.934961
 51
269.998885
  0
LINE
  5
497
100
AcDbEntity
  8
0
100
AcDbLine
 10
53.948404
 20
60.723257
 30
0.0
 11
54.002964
 21
60.091378
 31
0.0
  0
LINE
  5
498
100
AcDbEntity
  8
0
100
AcDbLine
 10
53.749405
 20
60.702441
 30
0.0
 11
53.782
 21
60.09795
 31
0.0
  0
LINE
  5
499
100
AcDbEntity
  8
0
100
AcDbLine
 10
53.982
 20
60.334
 30
0.0
 11
53.982
 21
59.987
 31
0.0
  0
LINE
  5
49A
100
AcDbEntity
  8
0
100
AcDbLine
 10
53.413
 20
60.57097
 30
0.0
 11
53.572988
 21
60.761385
 31
0.0
  0
LINE
  5
49B
100
AcDbEntity
  8
0
100
AcDbLine
 10
53.26009
 20
60.70012
 30
0.0
 11
53.41973
 21
60.890317
 31
0.0
  0
ARC
  5
49C
100
AcDbEntity
  8
0
100
AcDbCircle
 10
53.413282
 20
60.571541
 30
0.0
 40
0.2
100
AcDbArc
 50
139.992096
 51
224.997968
  0
LINE
  5
49D
100
AcDbEntity
  8
0
100
AcDbLine
 10
53.41301
 20
60.28896
 30
0.0
 11
53.271855
 21
60.430125
 31
0.0
  0
LINE
  5
49E
100
AcDbEntity
  8
0
100
AcDbLine
 10
53.41301
 20
60.28897
 30
0.0
 11
53.55501
 21
60.42998
 31
0.0
  0
LINE
  5
49F
100
AcDbEntity
  8
0
100
AcDbLine
 10
53.55502
 20
60.42998
 30
0.0
 11
53.41302
 21
60.57097
 31
0.0
  0
ARC
  5
4A0
100
AcDbEntity
  8
0
100
AcDbCircle
 10
53.649551
 20
60.697056
 30
0.0
 40
0.1
100
AcDbArc
 50
3.086439
 51
139.962815
  0
ARC
  5
4A1
100
AcDbEntity
  8
0
100
AcDbCircle
 10
53.649516
 20
60.697449
 30
0.0
 40
0.3
100
AcDbArc
 50
4.934961
 51
139.992096
  0
ARC
  5
4A2
100
AcDbEntity
  8
0
100
AcDbCircle
 10
53.15
 20
61.7
 30
0.0
 40
0.3
100
AcDbArc
 50
90.0
 51
180.0
  0
LINE
  5
4A3
100
AcDbEntity
  8
0
100
AcDbLine
 10
58.85
 20
60.5
 30
0.0
 11
76.15
 21
60.5
 31
0.0
  0
LINE
  5
4A4
100
AcDbEntity
  8
0
100
AcDbLine
 10
58.75
 20
57.7
 30
0.0
 11
58.5
 21
57.7
 31
0.0
  0
ARC
  5
4A5
100
AcDbEntity
  8
0
100
AcDbCircle
 10
58.55
 20
56.3
 30
0.0
 40
0.3
100
AcDbArc
 50
270.0
 51
0.0
  0
ARC
  5
4A6
100
AcDbEntity
  8
0
100
AcDbCircle
 10
58.418
 20
58.04999
 30
0.0
 40
0.2
100
AcDbArc
 50
270.0
 51
0.0
  0
LINE
  5
4A7
100
AcDbEntity
  8
0
100
AcDbLine
 10
58.75
 20
60.69998
 30
0.0
 11
58.44
 21
60.69998
 31
0.0
  0
LINE
  5
4A8
100
AcDbEntity
  8
0
100
AcDbLine
 10
57.630966
 20
57.99998
 30
0.0
 11
57.082922
 21
57.99997
 31
0.0
  0
LINE
  5
4A9
100
AcDbEntity
  8
0
100
AcDbLine
 10
57.597409
 20
59.99998
 30
0.0
 11
57.08294
 21
59.99997
 31
0.0
  0
LINE
  5
4AA
100
AcDbEntity
  8
0
100
AcDbLine
 10
57.91798
 20
60.09795
 30
0.0
 11
58.61798
 21
59.66093
 31
0.0
  0
LINE
  5
4AB
100
AcDbEntity
  8
0
100
AcDbLine
 10
57.718
 20
59.98697
 30
0.0
 11
58.418
 21
59.54997
 31
0.0
  0
LINE
  5
4AC
100
AcDbEntity
  8
0
100
AcDbLine
 10
57.889076
 20
57.481778
 30
0.0
 11
57.724971
 21
57.934086
 31
0.0
  0
ARC
  5
4AD
100
AcDbEntity
  8
0
100
AcDbCircle
 10
58.113159
 20
57.54999
 30
0.0
 40
0.2
100
AcDbArc
 50
270.0
 51
320.013736
  0
LINE
  5
4AE
100
AcDbEntity
  8
0
100
AcDbLine
 10
58.113159
 20
57.34999
 30
0.0
 11
58.077084
 21
57.34999
 31
0.0
  0
ARC
  5
4AF
100
AcDbEntity
  8
0
100
AcDbCircle
 10
58.077084
 20
57.54999
 30
0.0
 40
0.2
100
AcDbArc
 50
199.941572
 51
270.0
  0
LINE
  5
4B0
100
AcDbEntity
  8
0
100
AcDbLine
 10
58.5
 20
57.7
 30
0.0
 11
58.266399
 21
57.421469
 31
0.0
  0
LINE
  5
4B1
100
AcDbEntity
  8
0
100
AcDbLine
 10
57.968
 20
58.04999
 30
0.0
 11
58.418
 21
58.04999
 31
0.0
  0
LINE
  5
4B2
100
AcDbEntity
  8
0
100
AcDbLine
 10
58.418
 20
57.84999
 30
0.0
 11
57.968
 21
57.84999
 31
0.0
  0
LINE
  5
4B3
100
AcDbEntity
  8
0
100
AcDbLine
 10
57.968
 20
57.84999
 30
0.0
 11
57.968
 21
58.04997
 31
0.0
  0
ARC
  5
4B4
100
AcDbEntity
  8
0
100
AcDbCircle
 10
57.630967
 20
57.89998
 30
0.0
 40
0.1
100
AcDbArc
 50
19.941572
 51
90.001045
  0
LINE
  5
4B5
100
AcDbEntity
  8
0
100
AcDbLine
 10
58.418
 20
59.54999
 30
0.0
 11
58.418
 21
58.04999
 31
0.0
  0
LINE
  5
4B6
100
AcDbEntity
  8
0
100
AcDbLine
 10
58.618
 20
59.66098
 30
0.0
 11
58.618
 21
58.04999
 31
0.0
  0
LINE
  5
4B7
100
AcDbEntity
  8
0
100
AcDbLine
 10
58.14498
 20
60.42998
 30
0.0
 11
58.28698
 21
60.57097
 31
0.0
  0
LINE
  5
4B8
100
AcDbEntity
  8
0
100
AcDbLine
 10
58.28699
 20
60.28897
 30
0.0
 11
58.14499
 21
60.42998
 31
0.0
  0
LINE
  5
4B9
100
AcDbEntity
  8
0
100
AcDbLine
 10
58.287
 20
60.57097
 30
0.0
 11
58.127012
 21
60.761385
 31
0.0
  0
LINE
  5
4BA
100
AcDbEntity
  8
0
100
AcDbLine
 10
57.950595
 20
60.702441
 30
0.0
 11
57.918
 21
60.09795
 31
0.0
  0
ARC
  5
4BB
100
AcDbEntity
  8
0
100
AcDbCircle
 10
58.050449
 20
60.697056
 30
0.0
 40
0.1
100
AcDbArc
 50
40.037185
 51
176.913561
  0
LINE
  5
4BC
100
AcDbEntity
  8
0
100
AcDbLine
 10
58.28699
 20
60.28896
 30
0.0
 11
58.428145
 21
60.430125
 31
0.0
  0
ARC
  5
4BD
100
AcDbEntity
  8
0
100
AcDbCircle
 10
58.286718
 20
60.571541
 30
0.0
 40
0.2
100
AcDbArc
 50
315.002032
 51
40.007904
  0
LINE
  5
4BE
100
AcDbEntity
  8
0
100
AcDbLine
 10
58.43991
 20
60.70012
 30
0.0
 11
58.28027
 21
60.890317
 31
0.0
  0
LINE
  5
4BF
100
AcDbEntity
  8
0
100
AcDbLine
 10
57.718
 20
60.334
 30
0.0
 11
57.718
 21
59.987
 31
0.0
  0
ARC
  5
4C0
100
AcDbEntity
  8
0
100
AcDbCircle
 10
57.597407
 20
60.09998
 30
0.0
 40
0.1
100
AcDbArc
 50
270.001115
 51
355.065039
  0
ARC
  5
4C1
100
AcDbEntity
  8
0
100
AcDbCircle
 10
58.050484
 20
60.697449
 30
0.0
 40
0.3
100
AcDbArc
 50
40.007904
 51
175.065039
  0
LINE
  5
4C2
100
AcDbEntity
  8
0
100
AcDbLine
 10
57.751596
 20
60.723257
 30
0.0
 11
57.697036
 21
60.091378
 31
0.0
  0
ARC
  5
4C3
100
AcDbEntity
  8
0
100
AcDbCircle
 10
58.75
 20
57.6
 30
0.0
 40
0.1
100
AcDbArc
 50
0.0
 51
90.0
  0
ARC
  5
4C4
100
AcDbEntity
  8
0
100
AcDbCircle
 10
58.75
 20
60.79998
 30
0.0
 40
0.1
100
AcDbArc
 50
270.0
 51
0.0
  0
ARC
  5
4C5
100
AcDbEntity
  8
0
100
AcDbCircle
 10
58.55
 20
61.7
 30
0.0
 40
0.3
100
AcDbArc
 50
0.0
 51
90.0
  0
ARC
  5
4C6
100
AcDbEntity
  8
0
100
AcDbCircle
 10
76.949516
 20
60.697449
 30
0.0
 40
0.3
100
AcDbArc
 50
4.934961
 51
139.992096
  0
LINE
  5
4C7
100
AcDbEntity
  8
0
100
AcDbLine
 10
76.85502
 20
60.42998
 30
0.0
 11
76.71302
 21
60.57097
 31
0.0
  0
LINE
  5
4C8
100
AcDbEntity
  8
0
100
AcDbLine
 10
76.71301
 20
60.28897
 30
0.0
 11
76.85501
 21
60.42998
 31
0.0
  0
LINE
  5
4C9
100
AcDbEntity
  8
0
100
AcDbLine
 10
76.713
 20
60.57097
 30
0.0
 11
76.872988
 21
60.761385
 31
0.0
  0
LINE
  5
4CA
100
AcDbEntity
  8
0
100
AcDbLine
 10
77.08202
 20
60.09795
 30
0.0
 11
76.38202
 21
59.66093
 31
0.0
  0
LINE
  5
4CB
100
AcDbEntity
  8
0
100
AcDbLine
 10
77.282
 20
59.98697
 30
0.0
 11
76.582
 21
59.54997
 31
0.0
  0
LINE
  5
4CC
100
AcDbEntity
  8
0
100
AcDbLine
 10
77.032
 20
58.04999
 30
0.0
 11
76.582
 21
58.04999
 31
0.0
  0
LINE
  5
4CD
100
AcDbEntity
  8
0
100
AcDbLine
 10
76.582
 20
57.84999
 30
0.0
 11
77.032
 21
57.84999
 31
0.0
  0
ARC
  5
4CE
100
AcDbEntity
  8
0
100
AcDbCircle
 10
76.886841
 20
57.54999
 30
0.0
 40
0.2
100
AcDbArc
 50
219.986264
 51
270.0
  0
LINE
  5
4CF
100
AcDbEntity
  8
0
100
AcDbLine
 10
76.71301
 20
60.28896
 30
0.0
 11
76.571855
 21
60.430125
 31
0.0
  0
ARC
  5
4D0
100
AcDbEntity
  8
0
100
AcDbCircle
 10
76.713282
 20
60.571541
 30
0.0
 40
0.2
100
AcDbArc
 50
139.992096
 51
224.997968
  0
LINE
  5
4D1
100
AcDbEntity
  8
0
100
AcDbLine
 10
76.56009
 20
60.70012
 30
0.0
 11
76.71973
 21
60.890317
 31
0.0
  0
ARC
  5
4D2
100
AcDbEntity
  8
0
100
AcDbCircle
 10
76.25
 20
60.79998
 30
0.0
 40
0.1
100
AcDbArc
 50
180.0
 51
270.0
  0
LINE
  5
4D3
100
AcDbEntity
  8
0
100
AcDbLine
 10
76.25
 20
60.69998
 30
0.0
 11
76.56
 21
60.69998
 31
0.0
  0
ARC
  5
4D4
100
AcDbEntity
  8
0
100
AcDbCircle
 10
76.582
 20
58.04999
 30
0.0
 40
0.2
100
AcDbArc
 50
180.0
 51
270.0
  0
LINE
  5
4D5
100
AcDbEntity
  8
0
100
AcDbLine
 10
76.5
 20
57.7
 30
0.0
 11
76.733601
 21
57.421469
 31
0.0
  0
ARC
  5
4D6
100
AcDbEntity
  8
0
100
AcDbCircle
 10
76.25
 20
57.6
 30
0.0
 40
0.1
100
AcDbArc
 50
90.0
 51
180.0
  0
ARC
  5
4D7
100
AcDbEntity
  8
0
100
AcDbCircle
 10
76.45
 20
56.3
 30
0.0
 40
0.3
100
AcDbArc
 50
180.0
 51
270.0
  0
LINE
  5
4D8
100
AcDbEntity
  8
0
100
AcDbLine
 10
76.25
 20
57.7
 30
0.0
 11
76.5
 21
57.7
 31
0.0
  0
LINE
  5
4D9
100
AcDbEntity
  8
0
100
AcDbLine
 10
76.582
 20
59.54999
 30
0.0
 11
76.582
 21
58.04999
 31
0.0
  0
LINE
  5
4DA
100
AcDbEntity
  8
0
100
AcDbLine
 10
76.382
 20
59.66098
 30
0.0
 11
76.382
 21
58.04999
 31
0.0
  0
LINE
  5
4DB
100
AcDbEntity
  8
0
100
AcDbLine
 10
80.897409
 20
59.99998
 30
0.0
 11
80.38294
 21
59.99997
 31
0.0
  0
ARC
  5
4DC
100
AcDbEntity
  8
0
100
AcDbCircle
 10
76.949551
 20
60.697056
 30
0.0
 40
0.1
100
AcDbArc
 50
3.086439
 51
139.962815
  0
LINE
  5
4DD
100
AcDbEntity
  8
0
100
AcDbLine
 10
77.282
 20
60.334
 30
0.0
 11
77.282
 21
59.987
 31
0.0
  0
LINE
  5
4DE
100
AcDbEntity
  8
0
100
AcDbLine
 10
77.049405
 20
60.702441
 30
0.0
 11
77.082
 21
60.09795
 31
0.0
  0
LINE
  5
4DF
100
AcDbEntity
  8
0
100
AcDbLine
 10
77.248404
 20
60.723257
 30
0.0
 11
77.302964
 21
60.091378
 31
0.0
  0
ARC
  5
4E0
100
AcDbEntity
  8
0
100
AcDbCircle
 10
77.402593
 20
60.09998
 30
0.0
 40
0.1
100
AcDbArc
 50
184.934961
 51
269.998885
  0
LINE
  5
4E1
100
AcDbEntity
  8
0
100
AcDbLine
 10
77.402591
 20
59.99998
 30
0.0
 11
77.91706
 21
59.99997
 31
0.0
  0
LINE
  5
4E2
100
AcDbEntity
  8
0
100
AcDbLine
 10
80.930966
 20
57.99998
 30
0.0
 11
80.382922
 21
57.99997
 31
0.0
  0
LINE
  5
4E3
100
AcDbEntity
  8
0
100
AcDbLine
 10
77.032
 20
57.84999
 30
0.0
 11
77.032
 21
58.04997
 31
0.0
  0
ARC
  5
4E4
100
AcDbEntity
  8
0
100
AcDbCircle
 10
77.369033
 20
57.89998
 30
0.0
 40
0.1
100
AcDbArc
 50
89.998955
 51
160.058428
  0
LINE
  5
4E5
100
AcDbEntity
  8
0
100
AcDbLine
 10
76.886841
 20
57.34999
 30
0.0
 11
76.922916
 21
57.34999
 31
0.0
  0
ARC
  5
4E6
100
AcDbEntity
  8
0
100
AcDbCircle
 10
76.922916
 20
57.54999
 30
0.0
 40
0.2
100
AcDbArc
 50
270.0
 51
340.058428
  0
LINE
  5
4E7
100
AcDbEntity
  8
0
100
AcDbLine
 10
77.110924
 20
57.481778
 30
0.0
 11
77.275029
 21
57.934086
 31
0.0
  0
LINE
  5
4E8
100
AcDbEntity
  8
0
100
AcDbLine
 10
77.369034
 20
57.99998
 30
0.0
 11
77.917078
 21
57.99997
 31
0.0
  0
CIRCLE
  5
4E9
100
AcDbEntity
  8
0
100
AcDbCircle
 10
79.15
 20
59.0
 30
0.0
 40
1.5875
  0
ARC
  5
4EA
100
AcDbEntity
  8
0
100
AcDbCircle
 10
76.45
 20
61.7
 30
0.0
 40
0.3
100
AcDbArc
 50
90.0
 51
180.0
  0
LINE
  5
4EB
100
AcDbEntity
  8
0
100
AcDbLine
 10
82.05
 20
60.69998
 30
0.0
 11
81.74
 21
60.69998
 31
0.0
  0
LINE
  5
4EC
100
AcDbEntity
  8
0
100
AcDbLine
 10
81.051596
 20
60.723257
 30
0.0
 11
80.997036
 21
60.091378
 31
0.0
  0
ARC
  5
4ED
100
AcDbEntity
  8
0
100
AcDbCircle
 10
81.350484
 20
60.697449
 30
0.0
 40
0.3
100
AcDbArc
 50
40.007904
 51
175.065039
  0
LINE
  5
4EE
100
AcDbEntity
  8
0
100
AcDbLine
 10
81.018
 20
60.334
 30
0.0
 11
81.018
 21
59.987
 31
0.0
  0
LINE
  5
4EF
100
AcDbEntity
  8
0
100
AcDbLine
 10
81.73991
 20
60.70012
 30
0.0
 11
81.58027
 21
60.890317
 31
0.0
  0
ARC
  5
4F0
100
AcDbEntity
  8
0
100
AcDbCircle
 10
81.586718
 20
60.571541
 30
0.0
 40
0.2
100
AcDbArc
 50
315.002032
 51
40.007904
  0
LINE
  5
4F1
100
AcDbEntity
  8
0
100
AcDbLine
 10
81.58699
 20
60.28896
 30
0.0
 11
81.728145
 21
60.430125
 31
0.0
  0
ARC
  5
4F2
100
AcDbEntity
  8
0
100
AcDbCircle
 10
81.350449
 20
60.697056
 30
0.0
 40
0.1
100
AcDbArc
 50
40.037185
 51
176.913561
  0
LINE
  5
4F3
100
AcDbEntity
  8
0
100
AcDbLine
 10
81.250595
 20
60.702441
 30
0.0
 11
81.218
 21
60.09795
 31
0.0
  0
LINE
  5
4F4
100
AcDbEntity
  8
0
100
AcDbLine
 10
81.587
 20
60.57097
 30
0.0
 11
81.427012
 21
60.761385
 31
0.0
  0
LINE
  5
4F5
100
AcDbEntity
  8
0
100
AcDbLine
 10
81.58699
 20
60.28897
 30
0.0
 11
81.44499
 21
60.42998
 31
0.0
  0
LINE
  5
4F6
100
AcDbEntity
  8
0
100
AcDbLine
 10
81.44498
 20
60.42998
 30
0.0
 11
81.58698
 21
60.57097
 31
0.0
  0
ARC
  5
4F7
100
AcDbEntity
  8
0
100
AcDbCircle
 10
82.05
 20
60.79998
 30
0.0
 40
0.1
100
AcDbArc
 50
270.0
 51
0.0
  0
LINE
  5
4F8
100
AcDbEntity
  8
0
100
AcDbLine
 10
81.018
 20
59.98697
 30
0.0
 11
81.718
 21
59.54997
 31
0.0
  0
LINE
  5
4F9
100
AcDbEntity
  8
0
100
AcDbLine
 10
81.21798
 20
60.09795
 30
0.0
 11
81.91798
 21
59.66093
 31
0.0
  0
ARC
  5
4FA
100
AcDbEntity
  8
0
100
AcDbCircle
 10
81.718
 20
58.04999
 30
0.0
 40
0.2
100
AcDbArc
 50
270.0
 51
0.0
  0
LINE
  5
4FB
100
AcDbEntity
  8
0
100
AcDbLine
 10
81.268
 20
57.84999
 30
0.0
 11
81.268
 21
58.04997
 31
0.0
  0
LINE
  5
4FC
100
AcDbEntity
  8
0
100
AcDbLine
 10
81.718
 20
57.84999
 30
0.0
 11
81.268
 21
57.84999
 31
0.0
  0
LINE
  5
4FD
100
AcDbEntity
  8
0
100
AcDbLine
 10
81.268
 20
58.04999
 30
0.0
 11
81.718
 21
58.04999
 31
0.0
  0
ARC
  5
4FE
100
AcDbEntity
  8
0
100
AcDbCircle
 10
81.85
 20
56.3
 30
0.0
 40
0.3
100
AcDbArc
 50
270.0
 51
0.0
  0
LINE
  5
4FF
100
AcDbEntity
  8
0
100
AcDbLine
 10
82.05
 20
57.7
 30
0.0
 11
81.8
 21
57.7
 31
0.0
  0
LINE
  5
500
100
AcDbEntity
  8
0
100
AcDbLine
 10
81.8
 20
57.7
 30
0.0
 11
81.566399
 21
57.421469
 31
0.0
  0
ARC
  5
501
100
AcDbEntity
  8
0
100
AcDbCircle
 10
81.377084
 20
57.54999
 30
0.0
 40
0.2
100
AcDbArc
 50
199.941572
 51
270.0
  0
LINE
  5
502
100
AcDbEntity
  8
0
100
AcDbLine
 10
81.413159
 20
57.34999
 30
0.0
 11
81.377084
 21
57.34999
 31
0.0
  0
ARC
  5
503
100
AcDbEntity
  8
0
100
AcDbCircle
 10
81.413159
 20
57.54999
 30
0.0
 40
0.2
100
AcDbArc
 50
270.0
 51
320.013736
  0
ARC
  5
504
100
AcDbEntity
  8
0
100
AcDbCircle
 10
82.05
 20
57.6
 30
0.0
 40
0.1
100
AcDbArc
 50
0.0
 51
90.0
  0
LINE
  5
505
100
AcDbEntity
  8
0
100
AcDbLine
 10
81.189076
 20
57.481778
 30
0.0
 11
81.024971
 21
57.934086
 31
0.0
  0
LINE
  5
506
100
AcDbEntity
  8
0
100
AcDbLine
 10
81.918
 20
59.66098
 30
0.0
 11
81.918
 21
58.04999
 31
0.0
  0
LINE
  5
507
100
AcDbEntity
  8
0
100
AcDbLine
 10
81.718
 20
59.54999
 30
0.0
 11
81.718
 21
58.04999
 31
0.0
  0
ARC
  5
508
100
AcDbEntity
  8
0
100
AcDbCircle
 10
81.85
 20
61.7
 30
0.0
 40
0.3
100
AcDbArc
 50
0.0
 51
90.0
  0
ENDSEC
  0
SECTION
  2
OBJECTS
  0
DICTIONARY
  5
37D
100
AcDbDictionary
  3
ACAD_GROUP
350
37E
  3
ACAD_LAYOUT
350
38A
  3
ACAD_MLINESTYLE
350
387
  3
ACAD_PLOTSETTINGS
350
389
  3
ACAD_PLOTSTYLENAME
350
37F
  3
ACDBHEADERROUNDTRIPXREC
350
515
  3
AcDbVariableDictionary
350
53D
  0
DICTIONARY
  5
513
100
AcDbDictionary
280
     1
  3
ACAD_XREC_ROUNDTRIP
360
514
  0
DICTIONARY
  5
50F
100
AcDbDictionary
280
     1
  3
ACAD_XREC_ROUNDTRIP
360
510
  0
DICTIONARY
  5
511
100
AcDbDictionary
280
     1
  3
ACAD_XREC_ROUNDTRIP
360
512
  0
DICTIONARY
  5
53B
100
AcDbDictionary
280
     1
  3
ACAD_XREC_ROUNDTRIP
360
53C
  0
DICTIONARY
  5
50B
100
AcDbDictionary
280
     1
  3
ACAD_LAYOUTSELFREF
360
53A
  3
ACAD_XREC_ROUNDTRIP
360
50C
  0
DICTIONARY
  5
50D
100
AcDbDictionary
280
     1
  3
ACAD_LAYOUTSELFREF
360
539
  3
ACAD_XREC_ROUNDTRIP
360
50E
  0
DICTIONARY
  5
37E
102
{ACAD_REACTORS
330
37D
102
}
100
AcDbDictionary
  0
DICTIONARY
  5
38A
102
{ACAD_XDICTIONARY
360
537
102
}
102
{ACAD_REACTORS
330
37D
102
}
100
AcDbDictionary
  3
MODEL
350
392
  3
ﾚｲｱｳﾄ1
350
38E
  0
DICTIONARY
  5
387
102
{ACAD_XDICTIONARY
360
535
102
}
102
{ACAD_REACTORS
330
37D
102
}
100
AcDbDictionary
  3
STANDARD
350
388
  0
DICTIONARY
  5
389
102
{ACAD_REACTORS
330
37D
102
}
100
AcDbDictionary
  0
ACAD_PROXY_OBJECT
  5
37F
102
{ACAD_REACTORS
330
37D
102
}
100
AcDbProxyObject
 90
      499
 91
      500
 93
       86
310
405010041939BDC9B585B0
350
380
340
380
 94
        0
  0
DICTIONARY
  5
515
102
{ACAD_REACTORS
330
37D
102
}
100
AcDbDictionary
  3
CEPSNTYPE
350
51F
  3
FINGERPRINTGUID
350
520
  3
HYPERLINKBASE
350
518
  3
INSUNITS
350
51E
  3
LAYOUTDICT
350
51A
  3
LWETCUNION
350
51D
  3
PLOTSETDICT
350
51B
  3
PLOTSTYLNAMDICT
350
51C
  3
PSVPSCALE
350
522
  3
PUCSBASE
350
525
  3
PUCSORGBACK
350
52B
  3
PUCSORGBOTTOM
350
527
  3
PUCSORGFRONT
350
52A
  3
PUCSORGLEFT
350
528
  3
PUCSORGRIGHT
350
529
  3
PUCSORGTOP
350
526
  3
PUCSORTHOREF
350
523
  3
PUCSORTHOVIEW
350
524
  3
STYLESHEET
350
519
  3
TSTACKALIGN
350
516
  3
TSTACKSIZE
350
517
  3
UCSBASE
350
52E
  3
UCSORGBACK
350
534
  3
UCSORGBOTTOM
350
530
  3
UCSORGFRONT
350
533
  3
UCSORGLEFT
350
531
  3
UCSORGRIGHT
350
532
  3
UCSORGTOP
350
52F
  3
UCSORTHOREF
350
52C
  3
UCSORTHOVIEW
350
52D
  3
VERSIONGUID
350
521
  0
DICTIONARY
  5
53D
102
{ACAD_REACTORS
330
37D
102
}
100
AcDbDictionary
  3
DIMASSOC
350
53E
  0
XRECORD
  5
514
102
{ACAD_REACTORS
330
513
102
}
100
AcDbXrecord
102
EXTNAMES
  1
*ACTIVE
  2
*Active
102
UCS
 74
     0
 71
     1
 10
0.0
 20
0.0
 30
0.0
 10
1.0
 20
0.0
 30
0.0
 10
0.0
 20
1.0
 30
0.0
146
0.0
 79
     0
102
VIEW
281
     0
  0
XRECORD
  5
510
102
{ACAD_REACTORS
330
50F
102
}
100
AcDbXrecord
102
EXTNAMES
  1
BYBLOCK
  2
ByBlock
  0
XRECORD
  5
512
102
{ACAD_REACTORS
330
511
102
}
100
AcDbXrecord
102
EXTNAMES
  1
BYLAYER
  2
ByLayer
  0
XRECORD
  5
53C
102
{ACAD_REACTORS
330
53B
102
}
100
AcDbXrecord
102
ACADR14ROUNDTRIP
1000
DSTYLE
1002
{
1070
   279
 70
     2
1002
}
  0
XRECORD
  5
53A
102
{ACAD_REACTORS
330
50B
102
}
100
AcDbXrecord
340
38F
  0
XRECORD
  5
50C
102
{ACAD_REACTORS
330
50B
102
}
100
AcDbXrecord
102
EXTNAMES
  1
*MODEL_SPACE
  2
*Model_Space
  0
XRECORD
  5
539
102
{ACAD_REACTORS
330
50D
102
}
100
AcDbXrecord
340
38B
  0
XRECORD
  5
50E
102
{ACAD_REACTORS
330
50D
102
}
100
AcDbXrecord
102
EXTNAMES
  1
*PAPER_SPACE
  2
*Paper_Space
  0
DICTIONARY
  5
537
100
AcDbDictionary
280
     1
  3
ACAD_XREC_ROUNDTRIP
360
538
  0
ACAD_PROXY_OBJECT
  5
392
102
{ACAD_REACTORS
330
38A
102
}
100
AcDbProxyObject
 90
      499
 91
      502
 93
      836
310
932433A5C50524F4752414D2046494C45535C4D4454365C706C6F74746572735C526F6C616E64204458592D313235302E7063332C01AAAAAAAAA5A69054D6F64656C901A800000000000000000000000000000000000000000000A1000000000000008902A6A6AAAA0
330
38F
330
0
340
0
340
0
 94
        0
  0
ACAD_PROXY_OBJECT
  5
38E
102
{ACAD_REACTORS
330
38A
102
}
100
AcDbProxyObject
 90
      499
 91
      502
 93
     1252
310
932433A5C50524F4752414D2046494C45535C4D4454365C706C6F74746572735C526F6C616E64204458592D313235302E7063332C00AAAAAA416AA59106906DAB2B1B3C43140501A800000000000000000000000000000000000000000101E900000000000241C902A6A6A10232D5E076BC5510408CB5781DAF154410232D5
310
E076BC5510408CB5781DAF15C410232D5E076BC5710408CB5781DAF15C40
330
38B
330
0
340
0
340
0
 94
        0
  0
DICTIONARY
  5
535
100
AcDbDictionary
280
     1
  3
ACAD_XREC_ROUNDTRIP
360
536
  0
MLINESTYLE
  5
388
102
{ACAD_REACTORS
330
387
102
}
100
AcDbMlineStyle
  2
STANDARD
 70
     0
  3

 62
   256
 51
90.0
 52
90.0
 71
     2
 49
0.5
 62
   256
  6
BYLAYER
 49
-0.5
 62
   256
  6
BYLAYER
  0
ACAD_PROXY_OBJECT
  5
380
102
{ACAD_REACTORS
330
37F
102
}
100
AcDbProxyObject
 90
      499
 91
      501
 93
        0
 94
        0
  0
XRECORD
  5
51F
102
{ACAD_REACTORS
330
515
102
}
100
AcDbXrecord
 90
        0
  0
XRECORD
  5
520
102
{ACAD_REACTORS
330
515
102
}
100
AcDbXrecord
  1
{8E5FE245-8C81-486D-B701-309478C5FBB0}
  0
XRECORD
  5
518
102
{ACAD_REACTORS
330
515
102
}
100
AcDbXrecord
  1

  0
XRECORD
  5
51E
102
{ACAD_REACTORS
330
515
102
}
100
AcDbXrecord
 90
        0
  0
XRECORD
  5
51A
102
{ACAD_REACTORS
330
515
102
}
100
AcDbXrecord
340
38A
  0
XRECORD
  5
51D
102
{ACAD_REACTORS
330
515
102
}
100
AcDbXrecord
 90
    10781
  0
XRECORD
  5
51B
102
{ACAD_REACTORS
330
515
102
}
100
AcDbXrecord
340
389
  0
XRECORD
  5
51C
102
{ACAD_REACTORS
330
515
102
}
100
AcDbXrecord
340
37F
  0
XRECORD
  5
522
102
{ACAD_REACTORS
330
515
102
}
100
AcDbXrecord
 40
0.0
  0
XRECORD
  5
525
102
{ACAD_REACTORS
330
515
102
}
100
AcDbXrecord
340
0
  0
XRECORD
  5
52B
102
{ACAD_REACTORS
330
515
102
}
100
AcDbXrecord
 10
0.0
 20
0.0
 30
0.0
  0
XRECORD
  5
527
102
{ACAD_REACTORS
330
515
102
}
100
AcDbXrecord
 10
0.0
 20
0.0
 30
0.0
  0
XRECORD
  5
52A
102
{ACAD_REACTORS
330
515
102
}
100
AcDbXrecord
 10
0.0
 20
0.0
 30
0.0
  0
XRECORD
  5
528
102
{ACAD_REACTORS
330
515
102
}
100
AcDbXrecord
 10
0.0
 20
0.0
 30
0.0
  0
XRECORD
  5
529
102
{ACAD_REACTORS
330
515
102
}
100
AcDbXrecord
 10
0.0
 20
0.0
 30
0.0
  0
XRECORD
  5
526
102
{ACAD_REACTORS
330
515
102
}
100
AcDbXrecord
 10
0.0
 20
0.0
 30
0.0
  0
XRECORD
  5
523
102
{ACAD_REACTORS
330
515
102
}
100
AcDbXrecord
340
0
  0
XRECORD
  5
524
102
{ACAD_REACTORS
330
515
102
}
100
AcDbXrecord
 70
     0
  0
XRECORD
  5
519
102
{ACAD_REACTORS
330
515
102
}
100
AcDbXrecord
  1

  0
XRECORD
  5
516
102
{ACAD_REACTORS
330
515
102
}
100
AcDbXrecord
 90
        1
  0
XRECORD
  5
517
102
{ACAD_REACTORS
330
515
102
}
100
AcDbXrecord
 90
       70
  0
XRECORD
  5
52E
102
{ACAD_REACTORS
330
515
102
}
100
AcDbXrecord
340
0
  0
XRECORD
  5
534
102
{ACAD_REACTORS
330
515
102
}
100
AcDbXrecord
 10
0.0
 20
0.0
 30
0.0
  0
XRECORD
  5
530
102
{ACAD_REACTORS
330
515
102
}
100
AcDbXrecord
 10
0.0
 20
0.0
 30
0.0
  0
XRECORD
  5
533
102
{ACAD_REACTORS
330
515
102
}
100
AcDbXrecord
 10
0.0
 20
0.0
 30
0.0
  0
XRECORD
  5
531
102
{ACAD_REACTORS
330
515
102
}
100
AcDbXrecord
 10
0.0
 20
0.0
 30
0.0
  0
XRECORD
  5
532
102
{ACAD_REACTORS
330
515
102
}
100
AcDbXrecord
 10
0.0
 20
0.0
 30
0.0
  0
XRECORD
  5
52F
102
{ACAD_REACTORS
330
515
102
}
100
AcDbXrecord
 10
0.0
 20
0.0
 30
0.0
  0
XRECORD
  5
52C
102
{ACAD_REACTORS
330
515
102
}
100
AcDbXrecord
340
0
  0
XRECORD
  5
52D
102
{ACAD_REACTORS
330
515
102
}
100
AcDbXrecord
 70
     0
  0
XRECORD
  5
521
102
{ACAD_REACTORS
330
515
102
}
100
AcDbXrecord
  1
{1C0B6DEC-B12E-4D35-8AB8-3788A49836F2}
  0
DICTIONARYVAR
  5
53E
102
{ACAD_REACTORS
330
53D
102
}
100
DictionaryVariables
280
     0
  1
1
  0
XRECORD
  5
538
102
{ACAD_REACTORS
330
537
102
}
100
AcDbXrecord
102
EXTNAMES
  1
MODEL
  2
Model
  0
XRECORD
  5
536
102
{ACAD_REACTORS
330
535
102
}
100
AcDbXrecord
102
EXTNAMES
  1
STANDARD
  2
Standard
  0
ENDSEC
  0
EOF
