  0
SECTION
  2
HEADER
  9
$ACADVER
  1
AC1014
  9
$ACADMAINTVER
 70
     0
  9
$DWGCODEPAGE
  3
ANSI_932
  9
$INSBASE
 10
0.0
 20
0.0
 30
0.0
  9
$EXTMIN
 10
48.5
 20
25.0
 30
0.0
  9
$EXTMAX
 10
155.0
 20
75.0
 30
0.0
  9
$LIMMIN
 10
0.0
 20
0.0
  9
$LIMMAX
 10
420.0
 20
297.0
  9
$ORTHOMODE
 70
     1
  9
$REGENMODE
 70
     1
  9
$FILLMODE
 70
     1
  9
$QTEXTMODE
 70
     0
  9
$MIRRTEXT
 70
     1
  9
$DRAGMODE
 70
     2
  9
$LTSCALE
 40
0.25
  9
$OSMODE
 70
    37
  9
$ATTMODE
 70
     1
  9
$TEXTSIZE
 40
2.0
  9
$TRACEWID
 40
1.0
  9
$TEXTSTYLE
  7
STANDARD
  9
$CLAYER
  8
0
  9
$CELTYPE
  6
BYLAYER
  9
$CECOLOR
 62
   256
  9
$CELTSCALE
 40
1.0
  9
$DELOBJ
 70
     1
  9
$DISPSILH
 70
     0
  9
$DIMSCALE
 40
1.0
  9
$DIMASZ
 40
2.5
  9
$DIMEXO
 40
0.625
  9
$DIMDLI
 40
3.75
  9
$DIMRND
 40
0.0
  9
$DIMDLE
 40
0.0
  9
$DIMEXE
 40
1.25
  9
$DIMTP
 40
0.0
  9
$DIMTM
 40
0.0
  9
$DIMTXT
 40
2.5
  9
$DIMCEN
 40
2.5
  9
$DIMTSZ
 40
0.0
  9
$DIMTOL
 70
     0
  9
$DIMLIM
 70
     0
  9
$DIMTIH
 70
     0
  9
$DIMTOH
 70
     0
  9
$DIMSE1
 70
     0
  9
$DIMSE2
 70
     0
  9
$DIMTAD
 70
     1
  9
$DIMZIN
 70
     8
  9
$DIMBLK
  1

  9
$DIMASO
 70
     1
  9
$DIMSHO
 70
     1
  9
$DIMPOST
  1

  9
$DIMAPOST
  1

  9
$DIMALT
 70
     0
  9
$DIMALTD
 70
     4
  9
$DIMALTF
 40
0.0394
  9
$DIMLFAC
 40
1.0
  9
$DIMTOFL
 70
     1
  9
$DIMTVP
 40
0.0
  9
$DIMTIX
 70
     0
  9
$DIMSOXD
 70
     0
  9
$DIMSAH
 70
     0
  9
$DIMBLK1
  1

  9
$DIMBLK2
  1

  9
$DIMSTYLE
  2
ISO-25
  9
$DIMCLRD
 70
     0
  9
$DIMCLRE
 70
     0
  9
$DIMCLRT
 70
     0
  9
$DIMTFAC
 40
1.0
  9
$DIMGAP
 40
0.625
  9
$DIMJUST
 70
     0
  9
$DIMSD1
 70
     0
  9
$DIMSD2
 70
     0
  9
$DIMTOLJ
 70
     1
  9
$DIMTZIN
 70
     0
  9
$DIMALTZ
 70
     0
  9
$DIMALTTZ
 70
     0
  9
$DIMFIT
 70
     3
  9
$DIMUPT
 70
     0
  9
$DIMUNIT
 70
     2
  9
$DIMDEC
 70
     4
  9
$DIMTDEC
 70
     4
  9
$DIMALTU
 70
     2
  9
$DIMALTTD
 70
     2
  9
$DIMTXSTY
  7
STANDARD
  9
$DIMAUNIT
 70
     0
  9
$LUNITS
 70
     2
  9
$LUPREC
 70
     2
  9
$SKETCHINC
 40
1.0
  9
$FILLETRAD
 40
2.5
  9
$AUNITS
 70
     0
  9
$AUPREC
 70
     0
  9
$MENU
  1
.
  9
$ELEVATION
 40
0.0
  9
$PELEVATION
 40
0.0
  9
$THICKNESS
 40
0.0
  9
$LIMCHECK
 70
     0
  9
$BLIPMODE
 70
     0
  9
$CHAMFERA
 40
2.5
  9
$CHAMFERB
 40
2.5
  9
$CHAMFERC
 40
0.0
  9
$CHAMFERD
 40
0.0
  9
$SKPOLY
 70
     1
  9
$TDCREATE
 40
2451789.012059838
  9
$TDUPDATE
 40
2452821.804119328
  9
$TDINDWG
 40
0.0405384144
  9
$TDUSRTIMER
 40
0.0405384144
  9
$USRTIMER
 70
     1
  9
$ANGBASE
 50
0.0
  9
$ANGDIR
 70
     0
  9
$PDMODE
 70
     0
  9
$PDSIZE
 40
0.0
  9
$PLINEWID
 40
0.0
  9
$COORDS
 70
     1
  9
$SPLFRAME
 70
     0
  9
$SPLINETYPE
 70
     6
  9
$SPLINESEGS
 70
     8
  9
$ATTDIA
 70
     0
  9
$ATTREQ
 70
     1
  9
$HANDLING
 70
     1
  9
$HANDSEED
  5
545
  9
$SURFTAB1
 70
     6
  9
$SURFTAB2
 70
     6
  9
$SURFTYPE
 70
     6
  9
$SURFU
 70
     6
  9
$SURFV
 70
     6
  9
$UCSNAME
  2

  9
$UCSORG
 10
0.0
 20
0.0
 30
0.0
  9
$UCSXDIR
 10
1.0
 20
0.0
 30
0.0
  9
$UCSYDIR
 10
0.0
 20
1.0
 30
0.0
  9
$PUCSNAME
  2

  9
$PUCSORG
 10
0.0
 20
0.0
 30
0.0
  9
$PUCSXDIR
 10
1.0
 20
0.0
 30
0.0
  9
$PUCSYDIR
 10
0.0
 20
1.0
 30
0.0
  9
$USERI1
 70
     0
  9
$USERI2
 70
     0
  9
$USERI3
 70
     0
  9
$USERI4
 70
     0
  9
$USERI5
 70
     0
  9
$USERR1
 40
0.0
  9
$USERR2
 40
0.0
  9
$USERR3
 40
0.0
  9
$USERR4
 40
0.0
  9
$USERR5
 40
0.0
  9
$WORLDVIEW
 70
     1
  9
$SHADEDGE
 70
     3
  9
$SHADEDIF
 70
    70
  9
$TILEMODE
 70
     1
  9
$MAXACTVP
 70
    48
  9
$PINSBASE
 10
0.0
 20
0.0
 30
0.0
  9
$PLIMCHECK
 70
     0
  9
$PEXTMIN
 10
1.000000E+20
 20
1.000000E+20
 30
1.000000E+20
  9
$PEXTMAX
 10
-1.000000E+20
 20
-1.000000E+20
 30
-1.000000E+20
  9
$PLIMMIN
 10
0.0
 20
0.0
  9
$PLIMMAX
 10
420.0
 20
297.0
  9
$UNITMODE
 70
     0
  9
$VISRETAIN
 70
     1
  9
$PLINEGEN
 70
     0
  9
$PSLTSCALE
 70
     1
  9
$TREEDEPTH
 70
  3020
  9
$PICKSTYLE
 70
     1
  9
$CMLSTYLE
  2
STANDARD
  9
$CMLJUST
 70
     0
  9
$CMLSCALE
 40
1.0
  9
$PROXYGRAPHICS
 70
     1
  9
$MEASUREMENT
 70
     0
  0
ENDSEC
  0
SECTION
  2
CLASSES
  0
CLASS
  1
ACDBDICTIONARYWDFLT
  2
AcDbDictionaryWithDefault
  3
AutoCAD 2000
 90
        0
280
     0
281
     0
  0
CLASS
  1
ACDBPLACEHOLDER
  2
AcDbPlaceHolder
  3
AutoCAD 2000
 90
        0
280
     0
281
     0
  0
CLASS
  1
LAYOUT
  2
AcDbLayout
  3
AutoCAD 2000
 90
        0
280
     0
281
     0
  0
CLASS
  1
DICTIONARYVAR
  2
AcDbDictionaryVar
  3
"AutoCAD"
 90
        0
280
     0
281
     0
  0
CLASS
  1
LONG_TRANSACTION
  2
AcDbLongTransaction
  3
AutoCAD 2000
 90
        0
280
     0
281
     0
  0
CLASS
  1
LWPOLYLINE
  2
AcDbPolyline
  3
"AutoCAD"
 90
        0
280
     0
281
     1
  0
CLASS
  1
HATCH
  2
AcDbHatch
  3
"ACAD_SEDONA"
 90
        0
280
     0
281
     1
  0
CLASS
  1
XRECORD
  2
AcDbXrecord
  3
"<Built In>"
 90
        0
280
     0
281
     0
  0
ENDSEC
  0
SECTION
  2
TABLES
  0
TABLE
  2
VPORT
  5
37B
100
AcDbSymbolTable
 70
     1
  0
VPORT
  5
50C
102
{ACAD_XDICTIONARY
360
515
102
}
100
AcDbSymbolTableRecord
100
AcDbViewportTableRecord
  2
*ACTIVE
 70
     0
 10
0.0
 20
0.0
 11
1.0
 21
1.0
 12
82.499085
 22
45.493694
 13
0.0
 23
0.0
 14
1.0
 24
1.0
 15
10.0
 25
10.0
 16
0.0
 26
0.0
 36
1.0
 17
0.0
 27
0.0
 37
0.0
 40
92.781532
 41
1.570997
 42
50.0
 43
0.0
 44
0.0
 50
0.0
 51
0.0
 71
     0
 72
   100
 73
     1
 74
     1
 75
     0
 76
     0
 77
     0
 78
     0
  0
ENDTAB
  0
TABLE
  2
LTYPE
  5
378
100
AcDbSymbolTable
 70
     2
  0
LTYPE
  5
386
102
{ACAD_XDICTIONARY
360
511
102
}
100
AcDbSymbolTableRecord
100
AcDbLinetypeTableRecord
  2
BYBLOCK
 70
     0
  3

 72
    65
 73
     0
 40
0.0
  0
LTYPE
  5
387
102
{ACAD_XDICTIONARY
360
513
102
}
100
AcDbSymbolTableRecord
100
AcDbLinetypeTableRecord
  2
BYLAYER
 70
     0
  3

 72
    65
 73
     0
 40
0.0
  0
LTYPE
  5
388
100
AcDbSymbolTableRecord
100
AcDbLinetypeTableRecord
  2
CONTINUOUS
 70
     0
  3
Solid line
 72
    65
 73
     0
 40
0.0
  0
LTYPE
  5
396
100
AcDbSymbolTableRecord
100
AcDbLinetypeTableRecord
  2
CENTER
 70
     0
  3
Center ____ _ ____ _ ____ _ ____ _ ____ _ ____
 72
    65
 73
     4
 40
50.8
 49
31.75
 74
     0
 49
-6.35
 74
     0
 49
6.35
 74
     0
 49
-6.35
 74
     0
  0
ENDTAB
  0
TABLE
  2
LAYER
  5
375
100
AcDbSymbolTable
 70
     2
  0
LAYER
  5
383
100
AcDbSymbolTableRecord
100
AcDbLayerTableRecord
  2
0
 70
     0
 62
     7
  6
CONTINUOUS
  0
LAYER
  5
397
100
AcDbSymbolTableRecord
100
AcDbLayerTableRecord
  2
CENTER
 70
     0
 62
     1
  6
CENTER
  0
ENDTAB
  0
TABLE
  2
STYLE
  5
376
100
AcDbSymbolTable
 70
     1
  0
STYLE
  5
384
100
AcDbSymbolTableRecord
100
AcDbTextStyleTableRecord
  2
STANDARD
 70
     0
 40
0.0
 41
1.0
 50
0.0
 71
     0
 42
2.0
  3
txt.shx
  4
extfont.shx
  0
ENDTAB
  0
TABLE
  2
VIEW
  5
379
100
AcDbSymbolTable
 70
     0
  0
ENDTAB
  0
TABLE
  2
UCS
  5
37A
100
AcDbSymbolTable
 70
     0
  0
ENDTAB
  0
TABLE
  2
APPID
  5
37C
100
AcDbSymbolTable
 70
     1
  0
APPID
  5
385
100
AcDbSymbolTableRecord
100
AcDbRegAppTableRecord
  2
ACAD
 70
     0
  0
ENDTAB
  0
TABLE
  2
DIMSTYLE
  5
37D
100
AcDbSymbolTable
 70
     1
  0
DIMSTYLE
105
398
102
{ACAD_XDICTIONARY
360
53D
102
}
100
AcDbSymbolTableRecord
100
AcDbDimStyleTableRecord
  2
ISO-25
 70
     0
  3

  4

  5

  6

  7

 40
1.0
 41
2.5
 42
0.625
 43
3.75
 44
1.25
 45
0.0
 46
0.0
 47
0.0
 48
0.0
140
2.5
141
2.5
142
0.0
143
0.0394
144
1.0
145
0.0
146
1.0
147
0.625
 71
     0
 72
     0
 73
     0
 74
     0
 75
     0
 76
     0
 77
     1
 78
     8
170
     0
171
     4
172
     1
173
     0
174
     0
175
     0
176
     0
177
     0
178
     0
270
     2
271
     2
272
     2
273
     2
274
     4
340
384
275
     0
280
     0
281
     0
282
     0
283
     1
284
     8
285
     8
286
     8
287
     5
288
     0
  0
ENDTAB
  0
TABLE
  2
BLOCK_RECORD
  5
374
100
AcDbSymbolTable
 70
     2
  0
BLOCK_RECORD
  5
391
102
{ACAD_XDICTIONARY
360
50D
102
}
100
AcDbSymbolTableRecord
100
AcDbBlockTableRecord
  2
*MODEL_SPACE
  0
BLOCK_RECORD
  5
38D
102
{ACAD_XDICTIONARY
360
50F
102
}
100
AcDbSymbolTableRecord
100
AcDbBlockTableRecord
  2
*PAPER_SPACE
  0
BLOCK_RECORD
  5
39B
100
AcDbSymbolTableRecord
100
AcDbBlockTableRecord
  2
$MODEL_SPACE
  0
BLOCK_RECORD
  5
39E
100
AcDbSymbolTableRecord
100
AcDbBlockTableRecord
  2
$PAPER_SPACE
  0
ENDTAB
  0
ENDSEC
  0
SECTION
  2
BLOCKS
  0
BLOCK
  5
392
100
AcDbEntity
  8
0
100
AcDbBlockBegin
  2
*MODEL_SPACE
 70
     0
 10
0.0
 20
0.0
 30
0.0
  3
*MODEL_SPACE
  1

  0
ENDBLK
  5
393
100
AcDbEntity
  8
0
100
AcDbBlockEnd
  0
BLOCK
  5
38E
100
AcDbEntity
 67
     1
  8
0
100
AcDbBlockBegin
  2
*PAPER_SPACE
 70
     0
 10
0.0
 20
0.0
 30
0.0
  3
*PAPER_SPACE
  1

  0
ENDBLK
  5
38F
100
AcDbEntity
 67
     1
  8
0
100
AcDbBlockEnd
  0
BLOCK
  5
39C
100
AcDbEntity
  8
0
100
AcDbBlockBegin
  2
$MODEL_SPACE
 70
     0
 10
0.0
 20
0.0
 30
0.0
  3
$MODEL_SPACE
  1

  0
ENDBLK
  5
39D
100
AcDbEntity
  8
0
100
AcDbBlockEnd
  0
BLOCK
  5
39F
100
AcDbEntity
  8
0
100
AcDbBlockBegin
  2
$PAPER_SPACE
 70
     0
 10
0.0
 20
0.0
 30
0.0
  3
$PAPER_SPACE
  1

  0
ENDBLK
  5
3A0
100
AcDbEntity
  8
0
100
AcDbBlockEnd
  0
ENDSEC
  0
SECTION
  2
ENTITIES
  0
LINE
  5
3A1
100
AcDbEntity
  8
0
100
AcDbLine
 10
73.41
 20
50.0
 30
0.0
 11
73.41
 21
61.55
 31
0.0
  0
LINE
  5
3A2
100
AcDbEntity
  8
0
100
AcDbLine
 10
72.35
 20
61.55
 30
0.0
 11
72.35
 21
50.0
 31
0.0
  0
LINE
  5
3A3
100
AcDbEntity
  8
0
100
AcDbLine
 10
52.65
 20
61.55
 30
0.0
 11
52.65
 21
50.0
 31
0.0
  0
LINE
  5
3A4
100
AcDbEntity
  8
0
100
AcDbLine
 10
51.59
 20
50.0
 30
0.0
 11
51.59
 21
61.55
 31
0.0
  0
LINE
  5
3A5
100
AcDbEntity
  8
0
100
AcDbLine
 10
75.0
 20
63.5
 30
0.0
 11
75.0
 21
50.0
 31
0.0
  0
LINE
  5
3A6
100
AcDbEntity
  8
0
100
AcDbLine
 10
50.0
 20
50.0
 30
0.0
 11
50.0
 21
63.5
 31
0.0
  0
LINE
  5
3A9
100
AcDbEntity
  8
0
100
AcDbLine
 10
58.9
 20
35.5
 30
0.0
 11
58.9
 21
31.5
 31
0.0
  0
LINE
  5
3AA
100
AcDbEntity
  8
0
100
AcDbLine
 10
63.0
 20
26.5
 30
0.0
 11
63.0
 21
36.5
 31
0.0
  0
LINE
  5
3AB
100
AcDbEntity
  8
0
100
AcDbLine
 10
55.0
 20
36.5
 30
0.0
 11
55.0
 21
26.5
 31
0.0
  0
LINE
  5
3AC
100
AcDbEntity
  8
CENTER
  6
CENTER
 62
     1
100
AcDbLine
 10
64.5
 20
31.5
 30
0.0
 11
53.5
 21
31.5
 31
0.0
  0
LINE
  5
3AD
100
AcDbEntity
  8
0
100
AcDbLine
 10
63.0
 20
27.5
 30
0.0
 11
58.9
 21
27.5
 31
0.0
  0
LINE
  5
3AE
100
AcDbEntity
  8
0
100
AcDbLine
 10
55.0
 20
26.5
 30
0.0
 11
63.0
 21
26.5
 31
0.0
  0
LINE
  5
3AF
100
AcDbEntity
  8
0
100
AcDbLine
 10
63.0
 20
26.589148
 30
0.0
 11
55.0
 21
26.589148
 31
0.0
  0
LINE
  5
3B0
100
AcDbEntity
  8
0
100
AcDbLine
 10
58.9
 20
29.25
 30
0.0
 11
55.0
 21
29.25
 31
0.0
  0
LINE
  5
3B1
100
AcDbEntity
  8
0
100
AcDbLine
 10
58.9
 20
27.5
 30
0.0
 11
58.9
 21
31.5
 31
0.0
  0
LINE
  5
3B2
100
AcDbEntity
  8
CENTER
  6
CENTER
 62
     1
100
AcDbLine
 10
48.5
 20
50.0
 30
0.0
 11
76.5
 21
50.0
 31
0.0
  0
LINE
  5
3B3
100
AcDbEntity
  8
0
100
AcDbLine
 10
63.0
 20
35.5
 30
0.0
 11
58.9
 21
35.5
 31
0.0
  0
LINE
  5
3B4
100
AcDbEntity
  8
0
100
AcDbLine
 10
51.59
 20
50.0
 30
0.0
 11
51.59
 21
38.45
 31
0.0
  0
LINE
  5
3B5
100
AcDbEntity
  8
0
100
AcDbLine
 10
52.65
 20
38.45
 30
0.0
 11
52.65
 21
50.0
 31
0.0
  0
LINE
  5
3B6
100
AcDbEntity
  8
0
100
AcDbLine
 10
50.0
 20
50.0
 30
0.0
 11
50.0
 21
36.5
 31
0.0
  0
LINE
  5
3B7
100
AcDbEntity
  8
0
100
AcDbLine
 10
50.0
 20
36.5
 30
0.0
 11
55.0
 21
36.5
 31
0.0
  0
LINE
  5
3B8
100
AcDbEntity
  8
0
100
AcDbLine
 10
50.0
 20
39.0
 30
0.0
 11
51.59
 21
39.0
 31
0.0
  0
LINE
  5
3B9
100
AcDbEntity
  8
0
100
AcDbLine
 10
51.59
 20
38.45
 30
0.0
 11
52.65
 21
38.45
 31
0.0
  0
LINE
  5
3BA
100
AcDbEntity
  8
0
100
AcDbLine
 10
58.9
 20
33.75
 30
0.0
 11
55.0
 21
33.75
 31
0.0
  0
LINE
  5
3BB
100
AcDbEntity
  8
0
100
AcDbLine
 10
72.35
 20
38.45
 30
0.0
 11
72.35
 21
50.0
 31
0.0
  0
LINE
  5
3BC
100
AcDbEntity
  8
0
100
AcDbLine
 10
73.41
 20
50.0
 30
0.0
 11
73.41
 21
38.45
 31
0.0
  0
LINE
  5
3BD
100
AcDbEntity
  8
0
100
AcDbLine
 10
75.0
 20
36.5
 30
0.0
 11
75.0
 21
50.0
 31
0.0
  0
LINE
  5
3BE
100
AcDbEntity
  8
0
100
AcDbLine
 10
63.0
 20
36.5
 30
0.0
 11
75.0
 21
36.5
 31
0.0
  0
LINE
  5
3BF
100
AcDbEntity
  8
0
100
AcDbLine
 10
75.0
 20
39.0
 30
0.0
 11
73.41
 21
39.0
 31
0.0
  0
LINE
  5
3C0
100
AcDbEntity
  8
0
100
AcDbLine
 10
73.41
 20
38.45
 30
0.0
 11
72.35
 21
38.45
 31
0.0
  0
LINE
  5
3C1
100
AcDbEntity
  8
CENTER
  6
CENTER
 62
     1
100
AcDbLine
 10
64.5
 20
68.5
 30
0.0
 11
53.5
 21
68.5
 31
0.0
  0
LINE
  5
3C2
100
AcDbEntity
  8
0
100
AcDbLine
 10
63.0
 20
64.5
 30
0.0
 11
58.9
 21
64.5
 31
0.0
  0
LINE
  5
3C3
100
AcDbEntity
  8
0
100
AcDbLine
 10
63.0
 20
72.5
 30
0.0
 11
58.9
 21
72.5
 31
0.0
  0
LINE
  5
3C4
100
AcDbEntity
  8
0
100
AcDbLine
 10
55.0
 20
73.5
 30
0.0
 11
63.0
 21
73.5
 31
0.0
  0
LINE
  5
3C5
100
AcDbEntity
  8
0
100
AcDbLine
 10
63.0
 20
73.410852
 30
0.0
 11
55.0
 21
73.410852
 31
0.0
  0
LINE
  5
3C6
100
AcDbEntity
  8
0
100
AcDbLine
 10
58.9
 20
64.5
 30
0.0
 11
58.9
 21
68.5
 31
0.0
  0
LINE
  5
3C7
100
AcDbEntity
  8
0
100
AcDbLine
 10
55.0
 20
63.5
 30
0.0
 11
55.0
 21
73.5
 31
0.0
  0
LINE
  5
3C8
100
AcDbEntity
  8
0
100
AcDbLine
 10
50.0
 20
63.5
 30
0.0
 11
55.0
 21
63.5
 31
0.0
  0
LINE
  5
3C9
100
AcDbEntity
  8
0
100
AcDbLine
 10
50.0
 20
61.0
 30
0.0
 11
51.59
 21
61.0
 31
0.0
  0
LINE
  5
3CA
100
AcDbEntity
  8
0
100
AcDbLine
 10
51.59
 20
61.55
 30
0.0
 11
52.65
 21
61.55
 31
0.0
  0
LINE
  5
3CB
100
AcDbEntity
  8
0
100
AcDbLine
 10
58.9
 20
66.25
 30
0.0
 11
55.0
 21
66.25
 31
0.0
  0
LINE
  5
3CC
100
AcDbEntity
  8
0
100
AcDbLine
 10
58.9
 20
70.75
 30
0.0
 11
55.0
 21
70.75
 31
0.0
  0
LINE
  5
3CD
100
AcDbEntity
  8
0
100
AcDbLine
 10
58.9
 20
72.5
 30
0.0
 11
58.9
 21
68.5
 31
0.0
  0
LINE
  5
3CE
100
AcDbEntity
  8
0
100
AcDbLine
 10
63.0
 20
73.5
 30
0.0
 11
63.0
 21
63.5
 31
0.0
  0
LINE
  5
3CF
100
AcDbEntity
  8
0
100
AcDbLine
 10
63.0
 20
63.5
 30
0.0
 11
75.0
 21
63.5
 31
0.0
  0
LINE
  5
3D0
100
AcDbEntity
  8
0
100
AcDbLine
 10
75.0
 20
61.0
 30
0.0
 11
73.41
 21
61.0
 31
0.0
  0
LINE
  5
3D1
100
AcDbEntity
  8
0
100
AcDbLine
 10
73.41
 20
61.55
 30
0.0
 11
72.35
 21
61.55
 31
0.0
  0
LINE
  5
3D2
100
AcDbEntity
  8
CENTER
  6
CENTER
 62
     1
100
AcDbLine
 10
130.0
 20
75.0
 30
0.0
 11
130.0
 21
25.0
 31
0.0
  0
ARC
  5
3D3
100
AcDbEntity
  8
CENTER
  6
CENTER
 62
     1
100
AcDbCircle
 10
130.0
 20
50.0
 30
0.0
 40
18.5
100
AcDbArc
 50
155.02622
 51
204.97378
  0
ARC
  5
3D4
100
AcDbEntity
  8
CENTER
  6
CENTER
 62
     1
100
AcDbCircle
 10
130.0
 20
50.0
 30
0.0
 40
18.5
100
AcDbArc
 50
335.02622
 51
24.97378
  0
LINE
  5
3D5
100
AcDbEntity
  8
0
100
AcDbLine
 10
106.589148
 20
52.044992
 30
0.0
 11
127.955008
 21
73.410852
 31
0.0
  0
CIRCLE
  5
3D6
100
AcDbEntity
  8
0
100
AcDbCircle
 10
130.0
 20
50.0
 30
0.0
 40
13.5
  0
LINE
  5
3D7
100
AcDbEntity
  8
0
100
AcDbLine
 10
153.410852
 20
52.044992
 30
0.0
 11
132.044992
 21
73.410852
 31
0.0
  0
CIRCLE
  5
3D8
100
AcDbEntity
  8
0
100
AcDbCircle
 10
130.0
 20
50.0
 30
0.0
 40
11.0
  0
LINE
  5
3D9
100
AcDbEntity
  8
CENTER
  6
CENTER
 62
     1
100
AcDbLine
 10
155.0
 20
50.0
 30
0.0
 11
105.0
 21
50.0
 31
0.0
  0
LINE
  5
3DA
100
AcDbEntity
  8
0
100
AcDbLine
 10
153.410852
 20
47.955008
 30
0.0
 11
132.044992
 21
26.589148
 31
0.0
  0
CIRCLE
  5
3DB
100
AcDbEntity
  8
0
100
AcDbCircle
 10
111.5
 20
50.0
 30
0.0
 40
2.25
  0
LINE
  5
3DC
100
AcDbEntity
  8
0
100
AcDbLine
 10
106.589148
 20
47.955008
 30
0.0
 11
127.955008
 21
26.589148
 31
0.0
  0
CIRCLE
  5
3DD
100
AcDbEntity
  8
0
100
AcDbCircle
 10
111.5
 20
50.0
 30
0.0
 40
4.0
  0
ARC
  5
3DE
100
AcDbEntity
  8
0
100
AcDbCircle
 10
130.0
 20
50.0
 30
0.0
 40
23.5
100
AcDbArc
 50
175.007754
 51
184.992246
  0
ARC
  5
3DF
100
AcDbEntity
  8
CENTER
  6
CENTER
 62
     1
100
AcDbCircle
 10
130.0
 20
50.0
 30
0.0
 40
18.5
100
AcDbArc
 50
245.02622
 51
294.97378
  0
CIRCLE
  5
3E0
100
AcDbEntity
  8
0
100
AcDbCircle
 10
130.0
 20
31.5
 30
0.0
 40
2.25
  0
CIRCLE
  5
3E1
100
AcDbEntity
  8
0
100
AcDbCircle
 10
130.0
 20
31.5
 30
0.0
 40
4.0
  0
ARC
  5
3E2
100
AcDbEntity
  8
0
100
AcDbCircle
 10
130.0
 20
50.0
 30
0.0
 40
23.5
100
AcDbArc
 50
265.007754
 51
274.992246
  0
CIRCLE
  5
3E3
100
AcDbEntity
  8
0
100
AcDbCircle
 10
130.0
 20
50.0
 30
0.0
 40
5.0
  0
CIRCLE
  5
3E4
100
AcDbEntity
  8
0
100
AcDbCircle
 10
148.5
 20
50.0
 30
0.0
 40
4.0
  0
CIRCLE
  5
3E5
100
AcDbEntity
  8
0
100
AcDbCircle
 10
148.5
 20
50.0
 30
0.0
 40
2.25
  0
ARC
  5
3E6
100
AcDbEntity
  8
0
100
AcDbCircle
 10
130.0
 20
50.0
 30
0.0
 40
23.5
100
AcDbArc
 50
355.007754
 51
4.992246
  0
ARC
  5
3E7
100
AcDbEntity
  8
CENTER
  6
CENTER
 62
     1
100
AcDbCircle
 10
130.0
 20
50.0
 30
0.0
 40
18.5
100
AcDbArc
 50
65.02622
 51
114.97378
  0
CIRCLE
  5
3E8
100
AcDbEntity
  8
0
100
AcDbCircle
 10
130.0
 20
68.5
 30
0.0
 40
4.0
  0
CIRCLE
  5
3E9
100
AcDbEntity
  8
0
100
AcDbCircle
 10
130.0
 20
68.5
 30
0.0
 40
2.25
  0
ARC
  5
3EA
100
AcDbEntity
  8
0
100
AcDbCircle
 10
130.0
 20
50.0
 30
0.0
 40
23.5
100
AcDbArc
 50
85.007754
 51
94.992246
  0
LINE
  5
3EB
100
AcDbEntity
  8
0
100
AcDbLine
 10
58.65
 20
60.7
 30
0.0
 11
58.65
 21
39.3
 31
0.0
  0
LINE
  5
3EC
100
AcDbEntity
  8
0
100
AcDbLine
 10
66.35
 20
60.7
 30
0.0
 11
66.35
 21
39.3
 31
0.0
  0
LINE
  5
3ED
100
AcDbEntity
  8
0
100
AcDbLine
 10
66.65
 20
55.0
 30
0.0
 11
72.05
 21
55.0
 31
0.0
  0
LINE
  5
3EE
100
AcDbEntity
  8
0
100
AcDbLine
 10
66.65
 20
45.0
 30
0.0
 11
72.05
 21
45.0
 31
0.0
  0
LINE
  5
3EF
100
AcDbEntity
  8
0
100
AcDbLine
 10
70.58294
 20
41.00003
 30
0.0
 11
71.09699
 21
41.00002
 31
0.0
  0
LINE
  5
3F0
100
AcDbEntity
  8
0
100
AcDbLine
 10
70.58294
 20
43.0
 30
0.0
 11
71.131
 21
43.0
 31
0.0
  0
LINE
  5
3F1
100
AcDbEntity
  8
0
100
AcDbLine
 10
66.65
 20
39.0
 30
0.0
 11
72.05
 21
39.0
 31
0.0
  0
LINE
  5
3F2
100
AcDbEntity
  8
0
100
AcDbLine
 10
52.95
 20
55.0
 30
0.0
 11
58.35
 21
55.0
 31
0.0
  0
LINE
  5
3F3
100
AcDbEntity
  8
0
100
AcDbLine
 10
52.95
 20
45.0
 30
0.0
 11
58.35
 21
45.0
 31
0.0
  0
LINE
  5
3F4
100
AcDbEntity
  8
0
100
AcDbLine
 10
52.95
 20
39.0
 30
0.0
 11
58.35
 21
39.0
 31
0.0
  0
CIRCLE
  5
3F5
100
AcDbEntity
  8
0
100
AcDbCircle
 10
55.65
 20
42.0
 30
0.0
 40
1.5875
  0
ARC
  5
3F6
100
AcDbEntity
  8
0
100
AcDbCircle
 10
53.869
 20
43.10001
 30
0.0
 40
0.1
100
AcDbArc
 50
199.88428
 51
270.00049
  0
LINE
  5
3F7
100
AcDbEntity
  8
0
100
AcDbLine
 10
53.532
 20
42.95001
 30
0.0
 11
53.082
 21
42.95001
 31
0.0
  0
LINE
  5
3F8
100
AcDbEntity
  8
0
100
AcDbLine
 10
53.082
 20
43.15001
 30
0.0
 11
53.532
 21
43.15001
 31
0.0
  0
LINE
  5
3F9
100
AcDbEntity
  8
0
100
AcDbLine
 10
53.532
 20
43.15001
 30
0.0
 11
53.532
 21
42.95003
 31
0.0
  0
ARC
  5
3FA
100
AcDbEntity
  8
0
100
AcDbCircle
 10
53.423
 20
43.45001
 30
0.0
 40
0.2
100
AcDbArc
 50
19.88834
 51
89.99997
  0
LINE
  5
3FB
100
AcDbEntity
  8
0
100
AcDbLine
 10
53.387
 20
43.65001
 30
0.0
 11
53.423
 21
43.65001
 31
0.0
  0
ARC
  5
3FC
100
AcDbEntity
  8
0
100
AcDbCircle
 10
53.387
 20
43.45001
 30
0.0
 40
0.20013
100
AcDbArc
 50
89.99997
 51
139.86162
  0
LINE
  5
3FD
100
AcDbEntity
  8
0
100
AcDbLine
 10
53.0
 20
43.3
 30
0.0
 11
53.234
 21
43.57901
 31
0.0
  0
LINE
  5
3FE
100
AcDbEntity
  8
0
100
AcDbLine
 10
53.61099
 20
43.51802
 30
0.0
 11
53.77499
 21
43.06604
 31
0.0
  0
LINE
  5
3FF
100
AcDbEntity
  8
0
100
AcDbLine
 10
53.869
 20
43.0
 30
0.0
 11
54.41706
 21
43.0
 31
0.0
  0
ARC
  5
400
100
AcDbEntity
  8
0
100
AcDbCircle
 10
53.082
 20
42.95001
 30
0.0
 40
0.20001
100
AcDbArc
 50
89.99997
 51
179.99995
  0
LINE
  5
401
100
AcDbEntity
  8
0
100
AcDbLine
 10
53.782
 20
40.666
 30
0.0
 11
53.782
 21
41.013
 31
0.0
  0
LINE
  5
402
100
AcDbEntity
  8
0
100
AcDbLine
 10
53.748
 20
40.27206
 30
0.0
 11
53.80301
 21
40.90906
 31
0.0
  0
ARC
  5
403
100
AcDbEntity
  8
0
100
AcDbCircle
 10
53.903
 20
40.90001
 30
0.0
 40
0.10042
100
AcDbArc
 50
89.99997
 51
174.85562
  0
LINE
  5
404
100
AcDbEntity
  8
0
100
AcDbLine
 10
53.21301
 20
40.71103
 30
0.0
 11
53.07202
 21
40.57004
 31
0.0
  0
LINE
  5
405
100
AcDbEntity
  8
0
100
AcDbLine
 10
53.213
 20
40.71103
 30
0.0
 11
53.355
 21
40.57002
 31
0.0
  0
LINE
  5
406
100
AcDbEntity
  8
0
100
AcDbLine
 10
53.35502
 20
40.57002
 30
0.0
 11
53.21302
 21
40.42903
 31
0.0
  0
ARC
  5
407
100
AcDbEntity
  8
0
100
AcDbCircle
 10
53.213
 20
40.429
 30
0.0
 40
0.20013
100
AcDbArc
 50
134.99994
 51
220.13518
  0
LINE
  5
408
100
AcDbEntity
  8
0
100
AcDbLine
 10
53.549
 20
40.29002
 30
0.0
 11
53.582
 21
40.90205
 31
0.0
  0
LINE
  5
409
100
AcDbEntity
  8
0
100
AcDbLine
 10
53.58202
 20
40.90204
 30
0.0
 11
52.88202
 21
41.33905
 31
0.0
  0
LINE
  5
40A
100
AcDbEntity
  8
0
100
AcDbLine
 10
53.78201
 20
41.01305
 30
0.0
 11
53.08201
 21
41.45004
 31
0.0
  0
LINE
  5
40B
100
AcDbEntity
  8
0
100
AcDbLine
 10
53.903
 20
41.00002
 30
0.0
 11
54.41706
 21
41.00003
 31
0.0
  0
ARC
  5
40C
100
AcDbEntity
  8
0
100
AcDbCircle
 10
53.451
 20
40.29802
 30
0.0
 40
0.09832
100
AcDbArc
 50
220.02606
 51
355.33545
  0
LINE
  5
40D
100
AcDbEntity
  8
0
100
AcDbLine
 10
53.06
 20
40.30002
 30
0.0
 11
53.222
 21
40.10701
 31
0.0
  0
LINE
  5
40E
100
AcDbEntity
  8
0
100
AcDbLine
 10
53.213
 20
40.42902
 30
0.0
 11
53.376
 21
40.23503
 31
0.0
  0
ARC
  5
40F
100
AcDbEntity
  8
0
100
AcDbCircle
 10
53.451
 20
40.29802
 30
0.0
 40
0.29813
100
AcDbArc
 50
219.82864
 51
354.99951
  0
LINE
  5
410
100
AcDbEntity
  8
0
100
AcDbLine
 10
52.882
 20
41.33902
 30
0.0
 11
52.882
 21
42.95001
 31
0.0
  0
LINE
  5
411
100
AcDbEntity
  8
0
100
AcDbLine
 10
53.082
 20
41.45001
 30
0.0
 11
53.082
 21
42.95001
 31
0.0
  0
ARC
  5
412
100
AcDbEntity
  8
0
100
AcDbCircle
 10
52.75
 20
43.40001
 30
0.0
 40
0.1
100
AcDbArc
 50
179.99995
 51
270.00049
  0
ARC
  5
413
100
AcDbEntity
  8
0
100
AcDbCircle
 10
52.75
 20
40.20001
 30
0.0
 40
0.10001
100
AcDbArc
 50
89.99997
 51
179.99995
  0
LINE
  5
414
100
AcDbEntity
  8
0
100
AcDbLine
 10
52.75
 20
43.3
 30
0.0
 11
53.0
 21
43.3
 31
0.0
  0
LINE
  5
415
100
AcDbEntity
  8
0
100
AcDbLine
 10
52.75
 20
40.30002
 30
0.0
 11
53.06
 21
40.30002
 31
0.0
  0
ARC
  5
416
100
AcDbEntity
  8
0
100
AcDbCircle
 10
52.95
 20
39.3
 30
0.0
 40
0.3
100
AcDbArc
 50
180.0
 51
270.0
  0
ARC
  5
417
100
AcDbEntity
  8
0
100
AcDbCircle
 10
52.95
 20
44.7
 30
0.0
 40
0.3
100
AcDbArc
 50
90.0
 51
180.0
  0
ARC
  5
418
100
AcDbEntity
  8
0
100
AcDbCircle
 10
52.95
 20
55.3
 30
0.0
 40
0.3
100
AcDbArc
 50
180.0
 51
270.0
  0
LINE
  5
419
100
AcDbEntity
  8
0
100
AcDbLine
 10
58.65
 20
40.5
 30
0.0
 11
66.35
 21
40.5
 31
0.0
  0
ARC
  5
41A
100
AcDbEntity
  8
0
100
AcDbCircle
 10
58.55
 20
43.40001
 30
0.0
 40
0.09999
100
AcDbArc
 50
269.99976
 51
0.00874
  0
ARC
  5
41B
100
AcDbEntity
  8
0
100
AcDbCircle
 10
58.55
 20
40.20001
 30
0.0
 40
0.1
100
AcDbArc
 50
0.00874
 51
90.00052
  0
ARC
  5
41C
100
AcDbEntity
  8
0
100
AcDbCircle
 10
58.35
 20
39.3
 30
0.0
 40
0.3
100
AcDbArc
 50
270.0
 51
0.0
  0
LINE
  5
41D
100
AcDbEntity
  8
0
100
AcDbLine
 10
58.55
 20
43.3
 30
0.0
 11
58.3
 21
43.3
 31
0.0
  0
ARC
  5
41E
100
AcDbEntity
  8
0
100
AcDbCircle
 10
58.218
 20
42.95001
 30
0.0
 40
0.2
100
AcDbArc
 50
0.00437
 51
90.00024
  0
LINE
  5
41F
100
AcDbEntity
  8
0
100
AcDbLine
 10
57.768
 20
43.15001
 30
0.0
 11
57.768
 21
42.95003
 31
0.0
  0
ARC
  5
420
100
AcDbEntity
  8
0
100
AcDbCircle
 10
57.431
 20
43.10001
 30
0.0
 40
0.09999
100
AcDbArc
 50
269.99976
 51
340.11548
  0
LINE
  5
421
100
AcDbEntity
  8
0
100
AcDbLine
 10
58.218
 20
43.15001
 30
0.0
 11
57.768
 21
43.15001
 31
0.0
  0
LINE
  5
422
100
AcDbEntity
  8
0
100
AcDbLine
 10
57.768
 20
42.95001
 30
0.0
 11
58.218
 21
42.95001
 31
0.0
  0
ARC
  5
423
100
AcDbEntity
  8
0
100
AcDbCircle
 10
57.913
 20
43.45001
 30
0.0
 40
0.20013
100
AcDbArc
 50
40.13853
 51
90.00024
  0
LINE
  5
424
100
AcDbEntity
  8
0
100
AcDbLine
 10
57.913
 20
43.65001
 30
0.0
 11
57.877
 21
43.65001
 31
0.0
  0
ARC
  5
425
100
AcDbEntity
  8
0
100
AcDbCircle
 10
57.877
 20
43.45001
 30
0.0
 40
0.20001
100
AcDbArc
 50
90.00024
 51
160.11169
  0
LINE
  5
426
100
AcDbEntity
  8
0
100
AcDbLine
 10
58.3
 20
43.3
 30
0.0
 11
58.066
 21
43.57901
 31
0.0
  0
LINE
  5
427
100
AcDbEntity
  8
0
100
AcDbLine
 10
57.689
 20
43.51801
 30
0.0
 11
57.52501
 21
43.06604
 31
0.0
  0
LINE
  5
428
100
AcDbEntity
  8
0
100
AcDbLine
 10
56.88294
 20
43.0
 30
0.0
 11
57.431
 21
43.0
 31
0.0
  0
LINE
  5
429
100
AcDbEntity
  8
0
100
AcDbLine
 10
58.08699
 20
40.71101
 30
0.0
 11
57.94499
 21
40.57001
 31
0.0
  0
LINE
  5
42A
100
AcDbEntity
  8
0
100
AcDbLine
 10
57.94498
 20
40.57002
 30
0.0
 11
58.08698
 21
40.42903
 31
0.0
  0
LINE
  5
42B
100
AcDbEntity
  8
0
100
AcDbLine
 10
58.55
 20
40.30002
 30
0.0
 11
58.24
 21
40.30002
 31
0.0
  0
LINE
  5
42C
100
AcDbEntity
  8
0
100
AcDbLine
 10
58.08699
 20
40.71103
 30
0.0
 11
58.22798
 21
40.57004
 31
0.0
  0
ARC
  5
42D
100
AcDbEntity
  8
0
100
AcDbCircle
 10
58.087
 20
40.429
 30
0.0
 40
0.20012
100
AcDbArc
 50
319.86475
 51
45.00327
  0
LINE
  5
42E
100
AcDbEntity
  8
0
100
AcDbLine
 10
57.55199
 20
40.27206
 30
0.0
 11
57.49699
 21
40.90904
 31
0.0
  0
LINE
  5
42F
100
AcDbEntity
  8
0
100
AcDbLine
 10
57.518
 20
40.666
 30
0.0
 11
57.518
 21
41.01302
 31
0.0
  0
LINE
  5
430
100
AcDbEntity
  8
0
100
AcDbLine
 10
57.751
 20
40.29004
 30
0.0
 11
57.71799
 21
40.90205
 31
0.0
  0
ARC
  5
431
100
AcDbEntity
  8
0
100
AcDbCircle
 10
57.397
 20
40.90001
 30
0.0
 40
0.1004
100
AcDbArc
 50
5.14432
 51
90.00052
  0
LINE
  5
432
100
AcDbEntity
  8
0
100
AcDbLine
 10
57.51798
 20
41.01303
 30
0.0
 11
58.21798
 21
41.45001
 31
0.0
  0
LINE
  5
433
100
AcDbEntity
  8
0
100
AcDbLine
 10
57.71799
 20
40.90204
 30
0.0
 11
58.41799
 21
41.33905
 31
0.0
  0
LINE
  5
434
100
AcDbEntity
  8
0
100
AcDbLine
 10
58.087
 20
40.42902
 30
0.0
 11
57.924
 21
40.23502
 31
0.0
  0
LINE
  5
435
100
AcDbEntity
  8
0
100
AcDbLine
 10
58.24
 20
40.30002
 30
0.0
 11
58.078
 21
40.10701
 31
0.0
  0
ARC
  5
436
100
AcDbEntity
  8
0
100
AcDbCircle
 10
57.849
 20
40.29802
 30
0.0
 40
0.29813
100
AcDbArc
 50
185.00026
 51
320.17139
  0
ARC
  5
437
100
AcDbEntity
  8
0
100
AcDbCircle
 10
57.849
 20
40.29802
 30
0.0
 40
0.09833
100
AcDbArc
 50
184.66426
 51
319.97363
  0
LINE
  5
438
100
AcDbEntity
  8
0
100
AcDbLine
 10
56.88294
 20
41.00003
 30
0.0
 11
57.39699
 21
41.00002
 31
0.0
  0
LINE
  5
439
100
AcDbEntity
  8
0
100
AcDbLine
 10
58.218
 20
41.45001
 30
0.0
 11
58.218
 21
42.95001
 31
0.0
  0
LINE
  5
43A
100
AcDbEntity
  8
0
100
AcDbLine
 10
58.418
 20
41.33902
 30
0.0
 11
58.418
 21
42.95001
 31
0.0
  0
LINE
  5
43B
100
AcDbEntity
  8
0
100
AcDbLine
 10
66.76
 20
40.30002
 30
0.0
 11
66.922
 21
40.10701
 31
0.0
  0
LINE
  5
43C
100
AcDbEntity
  8
0
100
AcDbLine
 10
67.48201
 20
41.01305
 30
0.0
 11
66.78201
 21
41.45004
 31
0.0
  0
LINE
  5
43D
100
AcDbEntity
  8
0
100
AcDbLine
 10
67.28202
 20
40.90204
 30
0.0
 11
66.58202
 21
41.33905
 31
0.0
  0
LINE
  5
43E
100
AcDbEntity
  8
0
100
AcDbLine
 10
66.91301
 20
40.71103
 30
0.0
 11
66.77202
 21
40.57004
 31
0.0
  0
LINE
  5
43F
100
AcDbEntity
  8
0
100
AcDbLine
 10
66.7
 20
43.3
 30
0.0
 11
66.934
 21
43.57901
 31
0.0
  0
LINE
  5
440
100
AcDbEntity
  8
0
100
AcDbLine
 10
66.782
 20
43.15001
 30
0.0
 11
67.232
 21
43.15001
 31
0.0
  0
LINE
  5
441
100
AcDbEntity
  8
0
100
AcDbLine
 10
67.232
 20
42.95001
 30
0.0
 11
66.782
 21
42.95001
 31
0.0
  0
LINE
  5
442
100
AcDbEntity
  8
0
100
AcDbLine
 10
66.782
 20
41.45001
 30
0.0
 11
66.782
 21
42.95001
 31
0.0
  0
LINE
  5
443
100
AcDbEntity
  8
0
100
AcDbLine
 10
66.582
 20
41.33902
 30
0.0
 11
66.582
 21
42.95001
 31
0.0
  0
ARC
  5
444
100
AcDbEntity
  8
0
100
AcDbCircle
 10
66.65
 20
39.3
 30
0.0
 40
0.3
100
AcDbArc
 50
180.0
 51
270.0
  0
LINE
  5
445
100
AcDbEntity
  8
0
100
AcDbLine
 10
66.45
 20
40.30002
 30
0.0
 11
66.76
 21
40.30002
 31
0.0
  0
ARC
  5
446
100
AcDbEntity
  8
0
100
AcDbCircle
 10
66.45
 20
40.20001
 30
0.0
 40
0.10001
100
AcDbArc
 50
89.99997
 51
179.99995
  0
ARC
  5
447
100
AcDbEntity
  8
0
100
AcDbCircle
 10
66.913
 20
40.429
 30
0.0
 40
0.20013
100
AcDbArc
 50
134.99994
 51
220.13518
  0
ARC
  5
448
100
AcDbEntity
  8
0
100
AcDbCircle
 10
66.782
 20
42.95001
 30
0.0
 40
0.20001
100
AcDbArc
 50
89.99997
 51
179.99995
  0
LINE
  5
449
100
AcDbEntity
  8
0
100
AcDbLine
 10
66.45
 20
43.3
 30
0.0
 11
66.7
 21
43.3
 31
0.0
  0
ARC
  5
44A
100
AcDbEntity
  8
0
100
AcDbCircle
 10
66.45
 20
43.40001
 30
0.0
 40
0.1
100
AcDbArc
 50
179.99995
 51
270.00049
  0
ARC
  5
44B
100
AcDbEntity
  8
0
100
AcDbCircle
 10
67.151
 20
40.29802
 30
0.0
 40
0.29813
100
AcDbArc
 50
219.82864
 51
354.99951
  0
LINE
  5
44C
100
AcDbEntity
  8
0
100
AcDbLine
 10
66.913
 20
40.42902
 30
0.0
 11
67.076
 21
40.23503
 31
0.0
  0
ARC
  5
44D
100
AcDbEntity
  8
0
100
AcDbCircle
 10
67.151
 20
40.29802
 30
0.0
 40
0.09832
100
AcDbArc
 50
220.02606
 51
355.33545
  0
LINE
  5
44E
100
AcDbEntity
  8
0
100
AcDbLine
 10
67.603
 20
41.00002
 30
0.0
 11
68.11706
 21
41.00003
 31
0.0
  0
LINE
  5
44F
100
AcDbEntity
  8
0
100
AcDbLine
 10
67.249
 20
40.29002
 30
0.0
 11
67.282
 21
40.90205
 31
0.0
  0
LINE
  5
450
100
AcDbEntity
  8
0
100
AcDbLine
 10
67.05502
 20
40.57002
 30
0.0
 11
66.91302
 21
40.42903
 31
0.0
  0
LINE
  5
451
100
AcDbEntity
  8
0
100
AcDbLine
 10
66.913
 20
40.71103
 30
0.0
 11
67.055
 21
40.57002
 31
0.0
  0
ARC
  5
452
100
AcDbEntity
  8
0
100
AcDbCircle
 10
67.603
 20
40.90001
 30
0.0
 40
0.10042
100
AcDbArc
 50
89.99997
 51
174.85562
  0
LINE
  5
453
100
AcDbEntity
  8
0
100
AcDbLine
 10
67.448
 20
40.27206
 30
0.0
 11
67.50301
 21
40.90906
 31
0.0
  0
LINE
  5
454
100
AcDbEntity
  8
0
100
AcDbLine
 10
67.482
 20
40.666
 30
0.0
 11
67.482
 21
41.013
 31
0.0
  0
LINE
  5
455
100
AcDbEntity
  8
0
100
AcDbLine
 10
67.569
 20
43.0
 30
0.0
 11
68.11706
 21
43.0
 31
0.0
  0
LINE
  5
456
100
AcDbEntity
  8
0
100
AcDbLine
 10
67.31099
 20
43.51802
 30
0.0
 11
67.47499
 21
43.06604
 31
0.0
  0
ARC
  5
457
100
AcDbEntity
  8
0
100
AcDbCircle
 10
67.087
 20
43.45001
 30
0.0
 40
0.20013
100
AcDbArc
 50
89.99997
 51
139.86162
  0
LINE
  5
458
100
AcDbEntity
  8
0
100
AcDbLine
 10
67.087
 20
43.65001
 30
0.0
 11
67.123
 21
43.65001
 31
0.0
  0
ARC
  5
459
100
AcDbEntity
  8
0
100
AcDbCircle
 10
67.123
 20
43.45001
 30
0.0
 40
0.2
100
AcDbArc
 50
19.88834
 51
89.99997
  0
LINE
  5
45A
100
AcDbEntity
  8
0
100
AcDbLine
 10
67.232
 20
43.15001
 30
0.0
 11
67.232
 21
42.95003
 31
0.0
  0
ARC
  5
45B
100
AcDbEntity
  8
0
100
AcDbCircle
 10
67.569
 20
43.10001
 30
0.0
 40
0.1
100
AcDbArc
 50
199.88428
 51
270.00049
  0
CIRCLE
  5
45C
100
AcDbEntity
  8
0
100
AcDbCircle
 10
69.35
 20
42.0
 30
0.0
 40
1.5875
  0
ARC
  5
45D
100
AcDbEntity
  8
0
100
AcDbCircle
 10
58.35
 20
44.7
 30
0.0
 40
0.3
100
AcDbArc
 50
0.0
 51
90.0
  0
ARC
  5
45E
100
AcDbEntity
  8
0
100
AcDbCircle
 10
58.35
 20
55.3
 30
0.0
 40
0.3
100
AcDbArc
 50
270.0
 51
0.0
  0
ARC
  5
45F
100
AcDbEntity
  8
0
100
AcDbCircle
 10
66.65
 20
44.7
 30
0.0
 40
0.3
100
AcDbArc
 50
90.0
 51
180.0
  0
ARC
  5
460
100
AcDbEntity
  8
0
100
AcDbCircle
 10
66.65
 20
55.3
 30
0.0
 40
0.3
100
AcDbArc
 50
180.0
 51
270.0
  0
LINE
  5
461
100
AcDbEntity
  8
0
100
AcDbLine
 10
72.118
 20
41.33902
 30
0.0
 11
72.118
 21
42.95001
 31
0.0
  0
LINE
  5
462
100
AcDbEntity
  8
0
100
AcDbLine
 10
71.918
 20
41.45001
 30
0.0
 11
71.918
 21
42.95001
 31
0.0
  0
ARC
  5
463
100
AcDbEntity
  8
0
100
AcDbCircle
 10
72.05
 20
39.3
 30
0.0
 40
0.3
100
AcDbArc
 50
270.0
 51
0.0
  0
ARC
  5
464
100
AcDbEntity
  8
0
100
AcDbCircle
 10
71.549
 20
40.29802
 30
0.0
 40
0.09833
100
AcDbArc
 50
184.66426
 51
319.97363
  0
ARC
  5
465
100
AcDbEntity
  8
0
100
AcDbCircle
 10
71.549
 20
40.29802
 30
0.0
 40
0.29813
100
AcDbArc
 50
185.00026
 51
320.17139
  0
ARC
  5
466
100
AcDbEntity
  8
0
100
AcDbCircle
 10
72.25
 20
40.20001
 30
0.0
 40
0.1
100
AcDbArc
 50
0.00874
 51
90.00052
  0
LINE
  5
467
100
AcDbEntity
  8
0
100
AcDbLine
 10
71.94
 20
40.30002
 30
0.0
 11
71.778
 21
40.10701
 31
0.0
  0
LINE
  5
468
100
AcDbEntity
  8
0
100
AcDbLine
 10
71.787
 20
40.42902
 30
0.0
 11
71.624
 21
40.23502
 31
0.0
  0
LINE
  5
469
100
AcDbEntity
  8
0
100
AcDbLine
 10
71.41799
 20
40.90204
 30
0.0
 11
72.11799
 21
41.33905
 31
0.0
  0
LINE
  5
46A
100
AcDbEntity
  8
0
100
AcDbLine
 10
71.21798
 20
41.01303
 30
0.0
 11
71.91798
 21
41.45001
 31
0.0
  0
ARC
  5
46B
100
AcDbEntity
  8
0
100
AcDbCircle
 10
71.097
 20
40.90001
 30
0.0
 40
0.1004
100
AcDbArc
 50
5.14432
 51
90.00052
  0
LINE
  5
46C
100
AcDbEntity
  8
0
100
AcDbLine
 10
71.451
 20
40.29004
 30
0.0
 11
71.41799
 21
40.90205
 31
0.0
  0
LINE
  5
46D
100
AcDbEntity
  8
0
100
AcDbLine
 10
71.218
 20
40.666
 30
0.0
 11
71.218
 21
41.01302
 31
0.0
  0
LINE
  5
46E
100
AcDbEntity
  8
0
100
AcDbLine
 10
71.25199
 20
40.27206
 30
0.0
 11
71.19699
 21
40.90904
 31
0.0
  0
ARC
  5
46F
100
AcDbEntity
  8
0
100
AcDbCircle
 10
71.787
 20
40.429
 30
0.0
 40
0.20012
100
AcDbArc
 50
319.86475
 51
45.00327
  0
LINE
  5
470
100
AcDbEntity
  8
0
100
AcDbLine
 10
71.78699
 20
40.71103
 30
0.0
 11
71.92798
 21
40.57004
 31
0.0
  0
LINE
  5
471
100
AcDbEntity
  8
0
100
AcDbLine
 10
72.25
 20
40.30002
 30
0.0
 11
71.94
 21
40.30002
 31
0.0
  0
LINE
  5
472
100
AcDbEntity
  8
0
100
AcDbLine
 10
71.64498
 20
40.57002
 30
0.0
 11
71.78698
 21
40.42903
 31
0.0
  0
LINE
  5
473
100
AcDbEntity
  8
0
100
AcDbLine
 10
71.78699
 20
40.71101
 30
0.0
 11
71.64499
 21
40.57001
 31
0.0
  0
LINE
  5
474
100
AcDbEntity
  8
0
100
AcDbLine
 10
71.389
 20
43.51801
 30
0.0
 11
71.22501
 21
43.06604
 31
0.0
  0
ARC
  5
475
100
AcDbEntity
  8
0
100
AcDbCircle
 10
72.25
 20
43.40001
 30
0.0
 40
0.09999
100
AcDbArc
 50
269.99976
 51
0.00874
  0
LINE
  5
476
100
AcDbEntity
  8
0
100
AcDbLine
 10
72.0
 20
43.3
 30
0.0
 11
71.766
 21
43.57901
 31
0.0
  0
ARC
  5
477
100
AcDbEntity
  8
0
100
AcDbCircle
 10
71.577
 20
43.45001
 30
0.0
 40
0.20001
100
AcDbArc
 50
90.00024
 51
160.11169
  0
LINE
  5
478
100
AcDbEntity
  8
0
100
AcDbLine
 10
71.613
 20
43.65001
 30
0.0
 11
71.577
 21
43.65001
 31
0.0
  0
ARC
  5
479
100
AcDbEntity
  8
0
100
AcDbCircle
 10
71.613
 20
43.45001
 30
0.0
 40
0.20013
100
AcDbArc
 50
40.13853
 51
90.00024
  0
LINE
  5
47A
100
AcDbEntity
  8
0
100
AcDbLine
 10
71.468
 20
42.95001
 30
0.0
 11
71.918
 21
42.95001
 31
0.0
  0
LINE
  5
47B
100
AcDbEntity
  8
0
100
AcDbLine
 10
71.918
 20
43.15001
 30
0.0
 11
71.468
 21
43.15001
 31
0.0
  0
ARC
  5
47C
100
AcDbEntity
  8
0
100
AcDbCircle
 10
71.131
 20
43.10001
 30
0.0
 40
0.09999
100
AcDbArc
 50
269.99976
 51
340.11548
  0
LINE
  5
47D
100
AcDbEntity
  8
0
100
AcDbLine
 10
71.468
 20
43.15001
 30
0.0
 11
71.468
 21
42.95003
 31
0.0
  0
ARC
  5
47E
100
AcDbEntity
  8
0
100
AcDbCircle
 10
71.918
 20
42.95001
 30
0.0
 40
0.2
100
AcDbArc
 50
0.00437
 51
90.00024
  0
LINE
  5
47F
100
AcDbEntity
  8
0
100
AcDbLine
 10
72.25
 20
43.3
 30
0.0
 11
72.0
 21
43.3
 31
0.0
  0
ARC
  5
480
100
AcDbEntity
  8
0
100
AcDbCircle
 10
72.05
 20
44.7
 30
0.0
 40
0.3
100
AcDbArc
 50
0.0
 51
90.0
  0
ARC
  5
481
100
AcDbEntity
  8
0
100
AcDbCircle
 10
72.05
 20
55.3
 30
0.0
 40
0.3
100
AcDbArc
 50
270.0
 51
0.0
  0
LINE
  5
482
100
AcDbEntity
  8
0
100
AcDbLine
 10
70.58294
 20
57.0
 30
0.0
 11
71.131
 21
57.0
 31
0.0
  0
LINE
  5
483
100
AcDbEntity
  8
0
100
AcDbLine
 10
70.58294
 20
58.99997
 30
0.0
 11
71.09699
 21
58.99998
 31
0.0
  0
LINE
  5
484
100
AcDbEntity
  8
0
100
AcDbLine
 10
66.65
 20
61.0
 30
0.0
 11
72.05
 21
61.0
 31
0.0
  0
LINE
  5
485
100
AcDbEntity
  8
0
100
AcDbLine
 10
52.95
 20
61.0
 30
0.0
 11
58.35
 21
61.0
 31
0.0
  0
CIRCLE
  5
486
100
AcDbEntity
  8
0
100
AcDbCircle
 10
55.65
 20
58.0
 30
0.0
 40
1.5875
  0
ARC
  5
487
100
AcDbEntity
  8
0
100
AcDbCircle
 10
53.451
 20
59.70198
 30
0.0
 40
0.29813
100
AcDbArc
 50
5.00049
 51
140.17136
  0
LINE
  5
488
100
AcDbEntity
  8
0
100
AcDbLine
 10
53.549
 20
59.70998
 30
0.0
 11
53.582
 21
59.09795
 31
0.0
  0
ARC
  5
489
100
AcDbEntity
  8
0
100
AcDbCircle
 10
53.213
 20
59.571
 30
0.0
 40
0.20013
100
AcDbArc
 50
139.86482
 51
225.00006
  0
LINE
  5
48A
100
AcDbEntity
  8
0
100
AcDbLine
 10
53.213
 20
59.57098
 30
0.0
 11
53.376
 21
59.76497
 31
0.0
  0
LINE
  5
48B
100
AcDbEntity
  8
0
100
AcDbLine
 10
53.35502
 20
59.42998
 30
0.0
 11
53.21302
 21
59.57097
 31
0.0
  0
LINE
  5
48C
100
AcDbEntity
  8
0
100
AcDbLine
 10
53.213
 20
59.28897
 30
0.0
 11
53.355
 21
59.42998
 31
0.0
  0
LINE
  5
48D
100
AcDbEntity
  8
0
100
AcDbLine
 10
53.06
 20
59.69998
 30
0.0
 11
53.222
 21
59.89299
 31
0.0
  0
LINE
  5
48E
100
AcDbEntity
  8
0
100
AcDbLine
 10
53.21301
 20
59.28897
 30
0.0
 11
53.07202
 21
59.42996
 31
0.0
  0
ARC
  5
48F
100
AcDbEntity
  8
0
100
AcDbCircle
 10
53.451
 20
59.70198
 30
0.0
 40
0.09832
100
AcDbArc
 50
4.66455
 51
139.97394
  0
ARC
  5
490
100
AcDbEntity
  8
0
100
AcDbCircle
 10
53.903
 20
59.09999
 30
0.0
 40
0.10042
100
AcDbArc
 50
185.14438
 51
270.00003
  0
LINE
  5
491
100
AcDbEntity
  8
0
100
AcDbLine
 10
53.748
 20
59.72794
 30
0.0
 11
53.80301
 21
59.09094
 31
0.0
  0
LINE
  5
492
100
AcDbEntity
  8
0
100
AcDbLine
 10
53.782
 20
59.334
 30
0.0
 11
53.782
 21
58.987
 31
0.0
  0
LINE
  5
493
100
AcDbEntity
  8
0
100
AcDbLine
 10
53.903
 20
58.99998
 30
0.0
 11
54.41706
 21
58.99997
 31
0.0
  0
ARC
  5
494
100
AcDbEntity
  8
0
100
AcDbCircle
 10
52.75
 20
59.79999
 30
0.0
 40
0.10001
100
AcDbArc
 50
180.00005
 51
270.00003
  0
ARC
  5
495
100
AcDbEntity
  8
0
100
AcDbCircle
 10
52.95
 20
60.7
 30
0.0
 40
0.3
100
AcDbArc
 50
90.0
 51
180.0
  0
LINE
  5
496
100
AcDbEntity
  8
0
100
AcDbLine
 10
52.75
 20
59.69998
 30
0.0
 11
53.06
 21
59.69998
 31
0.0
  0
LINE
  5
497
100
AcDbEntity
  8
0
100
AcDbLine
 10
53.082
 20
58.54999
 30
0.0
 11
53.082
 21
57.04999
 31
0.0
  0
LINE
  5
498
100
AcDbEntity
  8
0
100
AcDbLine
 10
52.882
 20
58.66098
 30
0.0
 11
52.882
 21
57.04999
 31
0.0
  0
LINE
  5
499
100
AcDbEntity
  8
0
100
AcDbLine
 10
53.532
 20
56.84999
 30
0.0
 11
53.532
 21
57.04997
 31
0.0
  0
LINE
  5
49A
100
AcDbEntity
  8
0
100
AcDbLine
 10
53.082
 20
56.84999
 30
0.0
 11
53.532
 21
56.84999
 31
0.0
  0
LINE
  5
49B
100
AcDbEntity
  8
0
100
AcDbLine
 10
53.532
 20
57.04999
 30
0.0
 11
53.082
 21
57.04999
 31
0.0
  0
ARC
  5
49C
100
AcDbEntity
  8
0
100
AcDbCircle
 10
53.869
 20
56.89999
 30
0.0
 40
0.1
100
AcDbArc
 50
89.99951
 51
160.11572
  0
LINE
  5
49D
100
AcDbEntity
  8
0
100
AcDbLine
 10
53.869
 20
57.0
 30
0.0
 11
54.41706
 21
57.0
 31
0.0
  0
ARC
  5
49E
100
AcDbEntity
  8
0
100
AcDbCircle
 10
53.387
 20
56.54999
 30
0.0
 40
0.20013
100
AcDbArc
 50
220.13838
 51
270.00003
  0
LINE
  5
49F
100
AcDbEntity
  8
0
100
AcDbLine
 10
53.387
 20
56.34999
 30
0.0
 11
53.423
 21
56.34999
 31
0.0
  0
ARC
  5
4A0
100
AcDbEntity
  8
0
100
AcDbCircle
 10
53.423
 20
56.54999
 30
0.0
 40
0.2
100
AcDbArc
 50
270.00003
 51
340.11166
  0
LINE
  5
4A1
100
AcDbEntity
  8
0
100
AcDbLine
 10
53.61099
 20
56.48198
 30
0.0
 11
53.77499
 21
56.93396
 31
0.0
  0
LINE
  5
4A2
100
AcDbEntity
  8
0
100
AcDbLine
 10
53.0
 20
56.7
 30
0.0
 11
53.234
 21
56.42099
 31
0.0
  0
ARC
  5
4A3
100
AcDbEntity
  8
0
100
AcDbCircle
 10
53.082
 20
57.04999
 30
0.0
 40
0.20001
100
AcDbArc
 50
180.00005
 51
270.00003
  0
ARC
  5
4A4
100
AcDbEntity
  8
0
100
AcDbCircle
 10
52.75
 20
56.59999
 30
0.0
 40
0.1
100
AcDbArc
 50
89.99951
 51
180.00005
  0
LINE
  5
4A5
100
AcDbEntity
  8
0
100
AcDbLine
 10
52.75
 20
56.7
 30
0.0
 11
53.0
 21
56.7
 31
0.0
  0
LINE
  5
4A6
100
AcDbEntity
  8
0
100
AcDbLine
 10
53.78201
 20
58.98695
 30
0.0
 11
53.08201
 21
58.54996
 31
0.0
  0
LINE
  5
4A7
100
AcDbEntity
  8
0
100
AcDbLine
 10
53.58202
 20
59.09796
 30
0.0
 11
52.88202
 21
58.66095
 31
0.0
  0
LINE
  5
4A8
100
AcDbEntity
  8
0
100
AcDbLine
 10
58.65
 20
59.5
 30
0.0
 11
66.35
 21
59.5
 31
0.0
  0
ARC
  5
4A9
100
AcDbEntity
  8
0
100
AcDbCircle
 10
58.55
 20
59.79999
 30
0.0
 40
0.1
100
AcDbArc
 50
269.99948
 51
359.99126
  0
ARC
  5
4AA
100
AcDbEntity
  8
0
100
AcDbCircle
 10
58.35
 20
60.7
 30
0.0
 40
0.3
100
AcDbArc
 50
0.0
 51
90.0
  0
ARC
  5
4AB
100
AcDbEntity
  8
0
100
AcDbCircle
 10
58.55
 20
56.59999
 30
0.0
 40
0.09999
100
AcDbArc
 50
359.99126
 51
90.00024
  0
ARC
  5
4AC
100
AcDbEntity
  8
0
100
AcDbCircle
 10
57.849
 20
59.70198
 30
0.0
 40
0.09833
100
AcDbArc
 50
40.02637
 51
175.33574
  0
ARC
  5
4AD
100
AcDbEntity
  8
0
100
AcDbCircle
 10
57.849
 20
59.70198
 30
0.0
 40
0.29813
100
AcDbArc
 50
39.82861
 51
174.99974
  0
ARC
  5
4AE
100
AcDbEntity
  8
0
100
AcDbCircle
 10
57.397
 20
59.09999
 30
0.0
 40
0.1004
100
AcDbArc
 50
269.99948
 51
354.85568
  0
LINE
  5
4AF
100
AcDbEntity
  8
0
100
AcDbLine
 10
57.751
 20
59.70996
 30
0.0
 11
57.71799
 21
59.09795
 31
0.0
  0
LINE
  5
4B0
100
AcDbEntity
  8
0
100
AcDbLine
 10
57.518
 20
59.334
 30
0.0
 11
57.518
 21
58.98698
 31
0.0
  0
LINE
  5
4B1
100
AcDbEntity
  8
0
100
AcDbLine
 10
57.55199
 20
59.72794
 30
0.0
 11
57.49699
 21
59.09096
 31
0.0
  0
ARC
  5
4B2
100
AcDbEntity
  8
0
100
AcDbCircle
 10
58.087
 20
59.571
 30
0.0
 40
0.20012
100
AcDbArc
 50
314.99673
 51
40.13525
  0
LINE
  5
4B3
100
AcDbEntity
  8
0
100
AcDbLine
 10
58.24
 20
59.69998
 30
0.0
 11
58.078
 21
59.89299
 31
0.0
  0
LINE
  5
4B4
100
AcDbEntity
  8
0
100
AcDbLine
 10
58.08699
 20
59.28897
 30
0.0
 11
58.22798
 21
59.42996
 31
0.0
  0
LINE
  5
4B5
100
AcDbEntity
  8
0
100
AcDbLine
 10
58.55
 20
59.69998
 30
0.0
 11
58.24
 21
59.69998
 31
0.0
  0
LINE
  5
4B6
100
AcDbEntity
  8
0
100
AcDbLine
 10
58.087
 20
59.57098
 30
0.0
 11
57.924
 21
59.76498
 31
0.0
  0
LINE
  5
4B7
100
AcDbEntity
  8
0
100
AcDbLine
 10
57.94498
 20
59.42998
 30
0.0
 11
58.08698
 21
59.57097
 31
0.0
  0
LINE
  5
4B8
100
AcDbEntity
  8
0
100
AcDbLine
 10
58.08699
 20
59.28899
 30
0.0
 11
57.94499
 21
59.42999
 31
0.0
  0
LINE
  5
4B9
100
AcDbEntity
  8
0
100
AcDbLine
 10
56.88294
 20
58.99997
 30
0.0
 11
57.39699
 21
58.99998
 31
0.0
  0
LINE
  5
4BA
100
AcDbEntity
  8
0
100
AcDbLine
 10
58.418
 20
58.66098
 30
0.0
 11
58.418
 21
57.04999
 31
0.0
  0
LINE
  5
4BB
100
AcDbEntity
  8
0
100
AcDbLine
 10
58.218
 20
58.54999
 30
0.0
 11
58.218
 21
57.04999
 31
0.0
  0
LINE
  5
4BC
100
AcDbEntity
  8
0
100
AcDbLine
 10
57.768
 20
57.04999
 30
0.0
 11
58.218
 21
57.04999
 31
0.0
  0
LINE
  5
4BD
100
AcDbEntity
  8
0
100
AcDbLine
 10
58.218
 20
56.84999
 30
0.0
 11
57.768
 21
56.84999
 31
0.0
  0
ARC
  5
4BE
100
AcDbEntity
  8
0
100
AcDbCircle
 10
57.431
 20
56.89999
 30
0.0
 40
0.09999
100
AcDbArc
 50
19.88452
 51
90.00024
  0
LINE
  5
4BF
100
AcDbEntity
  8
0
100
AcDbLine
 10
57.768
 20
56.84999
 30
0.0
 11
57.768
 21
57.04997
 31
0.0
  0
ARC
  5
4C0
100
AcDbEntity
  8
0
100
AcDbCircle
 10
58.218
 20
57.04999
 30
0.0
 40
0.2
100
AcDbArc
 50
269.99976
 51
359.99563
  0
LINE
  5
4C1
100
AcDbEntity
  8
0
100
AcDbLine
 10
58.55
 20
56.7
 30
0.0
 11
58.3
 21
56.7
 31
0.0
  0
ARC
  5
4C2
100
AcDbEntity
  8
0
100
AcDbCircle
 10
57.877
 20
56.54999
 30
0.0
 40
0.20001
100
AcDbArc
 50
199.88831
 51
269.99976
  0
LINE
  5
4C3
100
AcDbEntity
  8
0
100
AcDbLine
 10
57.913
 20
56.34999
 30
0.0
 11
57.877
 21
56.34999
 31
0.0
  0
ARC
  5
4C4
100
AcDbEntity
  8
0
100
AcDbCircle
 10
57.913
 20
56.54999
 30
0.0
 40
0.20013
100
AcDbArc
 50
269.99976
 51
319.86147
  0
LINE
  5
4C5
100
AcDbEntity
  8
0
100
AcDbLine
 10
57.689
 20
56.48199
 30
0.0
 11
57.52501
 21
56.93396
 31
0.0
  0
LINE
  5
4C6
100
AcDbEntity
  8
0
100
AcDbLine
 10
58.3
 20
56.7
 30
0.0
 11
58.066
 21
56.42099
 31
0.0
  0
LINE
  5
4C7
100
AcDbEntity
  8
0
100
AcDbLine
 10
56.88294
 20
57.0
 30
0.0
 11
57.431
 21
57.0
 31
0.0
  0
LINE
  5
4C8
100
AcDbEntity
  8
0
100
AcDbLine
 10
57.71799
 20
59.09796
 30
0.0
 11
58.41799
 21
58.66095
 31
0.0
  0
LINE
  5
4C9
100
AcDbEntity
  8
0
100
AcDbLine
 10
57.51798
 20
58.98697
 30
0.0
 11
58.21798
 21
58.54999
 31
0.0
  0
LINE
  5
4CA
100
AcDbEntity
  8
0
100
AcDbLine
 10
67.28202
 20
59.09796
 30
0.0
 11
66.58202
 21
58.66095
 31
0.0
  0
LINE
  5
4CB
100
AcDbEntity
  8
0
100
AcDbLine
 10
67.48201
 20
58.98695
 30
0.0
 11
66.78201
 21
58.54996
 31
0.0
  0
LINE
  5
4CC
100
AcDbEntity
  8
0
100
AcDbLine
 10
66.7
 20
56.7
 30
0.0
 11
66.934
 21
56.42099
 31
0.0
  0
LINE
  5
4CD
100
AcDbEntity
  8
0
100
AcDbLine
 10
67.232
 20
57.04999
 30
0.0
 11
66.782
 21
57.04999
 31
0.0
  0
LINE
  5
4CE
100
AcDbEntity
  8
0
100
AcDbLine
 10
66.782
 20
56.84999
 30
0.0
 11
67.232
 21
56.84999
 31
0.0
  0
LINE
  5
4CF
100
AcDbEntity
  8
0
100
AcDbLine
 10
66.91301
 20
59.28897
 30
0.0
 11
66.77202
 21
59.42996
 31
0.0
  0
LINE
  5
4D0
100
AcDbEntity
  8
0
100
AcDbLine
 10
66.76
 20
59.69998
 30
0.0
 11
66.922
 21
59.89299
 31
0.0
  0
LINE
  5
4D1
100
AcDbEntity
  8
0
100
AcDbLine
 10
66.45
 20
56.7
 30
0.0
 11
66.7
 21
56.7
 31
0.0
  0
ARC
  5
4D2
100
AcDbEntity
  8
0
100
AcDbCircle
 10
66.782
 20
57.04999
 30
0.0
 40
0.20001
100
AcDbArc
 50
180.00005
 51
270.00003
  0
ARC
  5
4D3
100
AcDbEntity
  8
0
100
AcDbCircle
 10
66.45
 20
56.59999
 30
0.0
 40
0.1
100
AcDbArc
 50
89.99951
 51
180.00005
  0
LINE
  5
4D4
100
AcDbEntity
  8
0
100
AcDbLine
 10
66.582
 20
58.66098
 30
0.0
 11
66.582
 21
57.04999
 31
0.0
  0
LINE
  5
4D5
100
AcDbEntity
  8
0
100
AcDbLine
 10
66.782
 20
58.54999
 30
0.0
 11
66.782
 21
57.04999
 31
0.0
  0
LINE
  5
4D6
100
AcDbEntity
  8
0
100
AcDbLine
 10
66.45
 20
59.69998
 30
0.0
 11
66.76
 21
59.69998
 31
0.0
  0
ARC
  5
4D7
100
AcDbEntity
  8
0
100
AcDbCircle
 10
66.65
 20
60.7
 30
0.0
 40
0.3
100
AcDbArc
 50
90.0
 51
180.0
  0
ARC
  5
4D8
100
AcDbEntity
  8
0
100
AcDbCircle
 10
66.45
 20
59.79999
 30
0.0
 40
0.10001
100
AcDbArc
 50
180.00005
 51
270.00003
  0
ARC
  5
4D9
100
AcDbEntity
  8
0
100
AcDbCircle
 10
66.913
 20
59.571
 30
0.0
 40
0.20013
100
AcDbArc
 50
139.86482
 51
225.00006
  0
LINE
  5
4DA
100
AcDbEntity
  8
0
100
AcDbLine
 10
67.31099
 20
56.48198
 30
0.0
 11
67.47499
 21
56.93396
 31
0.0
  0
ARC
  5
4DB
100
AcDbEntity
  8
0
100
AcDbCircle
 10
67.123
 20
56.54999
 30
0.0
 40
0.2
100
AcDbArc
 50
270.00003
 51
340.11166
  0
LINE
  5
4DC
100
AcDbEntity
  8
0
100
AcDbLine
 10
67.087
 20
56.34999
 30
0.0
 11
67.123
 21
56.34999
 31
0.0
  0
ARC
  5
4DD
100
AcDbEntity
  8
0
100
AcDbCircle
 10
67.087
 20
56.54999
 30
0.0
 40
0.20013
100
AcDbArc
 50
220.13838
 51
270.00003
  0
LINE
  5
4DE
100
AcDbEntity
  8
0
100
AcDbLine
 10
67.569
 20
57.0
 30
0.0
 11
68.11706
 21
57.0
 31
0.0
  0
ARC
  5
4DF
100
AcDbEntity
  8
0
100
AcDbCircle
 10
67.569
 20
56.89999
 30
0.0
 40
0.1
100
AcDbArc
 50
89.99951
 51
160.11572
  0
LINE
  5
4E0
100
AcDbEntity
  8
0
100
AcDbLine
 10
67.232
 20
56.84999
 30
0.0
 11
67.232
 21
57.04997
 31
0.0
  0
LINE
  5
4E1
100
AcDbEntity
  8
0
100
AcDbLine
 10
67.603
 20
58.99998
 30
0.0
 11
68.11706
 21
58.99997
 31
0.0
  0
LINE
  5
4E2
100
AcDbEntity
  8
0
100
AcDbLine
 10
67.482
 20
59.334
 30
0.0
 11
67.482
 21
58.987
 31
0.0
  0
LINE
  5
4E3
100
AcDbEntity
  8
0
100
AcDbLine
 10
67.448
 20
59.72794
 30
0.0
 11
67.50301
 21
59.09094
 31
0.0
  0
ARC
  5
4E4
100
AcDbEntity
  8
0
100
AcDbCircle
 10
67.603
 20
59.09999
 30
0.0
 40
0.10042
100
AcDbArc
 50
185.14438
 51
270.00003
  0
ARC
  5
4E5
100
AcDbEntity
  8
0
100
AcDbCircle
 10
67.151
 20
59.70198
 30
0.0
 40
0.09832
100
AcDbArc
 50
4.66455
 51
139.97394
  0
LINE
  5
4E6
100
AcDbEntity
  8
0
100
AcDbLine
 10
66.913
 20
59.28897
 30
0.0
 11
67.055
 21
59.42998
 31
0.0
  0
LINE
  5
4E7
100
AcDbEntity
  8
0
100
AcDbLine
 10
67.05502
 20
59.42998
 30
0.0
 11
66.91302
 21
59.57097
 31
0.0
  0
LINE
  5
4E8
100
AcDbEntity
  8
0
100
AcDbLine
 10
66.913
 20
59.57098
 30
0.0
 11
67.076
 21
59.76497
 31
0.0
  0
LINE
  5
4E9
100
AcDbEntity
  8
0
100
AcDbLine
 10
67.249
 20
59.70998
 30
0.0
 11
67.282
 21
59.09795
 31
0.0
  0
ARC
  5
4EA
100
AcDbEntity
  8
0
100
AcDbCircle
 10
67.151
 20
59.70198
 30
0.0
 40
0.29813
100
AcDbArc
 50
5.00049
 51
140.17136
  0
CIRCLE
  5
4EB
100
AcDbEntity
  8
0
100
AcDbCircle
 10
69.35
 20
58.0
 30
0.0
 40
1.5875
  0
LINE
  5
4EC
100
AcDbEntity
  8
0
100
AcDbLine
 10
71.21798
 20
58.98697
 30
0.0
 11
71.91798
 21
58.54999
 31
0.0
  0
LINE
  5
4ED
100
AcDbEntity
  8
0
100
AcDbLine
 10
71.41799
 20
59.09796
 30
0.0
 11
72.11799
 21
58.66095
 31
0.0
  0
LINE
  5
4EE
100
AcDbEntity
  8
0
100
AcDbLine
 10
72.0
 20
56.7
 30
0.0
 11
71.766
 21
56.42099
 31
0.0
  0
ARC
  5
4EF
100
AcDbEntity
  8
0
100
AcDbCircle
 10
72.25
 20
56.59999
 30
0.0
 40
0.09999
100
AcDbArc
 50
359.99126
 51
90.00024
  0
LINE
  5
4F0
100
AcDbEntity
  8
0
100
AcDbLine
 10
71.389
 20
56.48199
 30
0.0
 11
71.22501
 21
56.93396
 31
0.0
  0
ARC
  5
4F1
100
AcDbEntity
  8
0
100
AcDbCircle
 10
71.613
 20
56.54999
 30
0.0
 40
0.20013
100
AcDbArc
 50
269.99976
 51
319.86147
  0
LINE
  5
4F2
100
AcDbEntity
  8
0
100
AcDbLine
 10
71.613
 20
56.34999
 30
0.0
 11
71.577
 21
56.34999
 31
0.0
  0
ARC
  5
4F3
100
AcDbEntity
  8
0
100
AcDbCircle
 10
71.577
 20
56.54999
 30
0.0
 40
0.20001
100
AcDbArc
 50
199.88831
 51
269.99976
  0
LINE
  5
4F4
100
AcDbEntity
  8
0
100
AcDbLine
 10
72.25
 20
56.7
 30
0.0
 11
72.0
 21
56.7
 31
0.0
  0
ARC
  5
4F5
100
AcDbEntity
  8
0
100
AcDbCircle
 10
71.918
 20
57.04999
 30
0.0
 40
0.2
100
AcDbArc
 50
269.99976
 51
359.99563
  0
LINE
  5
4F6
100
AcDbEntity
  8
0
100
AcDbLine
 10
71.468
 20
56.84999
 30
0.0
 11
71.468
 21
57.04997
 31
0.0
  0
ARC
  5
4F7
100
AcDbEntity
  8
0
100
AcDbCircle
 10
71.131
 20
56.89999
 30
0.0
 40
0.09999
100
AcDbArc
 50
19.88452
 51
90.00024
  0
LINE
  5
4F8
100
AcDbEntity
  8
0
100
AcDbLine
 10
71.918
 20
56.84999
 30
0.0
 11
71.468
 21
56.84999
 31
0.0
  0
LINE
  5
4F9
100
AcDbEntity
  8
0
100
AcDbLine
 10
71.468
 20
57.04999
 30
0.0
 11
71.918
 21
57.04999
 31
0.0
  0
LINE
  5
4FA
100
AcDbEntity
  8
0
100
AcDbLine
 10
71.918
 20
58.54999
 30
0.0
 11
71.918
 21
57.04999
 31
0.0
  0
LINE
  5
4FB
100
AcDbEntity
  8
0
100
AcDbLine
 10
72.118
 20
58.66098
 30
0.0
 11
72.118
 21
57.04999
 31
0.0
  0
ARC
  5
4FC
100
AcDbEntity
  8
0
100
AcDbCircle
 10
72.05
 20
60.7
 30
0.0
 40
0.3
100
AcDbArc
 50
0.0
 51
90.0
  0
LINE
  5
4FD
100
AcDbEntity
  8
0
100
AcDbLine
 10
71.78699
 20
59.28899
 30
0.0
 11
71.64499
 21
59.42999
 31
0.0
  0
LINE
  5
4FE
100
AcDbEntity
  8
0
100
AcDbLine
 10
71.64498
 20
59.42998
 30
0.0
 11
71.78698
 21
59.57097
 31
0.0
  0
LINE
  5
4FF
100
AcDbEntity
  8
0
100
AcDbLine
 10
71.787
 20
59.57098
 30
0.0
 11
71.624
 21
59.76498
 31
0.0
  0
LINE
  5
500
100
AcDbEntity
  8
0
100
AcDbLine
 10
72.25
 20
59.69998
 30
0.0
 11
71.94
 21
59.69998
 31
0.0
  0
LINE
  5
501
100
AcDbEntity
  8
0
100
AcDbLine
 10
71.78699
 20
59.28897
 30
0.0
 11
71.92798
 21
59.42996
 31
0.0
  0
LINE
  5
502
100
AcDbEntity
  8
0
100
AcDbLine
 10
71.94
 20
59.69998
 30
0.0
 11
71.778
 21
59.89299
 31
0.0
  0
ARC
  5
503
100
AcDbEntity
  8
0
100
AcDbCircle
 10
71.787
 20
59.571
 30
0.0
 40
0.20012
100
AcDbArc
 50
314.99673
 51
40.13525
  0
ARC
  5
504
100
AcDbEntity
  8
0
100
AcDbCircle
 10
72.25
 20
59.79999
 30
0.0
 40
0.1
100
AcDbArc
 50
269.99948
 51
359.99126
  0
LINE
  5
505
100
AcDbEntity
  8
0
100
AcDbLine
 10
71.25199
 20
59.72794
 30
0.0
 11
71.19699
 21
59.09096
 31
0.0
  0
LINE
  5
506
100
AcDbEntity
  8
0
100
AcDbLine
 10
71.218
 20
59.334
 30
0.0
 11
71.218
 21
58.98698
 31
0.0
  0
LINE
  5
507
100
AcDbEntity
  8
0
100
AcDbLine
 10
71.451
 20
59.70996
 30
0.0
 11
71.41799
 21
59.09795
 31
0.0
  0
ARC
  5
508
100
AcDbEntity
  8
0
100
AcDbCircle
 10
71.097
 20
59.09999
 30
0.0
 40
0.1004
100
AcDbArc
 50
269.99948
 51
354.85568
  0
ARC
  5
509
100
AcDbEntity
  8
0
100
AcDbCircle
 10
71.549
 20
59.70198
 30
0.0
 40
0.29813
100
AcDbArc
 50
39.82861
 51
174.99974
  0
ARC
  5
50A
100
AcDbEntity
  8
0
100
AcDbCircle
 10
71.549
 20
59.70198
 30
0.0
 40
0.09833
100
AcDbArc
 50
40.02637
 51
175.33574
  0
ENDSEC
  0
SECTION
  2
OBJECTS
  0
DICTIONARY
  5
37F
100
AcDbDictionary
  3
ACAD_GROUP
350
380
  3
ACAD_LAYOUT
350
38C
  3
ACAD_MLINESTYLE
350
389
  3
ACAD_PLOTSETTINGS
350
38B
  3
ACAD_PLOTSTYLENAME
350
381
  3
ACDBHEADERROUNDTRIPXREC
350
517
  3
AcDbVariableDictionary
350
53F
  0
DICTIONARY
  5
515
100
AcDbDictionary
280
     1
  3
ACAD_XREC_ROUNDTRIP
360
516
  0
DICTIONARY
  5
511
100
AcDbDictionary
280
     1
  3
ACAD_XREC_ROUNDTRIP
360
512
  0
DICTIONARY
  5
513
100
AcDbDictionary
280
     1
  3
ACAD_XREC_ROUNDTRIP
360
514
  0
DICTIONARY
  5
53D
100
AcDbDictionary
280
     1
  3
ACAD_XREC_ROUNDTRIP
360
53E
  0
DICTIONARY
  5
50D
100
AcDbDictionary
280
     1
  3
ACAD_LAYOUTSELFREF
360
53C
  3
ACAD_XREC_ROUNDTRIP
360
50E
  0
DICTIONARY
  5
50F
100
AcDbDictionary
280
     1
  3
ACAD_LAYOUTSELFREF
360
53B
  3
ACAD_XREC_ROUNDTRIP
360
510
  0
DICTIONARY
  5
380
102
{ACAD_REACTORS
330
37F
102
}
100
AcDbDictionary
  0
DICTIONARY
  5
38C
102
{ACAD_XDICTIONARY
360
539
102
}
102
{ACAD_REACTORS
330
37F
102
}
100
AcDbDictionary
  3
MODEL
350
394
  3
ﾚｲｱｳﾄ1
350
390
  0
DICTIONARY
  5
389
102
{ACAD_XDICTIONARY
360
537
102
}
102
{ACAD_REACTORS
330
37F
102
}
100
AcDbDictionary
  3
STANDARD
350
38A
  0
DICTIONARY
  5
38B
102
{ACAD_REACTORS
330
37F
102
}
100
AcDbDictionary
  0
ACAD_PROXY_OBJECT
  5
381
102
{ACAD_REACTORS
330
37F
102
}
100
AcDbProxyObject
 90
      499
 91
      500
 93
       86
310
405010041939BDC9B585B2
350
382
340
382
 94
        0
  0
DICTIONARY
  5
517
102
{ACAD_REACTORS
330
37F
102
}
100
AcDbDictionary
  3
CEPSNTYPE
350
521
  3
FINGERPRINTGUID
350
522
  3
HYPERLINKBASE
350
51A
  3
INSUNITS
350
520
  3
LAYOUTDICT
350
51C
  3
LWETCUNION
350
51F
  3
PLOTSETDICT
350
51D
  3
PLOTSTYLNAMDICT
350
51E
  3
PSVPSCALE
350
524
  3
PUCSBASE
350
527
  3
PUCSORGBACK
350
52D
  3
PUCSORGBOTTOM
350
529
  3
PUCSORGFRONT
350
52C
  3
PUCSORGLEFT
350
52A
  3
PUCSORGRIGHT
350
52B
  3
PUCSORGTOP
350
528
  3
PUCSORTHOREF
350
525
  3
PUCSORTHOVIEW
350
526
  3
STYLESHEET
350
51B
  3
TSTACKALIGN
350
518
  3
TSTACKSIZE
350
519
  3
UCSBASE
350
530
  3
UCSORGBACK
350
536
  3
UCSORGBOTTOM
350
532
  3
UCSORGFRONT
350
535
  3
UCSORGLEFT
350
533
  3
UCSORGRIGHT
350
534
  3
UCSORGTOP
350
531
  3
UCSORTHOREF
350
52E
  3
UCSORTHOVIEW
350
52F
  3
VERSIONGUID
350
523
  0
DICTIONARY
  5
53F
102
{ACAD_REACTORS
330
37F
102
}
100
AcDbDictionary
  3
DIMASSOC
350
540
  0
XRECORD
  5
516
102
{ACAD_REACTORS
330
515
102
}
100
AcDbXrecord
102
EXTNAMES
  1
*ACTIVE
  2
*Active
102
UCS
 74
     0
 71
     0
 10
0.0
 20
0.0
 30
0.0
 10
1.0
 20
0.0
 30
0.0
 10
0.0
 20
1.0
 30
0.0
146
0.0
 79
     0
102
VIEW
281
     0
  0
XRECORD
  5
512
102
{ACAD_REACTORS
330
511
102
}
100
AcDbXrecord
102
EXTNAMES
  1
BYBLOCK
  2
ByBlock
  0
XRECORD
  5
514
102
{ACAD_REACTORS
330
513
102
}
100
AcDbXrecord
102
EXTNAMES
  1
BYLAYER
  2
ByLayer
  0
XRECORD
  5
53E
102
{ACAD_REACTORS
330
53D
102
}
100
AcDbXrecord
102
ACADR14ROUNDTRIP
1000
DSTYLE
1002
{
1070
   279
 70
     2
1002
}
  0
XRECORD
  5
53C
102
{ACAD_REACTORS
330
50D
102
}
100
AcDbXrecord
340
391
  0
XRECORD
  5
50E
102
{ACAD_REACTORS
330
50D
102
}
100
AcDbXrecord
102
EXTNAMES
  1
*MODEL_SPACE
  2
*Model_Space
  0
XRECORD
  5
53B
102
{ACAD_REACTORS
330
50F
102
}
100
AcDbXrecord
340
38D
  0
XRECORD
  5
510
102
{ACAD_REACTORS
330
50F
102
}
100
AcDbXrecord
102
EXTNAMES
  1
*PAPER_SPACE
  2
*Paper_Space
  0
DICTIONARY
  5
539
100
AcDbDictionary
280
     1
  3
ACAD_XREC_ROUNDTRIP
360
53A
  0
ACAD_PROXY_OBJECT
  5
394
102
{ACAD_REACTORS
330
38C
102
}
100
AcDbProxyObject
 90
      499
 91
      502
 93
      836
310
932433A5C50524F4752414D2046494C45535C4D4454365C706C6F74746572735C526F6C616E64204458592D313235302E7063332C01AAAAAAAAA5A69054D6F64656C901A800000000000000000000000000000000000000000000A1000000000000008902A6A6AAAA0
330
391
330
0
340
0
340
0
 94
        0
  0
ACAD_PROXY_OBJECT
  5
390
102
{ACAD_REACTORS
330
38C
102
}
100
AcDbProxyObject
 90
      499
 91
      502
 93
     1252
310
932433A5C50524F4752414D2046494C45535C4D4454365C706C6F74746572735C526F6C616E64204458592D313235302E7063332C00AAAAAA416AA59106906DAB2B1B3C43140501A800000000000000000000000000000000000000000101E900000000000241C902A6A6A10232D5E076BC5510408CB5781DAF154410232D5
310
E076BC5510408CB5781DAF15C410232D5E076BC5710408CB5781DAF15C42
330
38D
330
0
340
0
340
0
 94
        0
  0
DICTIONARY
  5
537
100
AcDbDictionary
280
     1
  3
ACAD_XREC_ROUNDTRIP
360
538
  0
MLINESTYLE
  5
38A
102
{ACAD_REACTORS
330
389
102
}
100
AcDbMlineStyle
  2
STANDARD
 70
     0
  3

 62
   256
 51
90.0
 52
90.0
 71
     2
 49
0.5
 62
   256
  6
BYLAYER
 49
-0.5
 62
   256
  6
BYLAYER
  0
ACAD_PROXY_OBJECT
  5
382
102
{ACAD_REACTORS
330
381
102
}
100
AcDbProxyObject
 90
      499
 91
      501
 93
        0
 94
        0
  0
XRECORD
  5
521
102
{ACAD_REACTORS
330
517
102
}
100
AcDbXrecord
 90
        0
  0
XRECORD
  5
522
102
{ACAD_REACTORS
330
517
102
}
100
AcDbXrecord
  1
{DE00D327-20A6-4870-8D9F-CC801E435774}
  0
XRECORD
  5
51A
102
{ACAD_REACTORS
330
517
102
}
100
AcDbXrecord
  1

  0
XRECORD
  5
520
102
{ACAD_REACTORS
330
517
102
}
100
AcDbXrecord
 90
        0
  0
XRECORD
  5
51C
102
{ACAD_REACTORS
330
517
102
}
100
AcDbXrecord
340
38C
  0
XRECORD
  5
51F
102
{ACAD_REACTORS
330
517
102
}
100
AcDbXrecord
 90
    10781
  0
XRECORD
  5
51D
102
{ACAD_REACTORS
330
517
102
}
100
AcDbXrecord
340
38B
  0
XRECORD
  5
51E
102
{ACAD_REACTORS
330
517
102
}
100
AcDbXrecord
340
381
  0
XRECORD
  5
524
102
{ACAD_REACTORS
330
517
102
}
100
AcDbXrecord
 40
0.0
  0
XRECORD
  5
527
102
{ACAD_REACTORS
330
517
102
}
100
AcDbXrecord
340
0
  0
XRECORD
  5
52D
102
{ACAD_REACTORS
330
517
102
}
100
AcDbXrecord
 10
0.0
 20
0.0
 30
0.0
  0
XRECORD
  5
529
102
{ACAD_REACTORS
330
517
102
}
100
AcDbXrecord
 10
0.0
 20
0.0
 30
0.0
  0
XRECORD
  5
52C
102
{ACAD_REACTORS
330
517
102
}
100
AcDbXrecord
 10
0.0
 20
0.0
 30
0.0
  0
XRECORD
  5
52A
102
{ACAD_REACTORS
330
517
102
}
100
AcDbXrecord
 10
0.0
 20
0.0
 30
0.0
  0
XRECORD
  5
52B
102
{ACAD_REACTORS
330
517
102
}
100
AcDbXrecord
 10
0.0
 20
0.0
 30
0.0
  0
XRECORD
  5
528
102
{ACAD_REACTORS
330
517
102
}
100
AcDbXrecord
 10
0.0
 20
0.0
 30
0.0
  0
XRECORD
  5
525
102
{ACAD_REACTORS
330
517
102
}
100
AcDbXrecord
340
0
  0
XRECORD
  5
526
102
{ACAD_REACTORS
330
517
102
}
100
AcDbXrecord
 70
     0
  0
XRECORD
  5
51B
102
{ACAD_REACTORS
330
517
102
}
100
AcDbXrecord
  1

  0
XRECORD
  5
518
102
{ACAD_REACTORS
330
517
102
}
100
AcDbXrecord
 90
        1
  0
XRECORD
  5
519
102
{ACAD_REACTORS
330
517
102
}
100
AcDbXrecord
 90
       70
  0
XRECORD
  5
530
102
{ACAD_REACTORS
330
517
102
}
100
AcDbXrecord
340
0
  0
XRECORD
  5
536
102
{ACAD_REACTORS
330
517
102
}
100
AcDbXrecord
 10
0.0
 20
0.0
 30
0.0
  0
XRECORD
  5
532
102
{ACAD_REACTORS
330
517
102
}
100
AcDbXrecord
 10
0.0
 20
0.0
 30
0.0
  0
XRECORD
  5
535
102
{ACAD_REACTORS
330
517
102
}
100
AcDbXrecord
 10
0.0
 20
0.0
 30
0.0
  0
XRECORD
  5
533
102
{ACAD_REACTORS
330
517
102
}
100
AcDbXrecord
 10
0.0
 20
0.0
 30
0.0
  0
XRECORD
  5
534
102
{ACAD_REACTORS
330
517
102
}
100
AcDbXrecord
 10
0.0
 20
0.0
 30
0.0
  0
XRECORD
  5
531
102
{ACAD_REACTORS
330
517
102
}
100
AcDbXrecord
 10
0.0
 20
0.0
 30
0.0
  0
XRECORD
  5
52E
102
{ACAD_REACTORS
330
517
102
}
100
AcDbXrecord
340
0
  0
XRECORD
  5
52F
102
{ACAD_REACTORS
330
517
102
}
100
AcDbXrecord
 70
     0
  0
XRECORD
  5
523
102
{ACAD_REACTORS
330
517
102
}
100
AcDbXrecord
  1
{F0A1CD5A-A818-4814-A773-B10E3387D204}
  0
DICTIONARYVAR
  5
540
102
{ACAD_REACTORS
330
53F
102
}
100
DictionaryVariables
280
     0
  1
1
  0
XRECORD
  5
53A
102
{ACAD_REACTORS
330
539
102
}
100
AcDbXrecord
102
EXTNAMES
  1
MODEL
  2
Model
  0
XRECORD
  5
538
102
{ACAD_REACTORS
330
537
102
}
100
AcDbXrecord
102
EXTNAMES
  1
STANDARD
  2
Standard
  0
ENDSEC
  0
EOF
