  0
SECTION
  2
HEADER
  9
$ACADVER
  1
AC1014
  9
$ACADMAINTVER
 70
     0
  9
$DWGCODEPAGE
  3
ANSI_932
  9
$INSBASE
 10
0.0
 20
0.0
 30
0.0
  9
$EXTMIN
 10
168.410389
 20
159.462696
 30
0.0
  9
$EXTMAX
 10
444.507128
 20
253.932431
 30
0.0
  9
$LIMMIN
 10
0.0
 20
0.0
  9
$LIMMAX
 10
594.0
 20
420.0
  9
$ORTHOMODE
 70
     1
  9
$REGENMODE
 70
     1
  9
$FILLMODE
 70
     1
  9
$QTEXTMODE
 70
     0
  9
$MIRRTEXT
 70
     1
  9
$DRAGMODE
 70
     2
  9
$LTSCALE
 40
0.25
  9
$OSMODE
 70
    37
  9
$ATTMODE
 70
     1
  9
$TEXTSIZE
 40
4.0
  9
$TRACEWID
 40
1.0
  9
$TEXTSTYLE
  7
STANDARD
  9
$CLAYER
  8
0
  9
$CELTYPE
  6
BYLAYER
  9
$CECOLOR
 62
   256
  9
$CELTSCALE
 40
1.0
  9
$DELOBJ
 70
     1
  9
$DISPSILH
 70
     0
  9
$DIMSCALE
 40
2.0
  9
$DIMASZ
 40
3.0
  9
$DIMEXO
 40
1.0
  9
$DIMDLI
 40
0.0
  9
$DIMRND
 40
0.0
  9
$DIMDLE
 40
0.0
  9
$DIMEXE
 40
1.0
  9
$DIMTP
 40
0.1
  9
$DIMTM
 40
0.0
  9
$DIMTXT
 40
3.2
  9
$DIMCEN
 40
0.0
  9
$DIMTSZ
 40
0.0
  9
$DIMTOL
 70
     1
  9
$DIMLIM
 70
     0
  9
$DIMTIH
 70
     0
  9
$DIMTOH
 70
     0
  9
$DIMSE1
 70
     0
  9
$DIMSE2
 70
     0
  9
$DIMTAD
 70
     0
  9
$DIMZIN
 70
     8
  9
$DIMBLK
  1

  9
$DIMASO
 70
     1
  9
$DIMSHO
 70
     1
  9
$DIMPOST
  1

  9
$DIMAPOST
  1

  9
$DIMALT
 70
     0
  9
$DIMALTD
 70
     2
  9
$DIMALTF
 40
0.04
  9
$DIMLFAC
 40
1.0
  9
$DIMTOFL
 70
     1
  9
$DIMTVP
 40
1.0
  9
$DIMTIX
 70
     1
  9
$DIMSOXD
 70
     0
  9
$DIMSAH
 70
     1
  9
$DIMBLK1
  1
DOT
  9
$DIMBLK2
  1
ARROW
  9
$DIMSTYLE
  2
DA1
  9
$DIMCLRD
 70
     0
  9
$DIMCLRE
 70
     0
  9
$DIMCLRT
 70
     0
  9
$DIMTFAC
 40
0.6
  9
$DIMGAP
 40
0.0
  9
$DIMJUST
 70
     0
  9
$DIMSD1
 70
     0
  9
$DIMSD2
 70
     0
  9
$DIMTOLJ
 70
     1
  9
$DIMTZIN
 70
     0
  9
$DIMALTZ
 70
     0
  9
$DIMALTTZ
 70
     0
  9
$DIMFIT
 70
     3
  9
$DIMUPT
 70
     0
  9
$DIMUNIT
 70
     2
  9
$DIMDEC
 70
     4
  9
$DIMTDEC
 70
     4
  9
$DIMALTU
 70
     2
  9
$DIMALTTD
 70
     2
  9
$DIMTXSTY
  7
STANDARD
  9
$DIMAUNIT
 70
     0
  9
$LUNITS
 70
     2
  9
$LUPREC
 70
     2
  9
$SKETCHINC
 40
1.0
  9
$FILLETRAD
 40
10.0
  9
$AUNITS
 70
     0
  9
$AUPREC
 70
     0
  9
$MENU
  1
acad
  9
$ELEVATION
 40
0.0
  9
$PELEVATION
 40
0.0
  9
$THICKNESS
 40
0.0
  9
$LIMCHECK
 70
     0
  9
$BLIPMODE
 70
     0
  9
$CHAMFERA
 40
0.0
  9
$CHAMFERB
 40
0.0
  9
$CHAMFERC
 40
0.0
  9
$CHAMFERD
 40
0.0
  9
$SKPOLY
 70
     0
  9
$TDCREATE
 40
2451466.578325995
  9
$TDUPDATE
 40
2452821.803038657
  9
$TDINDWG
 40
0.0013051968
  9
$TDUSRTIMER
 40
0.0013050231
  9
$USRTIMER
 70
     1
  9
$ANGBASE
 50
0.0
  9
$ANGDIR
 70
     0
  9
$PDMODE
 70
     1
  9
$PDSIZE
 40
0.0
  9
$PLINEWID
 40
0.0
  9
$COORDS
 70
     1
  9
$SPLFRAME
 70
     0
  9
$SPLINETYPE
 70
     6
  9
$SPLINESEGS
 70
     8
  9
$ATTDIA
 70
     0
  9
$ATTREQ
 70
     1
  9
$HANDLING
 70
     1
  9
$HANDSEED
  5
3BC
  9
$SURFTAB1
 70
     6
  9
$SURFTAB2
 70
     6
  9
$SURFTYPE
 70
     6
  9
$SURFU
 70
     6
  9
$SURFV
 70
     6
  9
$UCSNAME
  2

  9
$UCSORG
 10
0.0
 20
0.0
 30
0.0
  9
$UCSXDIR
 10
1.0
 20
0.0
 30
0.0
  9
$UCSYDIR
 10
0.0
 20
1.0
 30
0.0
  9
$PUCSNAME
  2

  9
$PUCSORG
 10
0.0
 20
0.0
 30
0.0
  9
$PUCSXDIR
 10
1.0
 20
0.0
 30
0.0
  9
$PUCSYDIR
 10
0.0
 20
1.0
 30
0.0
  9
$USERI1
 70
     0
  9
$USERI2
 70
     0
  9
$USERI3
 70
     0
  9
$USERI4
 70
     0
  9
$USERI5
 70
     0
  9
$USERR1
 40
0.0
  9
$USERR2
 40
0.0
  9
$USERR3
 40
0.0
  9
$USERR4
 40
0.0
  9
$USERR5
 40
0.0
  9
$WORLDVIEW
 70
     1
  9
$SHADEDGE
 70
     3
  9
$SHADEDIF
 70
    70
  9
$TILEMODE
 70
     1
  9
$MAXACTVP
 70
    16
  9
$PINSBASE
 10
0.0
 20
0.0
 30
0.0
  9
$PLIMCHECK
 70
     0
  9
$PEXTMIN
 10
1.000000E+20
 20
1.000000E+20
 30
1.000000E+20
  9
$PEXTMAX
 10
-1.000000E+20
 20
-1.000000E+20
 30
-1.000000E+20
  9
$PLIMMIN
 10
0.0
 20
0.0
  9
$PLIMMAX
 10
420.0
 20
297.0
  9
$UNITMODE
 70
     0
  9
$VISRETAIN
 70
     0
  9
$PLINEGEN
 70
     0
  9
$PSLTSCALE
 70
     0
  9
$TREEDEPTH
 70
  3020
  9
$PICKSTYLE
 70
     1
  9
$CMLSTYLE
  2
STANDARD
  9
$CMLJUST
 70
     0
  9
$CMLSCALE
 40
1.0
  9
$PROXYGRAPHICS
 70
     1
  9
$MEASUREMENT
 70
     0
  0
ENDSEC
  0
SECTION
  2
CLASSES
  0
CLASS
  1
ACDBDICTIONARYWDFLT
  2
AcDbDictionaryWithDefault
  3
AutoCAD 2000
 90
        0
280
     0
281
     0
  0
CLASS
  1
ACDBPLACEHOLDER
  2
AcDbPlaceHolder
  3
AutoCAD 2000
 90
        0
280
     0
281
     0
  0
CLASS
  1
LAYOUT
  2
AcDbLayout
  3
AutoCAD 2000
 90
        0
280
     0
281
     0
  0
CLASS
  1
DICTIONARYVAR
  2
AcDbDictionaryVar
  3
"AutoCAD"
 90
        0
280
     0
281
     0
  0
CLASS
  1
LONG_TRANSACTION
  2
AcDbLongTransaction
  3
AutoCAD 2000
 90
        0
280
     0
281
     0
  0
CLASS
  1
LWPOLYLINE
  2
AcDbPolyline
  3
"AutoCAD"
 90
        0
280
     0
281
     1
  0
CLASS
  1
HATCH
  2
AcDbHatch
  3
"ACAD_SEDONA"
 90
        0
280
     0
281
     1
  0
CLASS
  1
XRECORD
  2
AcDbXrecord
  3
"<Built In>"
 90
        0
280
     0
281
     0
  0
ENDSEC
  0
SECTION
  2
TABLES
  0
TABLE
  2
VPORT
  5
1E7
100
AcDbSymbolTable
 70
     1
  0
VPORT
  5
383
102
{ACAD_XDICTIONARY
360
38C
102
}
100
AcDbSymbolTableRecord
100
AcDbViewportTableRecord
  2
*ACTIVE
 70
     0
 10
0.0
 20
0.0
 11
1.0
 21
1.0
 12
232.239717
 22
145.737072
 13
0.0
 23
0.0
 14
10.0
 24
10.0
 15
0.0
 25
0.0
 16
0.0
 26
0.0
 36
1.0
 17
0.0
 27
0.0
 37
0.0
 40
271.600788
 41
1.570997
 42
50.0
 43
0.0
 44
0.0
 50
0.0
 51
0.0
 71
     0
 72
   100
 73
     1
 74
     0
 75
     0
 76
     0
 77
     0
 78
     1
  0
ENDTAB
  0
TABLE
  2
LTYPE
  5
1E4
100
AcDbSymbolTable
 70
     2
  0
LTYPE
  5
1F2
102
{ACAD_XDICTIONARY
360
388
102
}
100
AcDbSymbolTableRecord
100
AcDbLinetypeTableRecord
  2
BYBLOCK
 70
     0
  3

 72
    65
 73
     0
 40
0.0
  0
LTYPE
  5
1F3
102
{ACAD_XDICTIONARY
360
38A
102
}
100
AcDbSymbolTableRecord
100
AcDbLinetypeTableRecord
  2
BYLAYER
 70
     0
  3

 72
    65
 73
     0
 40
0.0
  0
LTYPE
  5
1F4
100
AcDbSymbolTableRecord
100
AcDbLinetypeTableRecord
  2
CONTINUOUS
 70
     0
  3
Solid line
 72
    65
 73
     0
 40
0.0
  0
LTYPE
  5
202
100
AcDbSymbolTableRecord
100
AcDbLinetypeTableRecord
  2
CENTER
 70
     0
  3
____ _ ____ _ ____ _ ____ _ ____ _ ____ _ ____ 
 72
    65
 73
     4
 40
50.8
 49
31.75
 74
     0
 49
-6.35
 74
     0
 49
6.35
 74
     0
 49
-6.35
 74
     0
  0
ENDTAB
  0
TABLE
  2
LAYER
  5
1E1
100
AcDbSymbolTable
 70
     3
  0
LAYER
  5
1EF
100
AcDbSymbolTableRecord
100
AcDbLayerTableRecord
  2
0
 70
     0
 62
     7
  6
CONTINUOUS
  0
LAYER
  5
203
100
AcDbSymbolTableRecord
100
AcDbLayerTableRecord
  2
DIMENSION
 70
     0
 62
    -4
  6
CONTINUOUS
  0
LAYER
  5
204
100
AcDbSymbolTableRecord
100
AcDbLayerTableRecord
  2
CENTER
 70
     0
 62
     1
  6
CENTER
  0
ENDTAB
  0
TABLE
  2
STYLE
  5
1E2
100
AcDbSymbolTable
 70
     1
  0
STYLE
  5
1F0
100
AcDbSymbolTableRecord
100
AcDbTextStyleTableRecord
  2
STANDARD
 70
     0
 40
0.0
 41
1.0
 50
0.0
 71
     0
 42
4.0
  3
txt
  4

  0
ENDTAB
  0
TABLE
  2
VIEW
  5
1E5
100
AcDbSymbolTable
 70
     0
  0
ENDTAB
  0
TABLE
  2
UCS
  5
1E6
100
AcDbSymbolTable
 70
     0
  0
ENDTAB
  0
TABLE
  2
APPID
  5
1E8
100
AcDbSymbolTable
 70
     1
  0
APPID
  5
1F1
100
AcDbSymbolTableRecord
100
AcDbRegAppTableRecord
  2
ACAD
 70
     0
  0
ENDTAB
  0
TABLE
  2
DIMSTYLE
  5
1E9
100
AcDbSymbolTable
 70
     1
  0
DIMSTYLE
105
205
102
{ACAD_XDICTIONARY
360
3B5
102
}
100
AcDbSymbolTableRecord
100
AcDbDimStyleTableRecord
  2
DA1
 70
     0
  3

  4

  5

  6

  7

 40
1.0
 41
3.0
 42
1.0
 43
0.0
 44
1.0
 45
0.0
 46
0.0
 47
0.0
 48
0.0
140
3.2
141
0.0
142
0.0
143
0.04
144
1.0
145
1.0
146
0.6
147
0.0
 71
     0
 72
     0
 73
     0
 74
     0
 75
     0
 76
     0
 77
     0
 78
     8
170
     0
171
     2
172
     1
173
     1
174
     1
175
     0
176
     0
177
     0
178
     0
270
     2
271
     2
272
     2
273
     2
274
     2
340
1F0
275
     0
280
     0
281
     0
282
     0
283
     1
284
     8
285
     8
286
     8
287
     5
288
     0
  0
ENDTAB
  0
TABLE
  2
BLOCK_RECORD
  5
1E0
100
AcDbSymbolTable
 70
     4
  0
BLOCK_RECORD
  5
1FD
102
{ACAD_XDICTIONARY
360
384
102
}
100
AcDbSymbolTableRecord
100
AcDbBlockTableRecord
  2
*MODEL_SPACE
  0
BLOCK_RECORD
  5
1F9
102
{ACAD_XDICTIONARY
360
386
102
}
100
AcDbSymbolTableRecord
100
AcDbBlockTableRecord
  2
*PAPER_SPACE
  0
BLOCK_RECORD
  5
207
100
AcDbSymbolTableRecord
100
AcDbBlockTableRecord
  2
$MODEL_SPACE
  0
BLOCK_RECORD
  5
20A
100
AcDbSymbolTableRecord
100
AcDbBlockTableRecord
  2
$PAPER_SPACE
  0
BLOCK_RECORD
  5
20D
100
AcDbSymbolTableRecord
100
AcDbBlockTableRecord
  2
ARROW
  0
BLOCK_RECORD
  5
213
100
AcDbSymbolTableRecord
100
AcDbBlockTableRecord
  2
DOT
  0
ENDTAB
  0
ENDSEC
  0
SECTION
  2
BLOCKS
  0
BLOCK
  5
1FE
100
AcDbEntity
  8
0
100
AcDbBlockBegin
  2
*MODEL_SPACE
 70
     0
 10
0.0
 20
0.0
 30
0.0
  3
*MODEL_SPACE
  1

  0
ENDBLK
  5
1FF
100
AcDbEntity
  8
0
100
AcDbBlockEnd
  0
BLOCK
  5
1FA
100
AcDbEntity
 67
     1
  8
0
100
AcDbBlockBegin
  2
*PAPER_SPACE
 70
     0
 10
0.0
 20
0.0
 30
0.0
  3
*PAPER_SPACE
  1

  0
ENDBLK
  5
1FB
100
AcDbEntity
 67
     1
  8
0
100
AcDbBlockEnd
  0
BLOCK
  5
208
100
AcDbEntity
  8
0
100
AcDbBlockBegin
  2
$MODEL_SPACE
 70
     0
 10
0.0
 20
0.0
 30
0.0
  3
$MODEL_SPACE
  1

  0
ENDBLK
  5
209
100
AcDbEntity
  8
0
100
AcDbBlockEnd
  0
BLOCK
  5
20B
100
AcDbEntity
  8
0
100
AcDbBlockBegin
  2
$PAPER_SPACE
 70
     0
 10
0.0
 20
0.0
 30
0.0
  3
$PAPER_SPACE
  1

  0
ENDBLK
  5
20C
100
AcDbEntity
  8
0
100
AcDbBlockEnd
  0
BLOCK
  5
20E
100
AcDbEntity
  8
0
100
AcDbBlockBegin
  2
ARROW
 70
     0
 10
0.0
 20
0.0
 30
0.0
  3
ARROW
  1

  0
LINE
  5
20F
100
AcDbEntity
  8
DIMENSION
100
AcDbLine
 10
0.0
 20
0.0
 30
0.0
 11
-1.0
 21
0.176327
 31
0.0
  0
LINE
  5
210
100
AcDbEntity
  8
DIMENSION
100
AcDbLine
 10
0.0
 20
0.0
 30
0.0
 11
-1.0
 21
-0.176327
 31
0.0
  0
LINE
  5
211
100
AcDbEntity
  8
DIMENSION
100
AcDbLine
 10
-1.0
 20
0.0
 30
0.0
 11
0.0
 21
0.0
 31
0.0
  0
ENDBLK
  5
212
100
AcDbEntity
  8
0
100
AcDbBlockEnd
  0
BLOCK
  5
214
100
AcDbEntity
  8
0
100
AcDbBlockBegin
  2
DOT
 70
     0
 10
0.0
 20
0.0
 30
0.0
  3
DOT
  1
DOT2
  0
LWPOLYLINE
  5
215
100
AcDbEntity
  8
DIMENSION
100
AcDbPolyline
 90
        2
 70
     1
 43
0.165
 10
-0.082512
 20
0.000018
 42
1.0
 10
0.082488
 20
0.000018
 42
1.0
  0
LINE
  5
219
100
AcDbEntity
  8
DIMENSION
100
AcDbLine
 10
-0.000012
 20
0.000018
 30
0.0
 11
-1.000012
 21
0.000018
 31
0.0
  0
ENDBLK
  5
21A
100
AcDbEntity
  8
0
100
AcDbBlockEnd
  0
ENDSEC
  0
SECTION
  2
ENTITIES
  0
ARC
  5
21B
100
AcDbEntity
  8
0
100
AcDbCircle
 10
397.27226
 20
206.697563
 30
0.0
 40
40.5
100
AcDbArc
 50
85.054551
 51
94.945449
  0
CIRCLE
  5
21C
100
AcDbEntity
  8
0
100
AcDbCircle
 10
397.27226
 20
240.697563
 30
0.0
 40
3.3
  0
CIRCLE
  5
21D
100
AcDbEntity
  8
0
100
AcDbCircle
 10
397.27226
 20
240.697563
 30
0.0
 40
5.5
  0
LWPOLYLINE
  5
21E
100
AcDbEntity
  8
0
100
AcDbPolyline
 90
        2
 70
     0
 43
0.0
 10
437.621488
 20
210.188956
 10
400.763653
 20
247.046791
  0
LWPOLYLINE
  5
222
100
AcDbEntity
  8
0
100
AcDbPolyline
 90
        2
 70
     0
 43
0.0
 10
393.780867
 20
247.046791
 10
356.923032
 20
210.188956
  0
CIRCLE
  5
226
100
AcDbEntity
  8
0
100
AcDbCircle
 10
431.27226
 20
206.697563
 30
0.0
 40
3.3
  0
CIRCLE
  5
227
100
AcDbEntity
  8
0
100
AcDbCircle
 10
397.27226
 20
172.697563
 30
0.0
 40
3.3
  0
ARC
  5
228
100
AcDbEntity
  8
0
100
AcDbCircle
 10
397.27226
 20
206.697563
 30
0.0
 40
40.5
100
AcDbArc
 50
265.054551
 51
274.945449
  0
CIRCLE
  5
229
100
AcDbEntity
  8
0
100
AcDbCircle
 10
397.27226
 20
172.697563
 30
0.0
 40
5.5
  0
LWPOLYLINE
  5
22A
100
AcDbEntity
  8
0
100
AcDbPolyline
 90
        2
 70
     0
 43
0.0
 10
400.763653
 20
166.348336
 10
437.621488
 20
203.206171
  0
CIRCLE
  5
22E
100
AcDbEntity
  8
0
100
AcDbCircle
 10
363.27226
 20
206.697563
 30
0.0
 40
3.3
  0
LINE
  5
22F
100
AcDbEntity
  8
CENTER
  6
CENTER
 62
     1
100
AcDbLine
 10
350.037393
 20
206.697563
 30
0.0
 11
444.507128
 21
206.697563
 31
0.0
  0
LWPOLYLINE
  5
230
100
AcDbEntity
  8
0
100
AcDbPolyline
 90
        2
 70
     0
 43
0.0
 10
356.923032
 20
203.206171
 10
393.780867
 20
166.348336
  0
CIRCLE
  5
234
100
AcDbEntity
  8
CENTER
  6
CENTER
 62
     1
100
AcDbCircle
 10
397.27226
 20
206.697563
 30
0.0
 40
34.0
  0
LINE
  5
235
100
AcDbEntity
  8
CENTER
  6
CENTER
 62
     1
100
AcDbLine
 10
397.27226
 20
253.932431
 30
0.0
 11
397.27226
 21
159.462696
 31
0.0
  0
CIRCLE
  5
236
100
AcDbEntity
  8
0
100
AcDbCircle
 10
397.27226
 20
206.697563
 30
0.0
 40
27.0
  0
ARC
  5
237
100
AcDbEntity
  8
0
100
AcDbCircle
 10
397.27226
 20
206.697563
 30
0.0
 40
40.5
100
AcDbArc
 50
355.054551
 51
4.945449
  0
CIRCLE
  5
238
100
AcDbEntity
  8
0
100
AcDbCircle
 10
397.27226
 20
206.697563
 30
0.0
 40
10.0
  0
CIRCLE
  5
239
100
AcDbEntity
  8
0
100
AcDbCircle
 10
397.27226
 20
206.697563
 30
0.0
 40
23.5
  0
CIRCLE
  5
23A
100
AcDbEntity
  8
0
100
AcDbCircle
 10
431.27226
 20
206.697563
 30
0.0
 40
5.5
  0
ARC
  5
23B
100
AcDbEntity
  8
0
100
AcDbCircle
 10
397.27226
 20
206.697563
 30
0.0
 40
40.5
100
AcDbArc
 50
175.054551
 51
184.945449
  0
CIRCLE
  5
23C
100
AcDbEntity
  8
0
100
AcDbCircle
 10
363.27226
 20
206.697563
 30
0.0
 40
5.5
  0
LINE
  5
23D
100
AcDbEntity
  8
0
100
AcDbLine
 10
236.188907
 20
226.947563
 30
0.0
 11
234.238907
 21
226.947563
 31
0.0
  0
LINE
  5
23E
100
AcDbEntity
  8
0
100
AcDbLine
 10
236.188907
 20
230.197563
 30
0.0
 11
238.188907
 21
230.197563
 31
0.0
  0
LINE
  5
23F
100
AcDbEntity
  8
0
100
AcDbLine
 10
236.188907
 20
231.447563
 30
0.0
 11
234.238907
 21
231.447563
 31
0.0
  0
ARC
  5
240
100
AcDbEntity
  8
0
100
AcDbCircle
 10
234.038907
 20
227.697553
 30
0.0
 40
0.2
100
AcDbArc
 50
270.0
 51
0.0
  0
LINE
  5
241
100
AcDbEntity
  8
0
100
AcDbLine
 10
233.192906
 20
226.881544
 30
0.0
 11
233.422501
 21
227.074223
 31
0.0
  0
LINE
  5
242
100
AcDbEntity
  8
0
100
AcDbLine
 10
233.459159
 20
227.497222
 30
0.0
 11
233.238141
 21
227.75978
 31
0.0
  0
ARC
  5
243
100
AcDbEntity
  8
0
100
AcDbCircle
 10
233.22965
 20
227.304024
 30
0.0
 40
0.3
100
AcDbArc
 50
310.003724
 51
40.090214
  0
LINE
  5
244
100
AcDbEntity
  8
0
100
AcDbLine
 10
234.038907
 20
227.497553
 30
0.0
 11
233.45888
 21
227.497553
 31
0.0
  0
ARC
  5
245
100
AcDbEntity
  8
0
100
AcDbCircle
 10
232.860183
 20
227.432702
 30
0.0
 40
0.2
100
AcDbArc
 50
40.007775
 51
177.62463
  0
LINE
  5
246
100
AcDbEntity
  8
0
100
AcDbLine
 10
232.357518
 20
227.481249
 30
0.0
 11
232.27889
 21
226.580177
 31
0.0
  0
ARC
  5
247
100
AcDbEntity
  8
0
100
AcDbCircle
 10
232.638907
 20
228.597563
 30
0.0
 40
1.6
100
AcDbArc
 50
0.0
 51
90.0
  0
LINE
  5
248
100
AcDbEntity
  8
0
100
AcDbLine
 10
233.228905
 20
227.304492
 30
0.0
 11
233.013374
 21
227.56128
 31
0.0
  0
LINE
  5
249
100
AcDbEntity
  8
0
100
AcDbLine
 10
232.999933
 20
227.111517
 30
0.0
 11
233.228905
 21
227.304492
 31
0.0
  0
LINE
  5
24A
100
AcDbEntity
  8
0
100
AcDbLine
 10
233.192906
 20
226.881544
 30
0.0
 11
232.999933
 21
227.111517
 31
0.0
  0
ARC
  5
24B
100
AcDbEntity
  8
0
100
AcDbCircle
 10
232.855625
 20
227.437784
 30
0.0
 40
0.5
100
AcDbArc
 50
40.090214
 51
175.01295
  0
ARC
  5
24C
100
AcDbEntity
  8
0
100
AcDbCircle
 10
234.038907
 20
220.497543
 30
0.0
 40
0.2
100
AcDbArc
 50
0.0
 51
90.0
  0
LINE
  5
24D
100
AcDbEntity
  8
0
100
AcDbLine
 10
234.038907
 20
220.697543
 30
0.0
 11
233.538927
 21
220.697543
 31
0.0
  0
ARC
  5
24E
100
AcDbEntity
  8
0
100
AcDbCircle
 10
233.408907
 20
221.297553
 30
0.0
 40
0.3
100
AcDbArc
 50
270.0
 51
0.0
  0
LINE
  5
24F
100
AcDbEntity
  8
0
100
AcDbLine
 10
233.708907
 20
225.101553
 30
0.0
 11
233.708907
 21
221.297553
 31
0.0
  0
LINE
  5
250
100
AcDbEntity
  8
0
100
AcDbLine
 10
233.408907
 20
224.977593
 30
0.0
 11
233.408907
 21
221.297553
 31
0.0
  0
ARC
  5
251
100
AcDbEntity
  8
0
100
AcDbCircle
 10
232.740907
 20
220.747553
 30
0.0
 40
0.599648
100
AcDbArc
 50
267.195159
 51
315.0
  0
LINE
  5
252
100
AcDbEntity
  8
0
100
AcDbLine
 10
232.788907
 20
220.997553
 30
0.0
 11
232.788907
 21
221.297553
 31
0.0
  0
LINE
  5
253
100
AcDbEntity
  8
0
100
AcDbLine
 10
232.456917
 20
220.344673
 30
0.0
 11
232.085838
 21
221.365859
 31
0.0
  0
ARC
  5
254
100
AcDbEntity
  8
0
100
AcDbCircle
 10
231.897864
 20
221.297553
 30
0.0
 40
0.2
100
AcDbArc
 50
19.970128
 51
90.0
  0
ARC
  5
255
100
AcDbEntity
  8
0
100
AcDbCircle
 10
232.738907
 20
220.447543
 30
0.0
 40
0.300167
100
AcDbArc
 50
199.970128
 51
274.462605
  0
LINE
  5
256
100
AcDbEntity
  8
0
100
AcDbLine
 10
231.897864
 20
221.497553
 30
0.0
 11
230.361154
 21
221.497553
 31
0.0
  0
LINE
  5
257
100
AcDbEntity
  8
0
100
AcDbLine
 10
232.079647
 20
226.397563
 30
0.0
 11
230.361162
 21
226.397563
 31
0.0
  0
LINE
  5
258
100
AcDbEntity
  8
0
100
AcDbLine
 10
232.308907
 20
226.077603
 30
0.0
 11
233.408907
 21
224.977593
 31
0.0
  0
LINE
  5
259
100
AcDbEntity
  8
0
100
AcDbLine
 10
232.608939
 20
226.201511
 30
0.0
 11
233.708907
 21
225.101553
 31
0.0
  0
LINE
  5
25A
100
AcDbEntity
  8
0
100
AcDbLine
 10
233.408907
 20
220.997553
 30
0.0
 11
232.788907
 21
220.997553
 31
0.0
  0
LINE
  5
25B
100
AcDbEntity
  8
0
100
AcDbLine
 10
232.788907
 20
221.297553
 30
0.0
 11
233.408907
 21
221.297553
 31
0.0
  0
LINE
  5
25C
100
AcDbEntity
  8
0
100
AcDbLine
 10
233.538927
 20
220.697543
 30
0.0
 11
233.164897
 21
220.323513
 31
0.0
  0
ARC
  5
25D
100
AcDbEntity
  8
0
100
AcDbCircle
 10
232.638907
 20
218.297563
 30
0.0
 40
1.6
100
AcDbArc
 50
270.0
 51
0.0
  0
LINE
  5
25E
100
AcDbEntity
  8
0
100
AcDbLine
 10
232.660355
 20
227.440991
 30
0.0
 11
232.608939
 21
226.201511
 31
0.0
  0
ARC
  5
25F
100
AcDbEntity
  8
0
100
AcDbCircle
 10
232.079647
 20
226.597563
 30
0.0
 40
0.2
100
AcDbArc
 50
270.0
 51
355.01295
  0
LINE
  5
260
100
AcDbEntity
  8
0
100
AcDbLine
 10
232.308907
 20
226.924553
 30
0.0
 11
232.308907
 21
226.077603
 31
0.0
  0
LINE
  5
261
100
AcDbEntity
  8
0
100
AcDbLine
 10
222.120296
 20
227.481249
 30
0.0
 11
222.198924
 21
226.580177
 31
0.0
  0
LINE
  5
262
100
AcDbEntity
  8
0
100
AcDbLine
 10
221.248909
 20
227.304492
 30
0.0
 11
221.464439
 21
227.56128
 31
0.0
  0
LINE
  5
263
100
AcDbEntity
  8
0
100
AcDbLine
 10
221.284908
 20
226.881544
 30
0.0
 11
221.477881
 21
227.111517
 31
0.0
  0
LINE
  5
264
100
AcDbEntity
  8
0
100
AcDbLine
 10
221.477881
 20
227.111517
 30
0.0
 11
221.248909
 21
227.304492
 31
0.0
  0
LINE
  5
265
100
AcDbEntity
  8
0
100
AcDbLine
 10
220.438907
 20
227.497553
 30
0.0
 11
221.018934
 21
227.497553
 31
0.0
  0
ARC
  5
266
100
AcDbEntity
  8
0
100
AcDbCircle
 10
220.438907
 20
227.697553
 30
0.0
 40
0.2
100
AcDbArc
 50
180.0
 51
270.0
  0
ARC
  5
267
100
AcDbEntity
  8
0
100
AcDbCircle
 10
221.248164
 20
227.304024
 30
0.0
 40
0.3
100
AcDbArc
 50
139.909786
 51
229.996276
  0
LINE
  5
268
100
AcDbEntity
  8
0
100
AcDbLine
 10
221.284908
 20
226.881544
 30
0.0
 11
221.055313
 21
227.074223
 31
0.0
  0
LINE
  5
269
100
AcDbEntity
  8
0
100
AcDbLine
 10
221.018654
 20
227.497222
 30
0.0
 11
221.239673
 21
227.75978
 31
0.0
  0
ARC
  5
26A
100
AcDbEntity
  8
0
100
AcDbCircle
 10
221.838907
 20
228.597563
 30
0.0
 40
1.6
100
AcDbArc
 50
90.0
 51
180.0
  0
ARC
  5
26B
100
AcDbEntity
  8
0
100
AcDbCircle
 10
221.622189
 20
227.437784
 30
0.0
 40
0.5
100
AcDbArc
 50
4.98705
 51
139.909786
  0
ARC
  5
26C
100
AcDbEntity
  8
0
100
AcDbCircle
 10
221.617631
 20
227.432702
 30
0.0
 40
0.2
100
AcDbArc
 50
2.37537
 51
139.992225
  0
ARC
  5
26D
100
AcDbEntity
  8
0
100
AcDbCircle
 10
222.57995
 20
221.297553
 30
0.0
 40
0.2
100
AcDbArc
 50
90.0
 51
160.029872
  0
ARC
  5
26E
100
AcDbEntity
  8
0
100
AcDbCircle
 10
221.738907
 20
220.447543
 30
0.0
 40
0.300167
100
AcDbArc
 50
265.537395
 51
340.029872
  0
LINE
  5
26F
100
AcDbEntity
  8
0
100
AcDbLine
 10
221.688907
 20
220.997553
 30
0.0
 11
221.688907
 21
221.297553
 31
0.0
  0
LINE
  5
270
100
AcDbEntity
  8
0
100
AcDbLine
 10
222.020897
 20
220.344673
 30
0.0
 11
222.391975
 21
221.365859
 31
0.0
  0
LINE
  5
271
100
AcDbEntity
  8
0
100
AcDbLine
 10
222.57995
 20
221.497553
 30
0.0
 11
224.11666
 21
221.497553
 31
0.0
  0
LINE
  5
272
100
AcDbEntity
  8
0
100
AcDbLine
 10
222.398167
 20
226.397563
 30
0.0
 11
224.116652
 21
226.397563
 31
0.0
  0
ARC
  5
273
100
AcDbEntity
  8
0
100
AcDbCircle
 10
220.438907
 20
220.497543
 30
0.0
 40
0.2
100
AcDbArc
 50
90.0
 51
180.0
  0
LINE
  5
274
100
AcDbEntity
  8
0
100
AcDbLine
 10
220.438907
 20
220.697543
 30
0.0
 11
220.938887
 21
220.697543
 31
0.0
  0
ARC
  5
275
100
AcDbEntity
  8
0
100
AcDbCircle
 10
221.068907
 20
221.297553
 30
0.0
 40
0.3
100
AcDbArc
 50
180.0
 51
270.0
  0
LINE
  5
276
100
AcDbEntity
  8
0
100
AcDbLine
 10
220.938887
 20
220.697543
 30
0.0
 11
221.312917
 21
220.323513
 31
0.0
  0
LINE
  5
277
100
AcDbEntity
  8
0
100
AcDbLine
 10
221.068907
 20
224.977593
 30
0.0
 11
221.068907
 21
221.297553
 31
0.0
  0
LINE
  5
278
100
AcDbEntity
  8
0
100
AcDbLine
 10
220.768907
 20
225.101553
 30
0.0
 11
220.768907
 21
221.297553
 31
0.0
  0
LINE
  5
279
100
AcDbEntity
  8
0
100
AcDbLine
 10
221.868875
 20
226.201511
 30
0.0
 11
220.768907
 21
225.101553
 31
0.0
  0
LINE
  5
27A
100
AcDbEntity
  8
0
100
AcDbLine
 10
222.168907
 20
226.077603
 30
0.0
 11
221.068907
 21
224.977593
 31
0.0
  0
ARC
  5
27B
100
AcDbEntity
  8
0
100
AcDbCircle
 10
221.736907
 20
220.747553
 30
0.0
 40
0.599648
100
AcDbArc
 50
225.0
 51
272.804841
  0
LINE
  5
27C
100
AcDbEntity
  8
0
100
AcDbLine
 10
221.688907
 20
221.297553
 30
0.0
 11
221.068907
 21
221.297553
 31
0.0
  0
LINE
  5
27D
100
AcDbEntity
  8
0
100
AcDbLine
 10
221.068907
 20
220.997553
 30
0.0
 11
221.688907
 21
220.997553
 31
0.0
  0
ARC
  5
27E
100
AcDbEntity
  8
0
100
AcDbCircle
 10
221.838907
 20
218.297563
 30
0.0
 40
1.6
100
AcDbArc
 50
180.0
 51
270.0
  0
LINE
  5
27F
100
AcDbEntity
  8
0
100
AcDbLine
 10
221.817459
 20
227.440991
 30
0.0
 11
221.868875
 21
226.201511
 31
0.0
  0
LINE
  5
280
100
AcDbEntity
  8
0
100
AcDbLine
 10
222.168907
 20
226.924553
 30
0.0
 11
222.168907
 21
226.077603
 31
0.0
  0
ARC
  5
281
100
AcDbEntity
  8
0
100
AcDbCircle
 10
222.398167
 20
226.597563
 30
0.0
 40
0.2
100
AcDbArc
 50
184.98705
 51
270.0
  0
LINE
  5
282
100
AcDbEntity
  8
0
100
AcDbLine
 10
238.188907
 20
233.697563
 30
0.0
 11
204.188907
 21
233.697563
 31
0.0
  0
CIRCLE
  5
283
100
AcDbEntity
  8
0
100
AcDbCircle
 10
227.238907
 20
223.947563
 30
0.0
 40
3.96875
  0
LINE
  5
284
100
AcDbEntity
  8
0
100
AcDbLine
 10
221.838907
 20
216.697563
 30
0.0
 11
232.638907
 21
216.697563
 31
0.0
  0
LINE
  5
285
100
AcDbEntity
  8
0
100
AcDbLine
 10
221.838907
 20
230.197563
 30
0.0
 11
234.238907
 21
230.197563
 31
0.0
  0
LINE
  5
286
100
AcDbEntity
  8
0
100
AcDbLine
 10
204.188907
 20
247.197563
 30
0.0
 11
204.188907
 21
233.697563
 31
0.0
  0
LINE
  5
287
100
AcDbEntity
  8
0
100
AcDbLine
 10
201.438907
 20
247.197563
 30
0.0
 11
201.438907
 21
247.197663
 31
0.0
  0
LINE
  5
288
100
AcDbEntity
  8
0
100
AcDbLine
 10
198.688907
 20
247.197563
 30
0.0
 11
198.689007
 21
247.197563
 31
0.0
  0
LINE
  5
289
100
AcDbEntity
  8
0
100
AcDbLine
 10
198.088907
 20
243.997563
 30
0.0
 11
193.188907
 21
243.997563
 31
0.0
  0
LINE
  5
28A
100
AcDbEntity
  8
0
100
AcDbLine
 10
198.088907
 20
237.397563
 30
0.0
 11
193.188907
 21
237.397563
 31
0.0
  0
LINE
  5
28B
100
AcDbEntity
  8
0
100
AcDbLine
 10
189.257518
 20
227.481249
 30
0.0
 11
189.17889
 21
226.580177
 31
0.0
  0
LINE
  5
28C
100
AcDbEntity
  8
0
100
AcDbLine
 10
190.359159
 20
227.497222
 30
0.0
 11
190.138141
 21
227.75978
 31
0.0
  0
LINE
  5
28D
100
AcDbEntity
  8
0
100
AcDbLine
 10
190.092906
 20
226.881544
 30
0.0
 11
190.322501
 21
227.074223
 31
0.0
  0
ARC
  5
28E
100
AcDbEntity
  8
0
100
AcDbCircle
 10
190.12965
 20
227.304024
 30
0.0
 40
0.3
100
AcDbArc
 50
310.003724
 51
40.090214
  0
LINE
  5
28F
100
AcDbEntity
  8
0
100
AcDbLine
 10
190.938907
 20
227.497553
 30
0.0
 11
190.35888
 21
227.497553
 31
0.0
  0
LINE
  5
290
100
AcDbEntity
  8
0
100
AcDbLine
 10
189.899933
 20
227.111517
 30
0.0
 11
190.128905
 21
227.304492
 31
0.0
  0
LINE
  5
291
100
AcDbEntity
  8
0
100
AcDbLine
 10
190.092906
 20
226.881544
 30
0.0
 11
189.899933
 21
227.111517
 31
0.0
  0
LINE
  5
292
100
AcDbEntity
  8
0
100
AcDbLine
 10
190.128905
 20
227.304492
 30
0.0
 11
189.913374
 21
227.56128
 31
0.0
  0
ARC
  5
293
100
AcDbEntity
  8
0
100
AcDbCircle
 10
190.938907
 20
227.697553
 30
0.0
 40
0.2
100
AcDbArc
 50
270.0
 51
0.0
  0
ARC
  5
294
100
AcDbEntity
  8
0
100
AcDbCircle
 10
189.760183
 20
227.432702
 30
0.0
 40
0.2
100
AcDbArc
 50
40.007775
 51
177.62463
  0
ARC
  5
295
100
AcDbEntity
  8
0
100
AcDbCircle
 10
189.755625
 20
227.437784
 30
0.0
 40
0.5
100
AcDbArc
 50
40.090214
 51
175.01295
  0
ARC
  5
296
100
AcDbEntity
  8
0
100
AcDbCircle
 10
189.538907
 20
228.597563
 30
0.0
 40
1.6
100
AcDbArc
 50
0.0
 51
90.0
  0
LINE
  5
297
100
AcDbEntity
  8
0
100
AcDbLine
 10
188.979647
 20
226.397563
 30
0.0
 11
187.261162
 21
226.397563
 31
0.0
  0
LINE
  5
298
100
AcDbEntity
  8
0
100
AcDbLine
 10
188.797864
 20
221.497553
 30
0.0
 11
187.261154
 21
221.497553
 31
0.0
  0
LINE
  5
299
100
AcDbEntity
  8
0
100
AcDbLine
 10
189.356917
 20
220.344673
 30
0.0
 11
188.985838
 21
221.365859
 31
0.0
  0
LINE
  5
29A
100
AcDbEntity
  8
0
100
AcDbLine
 10
189.688907
 20
220.997553
 30
0.0
 11
189.688907
 21
221.297553
 31
0.0
  0
ARC
  5
29B
100
AcDbEntity
  8
0
100
AcDbCircle
 10
189.638907
 20
220.447543
 30
0.0
 40
0.300167
100
AcDbArc
 50
199.970128
 51
274.462605
  0
ARC
  5
29C
100
AcDbEntity
  8
0
100
AcDbCircle
 10
188.797864
 20
221.297553
 30
0.0
 40
0.2
100
AcDbArc
 50
19.970128
 51
90.0
  0
LINE
  5
29D
100
AcDbEntity
  8
0
100
AcDbLine
 10
190.608907
 20
225.101553
 30
0.0
 11
190.608907
 21
221.297553
 31
0.0
  0
LINE
  5
29E
100
AcDbEntity
  8
0
100
AcDbLine
 10
190.308907
 20
224.977593
 30
0.0
 11
190.308907
 21
221.297553
 31
0.0
  0
LINE
  5
29F
100
AcDbEntity
  8
0
100
AcDbLine
 10
190.438927
 20
220.697543
 30
0.0
 11
190.064897
 21
220.323513
 31
0.0
  0
ARC
  5
2A0
100
AcDbEntity
  8
0
100
AcDbCircle
 10
190.308907
 20
221.297553
 30
0.0
 40
0.3
100
AcDbArc
 50
270.0
 51
0.0
  0
LINE
  5
2A1
100
AcDbEntity
  8
0
100
AcDbLine
 10
190.938907
 20
220.697543
 30
0.0
 11
190.438927
 21
220.697543
 31
0.0
  0
ARC
  5
2A2
100
AcDbEntity
  8
0
100
AcDbCircle
 10
190.938907
 20
220.497543
 30
0.0
 40
0.2
100
AcDbArc
 50
0.0
 51
90.0
  0
LINE
  5
2A3
100
AcDbEntity
  8
0
100
AcDbLine
 10
190.308907
 20
220.997553
 30
0.0
 11
189.688907
 21
220.997553
 31
0.0
  0
LINE
  5
2A4
100
AcDbEntity
  8
0
100
AcDbLine
 10
189.688907
 20
221.297553
 30
0.0
 11
190.308907
 21
221.297553
 31
0.0
  0
ARC
  5
2A5
100
AcDbEntity
  8
0
100
AcDbCircle
 10
189.640907
 20
220.747553
 30
0.0
 40
0.599648
100
AcDbArc
 50
267.195159
 51
315.0
  0
LINE
  5
2A6
100
AcDbEntity
  8
0
100
AcDbLine
 10
189.208907
 20
226.077603
 30
0.0
 11
190.308907
 21
224.977593
 31
0.0
  0
LINE
  5
2A7
100
AcDbEntity
  8
0
100
AcDbLine
 10
189.508939
 20
226.201511
 30
0.0
 11
190.608907
 21
225.101553
 31
0.0
  0
ARC
  5
2A8
100
AcDbEntity
  8
0
100
AcDbCircle
 10
189.538907
 20
218.297563
 30
0.0
 40
1.6
100
AcDbArc
 50
270.0
 51
0.0
  0
ARC
  5
2A9
100
AcDbEntity
  8
0
100
AcDbCircle
 10
188.979647
 20
226.597563
 30
0.0
 40
0.2
100
AcDbArc
 50
270.0
 51
355.01295
  0
LINE
  5
2AA
100
AcDbEntity
  8
0
100
AcDbLine
 10
189.208907
 20
226.924553
 30
0.0
 11
189.208907
 21
226.077603
 31
0.0
  0
LINE
  5
2AB
100
AcDbEntity
  8
0
100
AcDbLine
 10
189.560355
 20
227.440991
 30
0.0
 11
189.508939
 21
226.201511
 31
0.0
  0
LINE
  5
2AC
100
AcDbEntity
  8
0
100
AcDbLine
 10
175.188907
 20
226.947563
 30
0.0
 11
177.138907
 21
226.947563
 31
0.0
  0
LINE
  5
2AD
100
AcDbEntity
  8
0
100
AcDbLine
 10
177.338907
 20
227.497553
 30
0.0
 11
177.918934
 21
227.497553
 31
0.0
  0
ARC
  5
2AE
100
AcDbEntity
  8
0
100
AcDbCircle
 10
178.148164
 20
227.304024
 30
0.0
 40
0.3
100
AcDbArc
 50
139.909786
 51
229.996276
  0
LINE
  5
2AF
100
AcDbEntity
  8
0
100
AcDbLine
 10
177.918654
 20
227.497222
 30
0.0
 11
178.139673
 21
227.75978
 31
0.0
  0
LINE
  5
2B0
100
AcDbEntity
  8
0
100
AcDbLine
 10
178.184908
 20
226.881544
 30
0.0
 11
177.955313
 21
227.074223
 31
0.0
  0
ARC
  5
2B1
100
AcDbEntity
  8
0
100
AcDbCircle
 10
177.338907
 20
227.697553
 30
0.0
 40
0.2
100
AcDbArc
 50
180.0
 51
270.0
  0
LINE
  5
2B2
100
AcDbEntity
  8
0
100
AcDbLine
 10
175.188907
 20
231.447563
 30
0.0
 11
177.138907
 21
231.447563
 31
0.0
  0
LINE
  5
2B3
100
AcDbEntity
  8
0
100
AcDbLine
 10
179.020296
 20
227.481249
 30
0.0
 11
179.098924
 21
226.580177
 31
0.0
  0
ARC
  5
2B4
100
AcDbEntity
  8
0
100
AcDbCircle
 10
178.517631
 20
227.432702
 30
0.0
 40
0.2
100
AcDbArc
 50
2.37537
 51
139.992225
  0
ARC
  5
2B5
100
AcDbEntity
  8
0
100
AcDbCircle
 10
178.522189
 20
227.437784
 30
0.0
 40
0.5
100
AcDbArc
 50
4.98705
 51
139.909786
  0
LINE
  5
2B6
100
AcDbEntity
  8
0
100
AcDbLine
 10
178.184908
 20
226.881544
 30
0.0
 11
178.377881
 21
227.111517
 31
0.0
  0
LINE
  5
2B7
100
AcDbEntity
  8
0
100
AcDbLine
 10
178.377881
 20
227.111517
 30
0.0
 11
178.148909
 21
227.304492
 31
0.0
  0
LINE
  5
2B8
100
AcDbEntity
  8
0
100
AcDbLine
 10
178.148909
 20
227.304492
 30
0.0
 11
178.364439
 21
227.56128
 31
0.0
  0
ARC
  5
2B9
100
AcDbEntity
  8
0
100
AcDbCircle
 10
178.738907
 20
228.597563
 30
0.0
 40
1.6
100
AcDbArc
 50
90.0
 51
180.0
  0
LINE
  5
2BA
100
AcDbEntity
  8
0
100
AcDbLine
 10
175.188907
 20
230.197563
 30
0.0
 11
173.188907
 21
230.197563
 31
0.0
  0
LINE
  5
2BB
100
AcDbEntity
  8
0
100
AcDbLine
 10
177.968907
 20
224.977593
 30
0.0
 11
177.968907
 21
221.297553
 31
0.0
  0
LINE
  5
2BC
100
AcDbEntity
  8
0
100
AcDbLine
 10
177.668907
 20
225.101553
 30
0.0
 11
177.668907
 21
221.297553
 31
0.0
  0
ARC
  5
2BD
100
AcDbEntity
  8
0
100
AcDbCircle
 10
177.968907
 20
221.297553
 30
0.0
 40
0.3
100
AcDbArc
 50
180.0
 51
270.0
  0
LINE
  5
2BE
100
AcDbEntity
  8
0
100
AcDbLine
 10
177.338907
 20
220.697543
 30
0.0
 11
177.838887
 21
220.697543
 31
0.0
  0
ARC
  5
2BF
100
AcDbEntity
  8
0
100
AcDbCircle
 10
177.338907
 20
220.497543
 30
0.0
 40
0.2
100
AcDbArc
 50
90.0
 51
180.0
  0
ARC
  5
2C0
100
AcDbEntity
  8
0
100
AcDbCircle
 10
178.638907
 20
220.447543
 30
0.0
 40
0.300167
100
AcDbArc
 50
265.537395
 51
340.029872
  0
ARC
  5
2C1
100
AcDbEntity
  8
0
100
AcDbCircle
 10
179.47995
 20
221.297553
 30
0.0
 40
0.2
100
AcDbArc
 50
90.0
 51
160.029872
  0
LINE
  5
2C2
100
AcDbEntity
  8
0
100
AcDbLine
 10
178.920897
 20
220.344673
 30
0.0
 11
179.291975
 21
221.365859
 31
0.0
  0
LINE
  5
2C3
100
AcDbEntity
  8
0
100
AcDbLine
 10
178.588907
 20
220.997553
 30
0.0
 11
178.588907
 21
221.297553
 31
0.0
  0
ARC
  5
2C4
100
AcDbEntity
  8
0
100
AcDbCircle
 10
178.636907
 20
220.747553
 30
0.0
 40
0.599648
100
AcDbArc
 50
225.0
 51
272.804841
  0
LINE
  5
2C5
100
AcDbEntity
  8
0
100
AcDbLine
 10
177.838887
 20
220.697543
 30
0.0
 11
178.212917
 21
220.323513
 31
0.0
  0
LINE
  5
2C6
100
AcDbEntity
  8
0
100
AcDbLine
 10
178.588907
 20
221.297553
 30
0.0
 11
177.968907
 21
221.297553
 31
0.0
  0
LINE
  5
2C7
100
AcDbEntity
  8
0
100
AcDbLine
 10
177.968907
 20
220.997553
 30
0.0
 11
178.588907
 21
220.997553
 31
0.0
  0
LINE
  5
2C8
100
AcDbEntity
  8
0
100
AcDbLine
 10
178.768875
 20
226.201511
 30
0.0
 11
177.668907
 21
225.101553
 31
0.0
  0
LINE
  5
2C9
100
AcDbEntity
  8
0
100
AcDbLine
 10
179.068907
 20
226.077603
 30
0.0
 11
177.968907
 21
224.977593
 31
0.0
  0
ARC
  5
2CA
100
AcDbEntity
  8
0
100
AcDbCircle
 10
178.738907
 20
218.297563
 30
0.0
 40
1.6
100
AcDbArc
 50
180.0
 51
270.0
  0
LINE
  5
2CB
100
AcDbEntity
  8
0
100
AcDbLine
 10
179.068907
 20
226.924553
 30
0.0
 11
179.068907
 21
226.077603
 31
0.0
  0
ARC
  5
2CC
100
AcDbEntity
  8
0
100
AcDbCircle
 10
179.298167
 20
226.597563
 30
0.0
 40
0.2
100
AcDbArc
 50
184.98705
 51
270.0
  0
LINE
  5
2CD
100
AcDbEntity
  8
0
100
AcDbLine
 10
178.717459
 20
227.440991
 30
0.0
 11
178.768875
 21
226.201511
 31
0.0
  0
LINE
  5
2CE
100
AcDbEntity
  8
0
100
AcDbLine
 10
179.298167
 20
226.397563
 30
0.0
 11
181.016652
 21
226.397563
 31
0.0
  0
LINE
  5
2CF
100
AcDbEntity
  8
0
100
AcDbLine
 10
179.47995
 20
221.497553
 30
0.0
 11
181.01666
 21
221.497553
 31
0.0
  0
LINE
  5
2D0
100
AcDbEntity
  8
0
100
AcDbLine
 10
189.538907
 20
230.197563
 30
0.0
 11
177.138907
 21
230.197563
 31
0.0
  0
LINE
  5
2D1
100
AcDbEntity
  8
0
100
AcDbLine
 10
189.538907
 20
216.697563
 30
0.0
 11
178.738907
 21
216.697563
 31
0.0
  0
CIRCLE
  5
2D2
100
AcDbEntity
  8
0
100
AcDbCircle
 10
184.138907
 20
223.947563
 30
0.0
 40
3.96875
  0
LINE
  5
2D3
100
AcDbEntity
  8
0
100
AcDbLine
 10
193.188907
 20
233.697563
 30
0.0
 11
173.188907
 21
233.697563
 31
0.0
  0
LINE
  5
2D4
100
AcDbEntity
  8
0
100
AcDbLine
 10
193.188907
 20
247.197563
 30
0.0
 11
193.188907
 21
233.697563
 31
0.0
  0
LINE
  5
2D5
100
AcDbEntity
  8
0
100
AcDbLine
 10
198.088907
 20
246.197563
 30
0.0
 11
198.088907
 21
235.197563
 31
0.0
  0
LINE
  5
2D6
100
AcDbEntity
  8
CENTER
  6
CENTER
 62
     1
100
AcDbLine
 10
206.188907
 20
240.697563
 30
0.0
 11
191.188907
 21
240.697563
 31
0.0
  0
LINE
  5
2D7
100
AcDbEntity
  8
0
100
AcDbLine
 10
220.238907
 20
226.697563
 30
0.0
 11
191.138907
 21
226.697563
 31
0.0
  0
LINE
  5
2D8
100
AcDbEntity
  8
0
100
AcDbLine
 10
204.188907
 20
235.197563
 30
0.0
 11
198.088907
 21
235.197563
 31
0.0
  0
LINE
  5
2D9
100
AcDbEntity
  8
0
100
AcDbLine
 10
204.188907
 20
246.197563
 30
0.0
 11
198.088907
 21
246.197563
 31
0.0
  0
LINE
  5
2DA
100
AcDbEntity
  8
0
100
AcDbLine
 10
204.188907
 20
247.197563
 30
0.0
 11
193.188907
 21
247.197563
 31
0.0
  0
ARC
  5
2DB
100
AcDbEntity
  8
0
100
AcDbCircle
 10
232.638907
 20
195.097563
 30
0.0
 40
1.6
100
AcDbArc
 50
0.0
 51
90.0
  0
LINE
  5
2DC
100
AcDbEntity
  8
0
100
AcDbLine
 10
236.188907
 20
186.447563
 30
0.0
 11
234.238907
 21
186.447563
 31
0.0
  0
LINE
  5
2DD
100
AcDbEntity
  8
0
100
AcDbLine
 10
234.038907
 20
185.897573
 30
0.0
 11
233.45888
 21
185.897573
 31
0.0
  0
ARC
  5
2DE
100
AcDbEntity
  8
0
100
AcDbCircle
 10
233.22965
 20
186.091103
 30
0.0
 40
0.3
100
AcDbArc
 50
319.909786
 51
49.996276
  0
LINE
  5
2DF
100
AcDbEntity
  8
0
100
AcDbLine
 10
233.459159
 20
185.897905
 30
0.0
 11
233.238141
 21
185.635346
 31
0.0
  0
LINE
  5
2E0
100
AcDbEntity
  8
0
100
AcDbLine
 10
233.192906
 20
186.513582
 30
0.0
 11
233.422501
 21
186.320904
 31
0.0
  0
ARC
  5
2E1
100
AcDbEntity
  8
0
100
AcDbCircle
 10
234.038907
 20
185.697573
 30
0.0
 40
0.2
100
AcDbArc
 50
0.0
 51
90.0
  0
ARC
  5
2E2
100
AcDbEntity
  8
0
100
AcDbCircle
 10
233.408907
 20
192.097573
 30
0.0
 40
0.3
100
AcDbArc
 50
0.0
 51
90.0
  0
LINE
  5
2E3
100
AcDbEntity
  8
0
100
AcDbLine
 10
234.038907
 20
192.697583
 30
0.0
 11
233.538927
 21
192.697583
 31
0.0
  0
ARC
  5
2E4
100
AcDbEntity
  8
0
100
AcDbCircle
 10
234.038907
 20
192.897583
 30
0.0
 40
0.2
100
AcDbArc
 50
270.0
 51
0.0
  0
LINE
  5
2E5
100
AcDbEntity
  8
0
100
AcDbLine
 10
233.408907
 20
188.417533
 30
0.0
 11
233.408907
 21
192.097573
 31
0.0
  0
LINE
  5
2E6
100
AcDbEntity
  8
0
100
AcDbLine
 10
233.708907
 20
188.293573
 30
0.0
 11
233.708907
 21
192.097573
 31
0.0
  0
ARC
  5
2E7
100
AcDbEntity
  8
0
100
AcDbCircle
 10
232.860183
 20
185.962425
 30
0.0
 40
0.2
100
AcDbArc
 50
182.37537
 51
319.992225
  0
LINE
  5
2E8
100
AcDbEntity
  8
0
100
AcDbLine
 10
232.660355
 20
185.954135
 30
0.0
 11
232.608939
 21
187.193615
 31
0.0
  0
ARC
  5
2E9
100
AcDbEntity
  8
0
100
AcDbCircle
 10
232.738907
 20
192.947583
 30
0.0
 40
0.300167
100
AcDbArc
 50
85.537395
 51
160.029872
  0
LINE
  5
2EA
100
AcDbEntity
  8
0
100
AcDbLine
 10
232.788907
 20
192.397573
 30
0.0
 11
232.788907
 21
192.097573
 31
0.0
  0
ARC
  5
2EB
100
AcDbEntity
  8
0
100
AcDbCircle
 10
232.740907
 20
192.647573
 30
0.0
 40
0.599648
100
AcDbArc
 50
45.0
 51
92.804841
  0
LINE
  5
2EC
100
AcDbEntity
  8
0
100
AcDbLine
 10
232.079647
 20
186.997563
 30
0.0
 11
230.361162
 21
186.997563
 31
0.0
  0
LINE
  5
2ED
100
AcDbEntity
  8
0
100
AcDbLine
 10
232.308907
 20
186.470573
 30
0.0
 11
232.308907
 21
187.317523
 31
0.0
  0
ARC
  5
2EE
100
AcDbEntity
  8
0
100
AcDbCircle
 10
232.079647
 20
186.797563
 30
0.0
 40
0.2
100
AcDbArc
 50
4.98705
 51
90.0
  0
LINE
  5
2EF
100
AcDbEntity
  8
0
100
AcDbLine
 10
231.897864
 20
191.897573
 30
0.0
 11
230.361154
 21
191.897573
 31
0.0
  0
ARC
  5
2F0
100
AcDbEntity
  8
0
100
AcDbCircle
 10
231.897864
 20
192.097573
 30
0.0
 40
0.2
100
AcDbArc
 50
270.0
 51
340.029872
  0
LINE
  5
2F1
100
AcDbEntity
  8
0
100
AcDbLine
 10
232.456917
 20
193.050453
 30
0.0
 11
232.085838
 21
192.029267
 31
0.0
  0
LINE
  5
2F2
100
AcDbEntity
  8
0
100
AcDbLine
 10
232.357518
 20
185.913878
 30
0.0
 11
232.27889
 21
186.81495
 31
0.0
  0
LINE
  5
2F3
100
AcDbEntity
  8
0
100
AcDbLine
 10
232.608939
 20
187.193615
 30
0.0
 11
233.708907
 21
188.293573
 31
0.0
  0
LINE
  5
2F4
100
AcDbEntity
  8
0
100
AcDbLine
 10
233.192906
 20
186.513582
 30
0.0
 11
232.999933
 21
186.28361
 31
0.0
  0
LINE
  5
2F5
100
AcDbEntity
  8
0
100
AcDbLine
 10
232.999933
 20
186.28361
 30
0.0
 11
233.228905
 21
186.090635
 31
0.0
  0
LINE
  5
2F6
100
AcDbEntity
  8
0
100
AcDbLine
 10
233.228905
 20
186.090635
 30
0.0
 11
233.013374
 21
185.833846
 31
0.0
  0
LINE
  5
2F7
100
AcDbEntity
  8
0
100
AcDbLine
 10
233.538927
 20
192.697583
 30
0.0
 11
233.164897
 21
193.071613
 31
0.0
  0
LINE
  5
2F8
100
AcDbEntity
  8
0
100
AcDbLine
 10
232.788907
 20
192.097573
 30
0.0
 11
233.408907
 21
192.097573
 31
0.0
  0
LINE
  5
2F9
100
AcDbEntity
  8
0
100
AcDbLine
 10
233.408907
 20
192.397573
 30
0.0
 11
232.788907
 21
192.397573
 31
0.0
  0
LINE
  5
2FA
100
AcDbEntity
  8
0
100
AcDbLine
 10
232.308907
 20
187.317523
 30
0.0
 11
233.408907
 21
188.417533
 31
0.0
  0
LINE
  5
2FB
100
AcDbEntity
  8
0
100
AcDbLine
 10
236.188907
 20
183.197563
 30
0.0
 11
238.188907
 21
183.197563
 31
0.0
  0
LINE
  5
2FC
100
AcDbEntity
  8
0
100
AcDbLine
 10
236.188907
 20
181.947563
 30
0.0
 11
234.238907
 21
181.947563
 31
0.0
  0
ARC
  5
2FD
100
AcDbEntity
  8
0
100
AcDbCircle
 10
232.638907
 20
184.797563
 30
0.0
 40
1.6
100
AcDbArc
 50
270.0
 51
0.0
  0
ARC
  5
2FE
100
AcDbEntity
  8
0
100
AcDbCircle
 10
232.855625
 20
185.957343
 30
0.0
 40
0.5
100
AcDbArc
 50
184.98705
 51
319.909786
  0
ARC
  5
2FF
100
AcDbEntity
  8
0
100
AcDbCircle
 10
221.838907
 20
195.097563
 30
0.0
 40
1.6
100
AcDbArc
 50
90.0
 51
180.0
  0
LINE
  5
300
100
AcDbEntity
  8
0
100
AcDbLine
 10
222.398167
 20
186.997563
 30
0.0
 11
224.116652
 21
186.997563
 31
0.0
  0
ARC
  5
301
100
AcDbEntity
  8
0
100
AcDbCircle
 10
222.398167
 20
186.797563
 30
0.0
 40
0.2
100
AcDbArc
 50
90.0
 51
175.01295
  0
LINE
  5
302
100
AcDbEntity
  8
0
100
AcDbLine
 10
222.168907
 20
186.470573
 30
0.0
 11
222.168907
 21
187.317523
 31
0.0
  0
LINE
  5
303
100
AcDbEntity
  8
0
100
AcDbLine
 10
222.120296
 20
185.913878
 30
0.0
 11
222.198924
 21
186.81495
 31
0.0
  0
LINE
  5
304
100
AcDbEntity
  8
0
100
AcDbLine
 10
221.817459
 20
185.954135
 30
0.0
 11
221.868875
 21
187.193615
 31
0.0
  0
LINE
  5
305
100
AcDbEntity
  8
0
100
AcDbLine
 10
222.57995
 20
191.897573
 30
0.0
 11
224.11666
 21
191.897573
 31
0.0
  0
ARC
  5
306
100
AcDbEntity
  8
0
100
AcDbCircle
 10
222.57995
 20
192.097573
 30
0.0
 40
0.2
100
AcDbArc
 50
199.970128
 51
270.0
  0
LINE
  5
307
100
AcDbEntity
  8
0
100
AcDbLine
 10
221.688907
 20
192.397573
 30
0.0
 11
221.688907
 21
192.097573
 31
0.0
  0
ARC
  5
308
100
AcDbEntity
  8
0
100
AcDbCircle
 10
221.738907
 20
192.947583
 30
0.0
 40
0.300167
100
AcDbArc
 50
19.970128
 51
94.462605
  0
LINE
  5
309
100
AcDbEntity
  8
0
100
AcDbLine
 10
222.020897
 20
193.050453
 30
0.0
 11
222.391975
 21
192.029267
 31
0.0
  0
LINE
  5
30A
100
AcDbEntity
  8
0
100
AcDbLine
 10
221.018654
 20
185.897905
 30
0.0
 11
221.239673
 21
185.635346
 31
0.0
  0
LINE
  5
30B
100
AcDbEntity
  8
0
100
AcDbLine
 10
221.284908
 20
186.513582
 30
0.0
 11
221.055313
 21
186.320904
 31
0.0
  0
ARC
  5
30C
100
AcDbEntity
  8
0
100
AcDbCircle
 10
221.248164
 20
186.091103
 30
0.0
 40
0.3
100
AcDbArc
 50
130.003724
 51
220.090214
  0
ARC
  5
30D
100
AcDbEntity
  8
0
100
AcDbCircle
 10
220.438907
 20
185.697573
 30
0.0
 40
0.2
100
AcDbArc
 50
90.0
 51
180.0
  0
LINE
  5
30E
100
AcDbEntity
  8
0
100
AcDbLine
 10
220.438907
 20
185.897573
 30
0.0
 11
221.018934
 21
185.897573
 31
0.0
  0
LINE
  5
30F
100
AcDbEntity
  8
0
100
AcDbLine
 10
221.477881
 20
186.28361
 30
0.0
 11
221.248909
 21
186.090635
 31
0.0
  0
LINE
  5
310
100
AcDbEntity
  8
0
100
AcDbLine
 10
221.284908
 20
186.513582
 30
0.0
 11
221.477881
 21
186.28361
 31
0.0
  0
LINE
  5
311
100
AcDbEntity
  8
0
100
AcDbLine
 10
221.248909
 20
186.090635
 30
0.0
 11
221.464439
 21
185.833846
 31
0.0
  0
LINE
  5
312
100
AcDbEntity
  8
0
100
AcDbLine
 10
220.938887
 20
192.697583
 30
0.0
 11
221.312917
 21
193.071613
 31
0.0
  0
ARC
  5
313
100
AcDbEntity
  8
0
100
AcDbCircle
 10
221.068907
 20
192.097573
 30
0.0
 40
0.3
100
AcDbArc
 50
90.0
 51
180.0
  0
LINE
  5
314
100
AcDbEntity
  8
0
100
AcDbLine
 10
220.438907
 20
192.697583
 30
0.0
 11
220.938887
 21
192.697583
 31
0.0
  0
ARC
  5
315
100
AcDbEntity
  8
0
100
AcDbCircle
 10
220.438907
 20
192.897583
 30
0.0
 40
0.2
100
AcDbArc
 50
180.0
 51
270.0
  0
LINE
  5
316
100
AcDbEntity
  8
0
100
AcDbLine
 10
220.768907
 20
188.293573
 30
0.0
 11
220.768907
 21
192.097573
 31
0.0
  0
LINE
  5
317
100
AcDbEntity
  8
0
100
AcDbLine
 10
221.068907
 20
188.417533
 30
0.0
 11
221.068907
 21
192.097573
 31
0.0
  0
LINE
  5
318
100
AcDbEntity
  8
0
100
AcDbLine
 10
221.868875
 20
187.193615
 30
0.0
 11
220.768907
 21
188.293573
 31
0.0
  0
ARC
  5
319
100
AcDbEntity
  8
0
100
AcDbCircle
 10
221.617631
 20
185.962425
 30
0.0
 40
0.2
100
AcDbArc
 50
220.007775
 51
357.62463
  0
LINE
  5
31A
100
AcDbEntity
  8
0
100
AcDbLine
 10
222.168907
 20
187.317523
 30
0.0
 11
221.068907
 21
188.417533
 31
0.0
  0
LINE
  5
31B
100
AcDbEntity
  8
0
100
AcDbLine
 10
221.068907
 20
192.397573
 30
0.0
 11
221.688907
 21
192.397573
 31
0.0
  0
LINE
  5
31C
100
AcDbEntity
  8
0
100
AcDbLine
 10
221.688907
 20
192.097573
 30
0.0
 11
221.068907
 21
192.097573
 31
0.0
  0
ARC
  5
31D
100
AcDbEntity
  8
0
100
AcDbCircle
 10
221.736907
 20
192.647573
 30
0.0
 40
0.599648
100
AcDbArc
 50
87.195159
 51
135.0
  0
ARC
  5
31E
100
AcDbEntity
  8
0
100
AcDbCircle
 10
221.838907
 20
184.797563
 30
0.0
 40
1.6
100
AcDbArc
 50
180.0
 51
270.0
  0
ARC
  5
31F
100
AcDbEntity
  8
0
100
AcDbCircle
 10
221.622189
 20
185.957343
 30
0.0
 40
0.5
100
AcDbArc
 50
220.090214
 51
355.01295
  0
LINE
  5
320
100
AcDbEntity
  8
0
100
AcDbLine
 10
238.188907
 20
179.697563
 30
0.0
 11
204.188907
 21
179.697563
 31
0.0
  0
CIRCLE
  5
321
100
AcDbEntity
  8
0
100
AcDbCircle
 10
227.238907
 20
189.447563
 30
0.0
 40
3.96875
  0
LINE
  5
322
100
AcDbEntity
  8
0
100
AcDbLine
 10
221.838907
 20
196.697563
 30
0.0
 11
232.638907
 21
196.697563
 31
0.0
  0
LINE
  5
323
100
AcDbEntity
  8
0
100
AcDbLine
 10
221.838907
 20
183.197563
 30
0.0
 11
234.238907
 21
183.197563
 31
0.0
  0
LINE
  5
324
100
AcDbEntity
  8
0
100
AcDbLine
 10
204.188907
 20
166.197563
 30
0.0
 11
204.188907
 21
179.697563
 31
0.0
  0
ARC
  5
325
100
AcDbEntity
  8
0
100
AcDbCircle
 10
189.538907
 20
195.097563
 30
0.0
 40
1.6
100
AcDbArc
 50
0.0
 51
90.0
  0
LINE
  5
326
100
AcDbEntity
  8
0
100
AcDbLine
 10
188.797864
 20
191.897573
 30
0.0
 11
187.261154
 21
191.897573
 31
0.0
  0
LINE
  5
327
100
AcDbEntity
  8
0
100
AcDbLine
 10
188.979647
 20
186.997563
 30
0.0
 11
187.261162
 21
186.997563
 31
0.0
  0
LINE
  5
328
100
AcDbEntity
  8
0
100
AcDbLine
 10
189.356917
 20
193.050453
 30
0.0
 11
188.985838
 21
192.029267
 31
0.0
  0
ARC
  5
329
100
AcDbEntity
  8
0
100
AcDbCircle
 10
189.638907
 20
192.947583
 30
0.0
 40
0.300167
100
AcDbArc
 50
85.537395
 51
160.029872
  0
LINE
  5
32A
100
AcDbEntity
  8
0
100
AcDbLine
 10
189.688907
 20
192.397573
 30
0.0
 11
189.688907
 21
192.097573
 31
0.0
  0
ARC
  5
32B
100
AcDbEntity
  8
0
100
AcDbCircle
 10
188.797864
 20
192.097573
 30
0.0
 40
0.2
100
AcDbArc
 50
270.0
 51
340.029872
  0
LINE
  5
32C
100
AcDbEntity
  8
0
100
AcDbLine
 10
189.560355
 20
185.954135
 30
0.0
 11
189.508939
 21
187.193615
 31
0.0
  0
LINE
  5
32D
100
AcDbEntity
  8
0
100
AcDbLine
 10
189.257518
 20
185.913878
 30
0.0
 11
189.17889
 21
186.81495
 31
0.0
  0
LINE
  5
32E
100
AcDbEntity
  8
0
100
AcDbLine
 10
189.208907
 20
186.470573
 30
0.0
 11
189.208907
 21
187.317523
 31
0.0
  0
ARC
  5
32F
100
AcDbEntity
  8
0
100
AcDbCircle
 10
188.979647
 20
186.797563
 30
0.0
 40
0.2
100
AcDbArc
 50
4.98705
 51
90.0
  0
LINE
  5
330
100
AcDbEntity
  8
0
100
AcDbLine
 10
190.308907
 20
188.417533
 30
0.0
 11
190.308907
 21
192.097573
 31
0.0
  0
LINE
  5
331
100
AcDbEntity
  8
0
100
AcDbLine
 10
190.608907
 20
188.293573
 30
0.0
 11
190.608907
 21
192.097573
 31
0.0
  0
LINE
  5
332
100
AcDbEntity
  8
0
100
AcDbLine
 10
190.938907
 20
192.697583
 30
0.0
 11
190.438927
 21
192.697583
 31
0.0
  0
ARC
  5
333
100
AcDbEntity
  8
0
100
AcDbCircle
 10
190.308907
 20
192.097573
 30
0.0
 40
0.3
100
AcDbArc
 50
0.0
 51
90.0
  0
LINE
  5
334
100
AcDbEntity
  8
0
100
AcDbLine
 10
190.438927
 20
192.697583
 30
0.0
 11
190.064897
 21
193.071613
 31
0.0
  0
LINE
  5
335
100
AcDbEntity
  8
0
100
AcDbLine
 10
190.128905
 20
186.090635
 30
0.0
 11
189.913374
 21
185.833846
 31
0.0
  0
LINE
  5
336
100
AcDbEntity
  8
0
100
AcDbLine
 10
190.092906
 20
186.513582
 30
0.0
 11
189.899933
 21
186.28361
 31
0.0
  0
LINE
  5
337
100
AcDbEntity
  8
0
100
AcDbLine
 10
189.899933
 20
186.28361
 30
0.0
 11
190.128905
 21
186.090635
 31
0.0
  0
LINE
  5
338
100
AcDbEntity
  8
0
100
AcDbLine
 10
190.938907
 20
185.897573
 30
0.0
 11
190.35888
 21
185.897573
 31
0.0
  0
ARC
  5
339
100
AcDbEntity
  8
0
100
AcDbCircle
 10
190.12965
 20
186.091103
 30
0.0
 40
0.3
100
AcDbArc
 50
319.909786
 51
49.996276
  0
LINE
  5
33A
100
AcDbEntity
  8
0
100
AcDbLine
 10
190.092906
 20
186.513582
 30
0.0
 11
190.322501
 21
186.320904
 31
0.0
  0
LINE
  5
33B
100
AcDbEntity
  8
0
100
AcDbLine
 10
190.359159
 20
185.897905
 30
0.0
 11
190.138141
 21
185.635346
 31
0.0
  0
ARC
  5
33C
100
AcDbEntity
  8
0
100
AcDbCircle
 10
190.938907
 20
192.897583
 30
0.0
 40
0.2
100
AcDbArc
 50
270.0
 51
0.0
  0
ARC
  5
33D
100
AcDbEntity
  8
0
100
AcDbCircle
 10
190.938907
 20
185.697573
 30
0.0
 40
0.2
100
AcDbArc
 50
0.0
 51
90.0
  0
ARC
  5
33E
100
AcDbEntity
  8
0
100
AcDbCircle
 10
189.640907
 20
192.647573
 30
0.0
 40
0.599648
100
AcDbArc
 50
45.0
 51
92.804841
  0
LINE
  5
33F
100
AcDbEntity
  8
0
100
AcDbLine
 10
189.688907
 20
192.097573
 30
0.0
 11
190.308907
 21
192.097573
 31
0.0
  0
LINE
  5
340
100
AcDbEntity
  8
0
100
AcDbLine
 10
190.308907
 20
192.397573
 30
0.0
 11
189.688907
 21
192.397573
 31
0.0
  0
LINE
  5
341
100
AcDbEntity
  8
0
100
AcDbLine
 10
189.208907
 20
187.317523
 30
0.0
 11
190.308907
 21
188.417533
 31
0.0
  0
ARC
  5
342
100
AcDbEntity
  8
0
100
AcDbCircle
 10
189.760183
 20
185.962425
 30
0.0
 40
0.2
100
AcDbArc
 50
182.37537
 51
319.992225
  0
LINE
  5
343
100
AcDbEntity
  8
0
100
AcDbLine
 10
189.508939
 20
187.193615
 30
0.0
 11
190.608907
 21
188.293573
 31
0.0
  0
ARC
  5
344
100
AcDbEntity
  8
0
100
AcDbCircle
 10
189.538907
 20
184.797563
 30
0.0
 40
1.6
100
AcDbArc
 50
270.0
 51
0.0
  0
ARC
  5
345
100
AcDbEntity
  8
0
100
AcDbCircle
 10
189.755625
 20
185.957343
 30
0.0
 40
0.5
100
AcDbArc
 50
184.98705
 51
319.909786
  0
ARC
  5
346
100
AcDbEntity
  8
0
100
AcDbCircle
 10
178.738907
 20
195.097563
 30
0.0
 40
1.6
100
AcDbArc
 50
90.0
 51
180.0
  0
LINE
  5
347
100
AcDbEntity
  8
0
100
AcDbLine
 10
175.188907
 20
186.447563
 30
0.0
 11
177.138907
 21
186.447563
 31
0.0
  0
LINE
  5
348
100
AcDbEntity
  8
0
100
AcDbLine
 10
177.668907
 20
188.293573
 30
0.0
 11
177.668907
 21
192.097573
 31
0.0
  0
LINE
  5
349
100
AcDbEntity
  8
0
100
AcDbLine
 10
177.968907
 20
188.417533
 30
0.0
 11
177.968907
 21
192.097573
 31
0.0
  0
ARC
  5
34A
100
AcDbEntity
  8
0
100
AcDbCircle
 10
177.338907
 20
192.897583
 30
0.0
 40
0.2
100
AcDbArc
 50
180.0
 51
270.0
  0
LINE
  5
34B
100
AcDbEntity
  8
0
100
AcDbLine
 10
177.338907
 20
192.697583
 30
0.0
 11
177.838887
 21
192.697583
 31
0.0
  0
ARC
  5
34C
100
AcDbEntity
  8
0
100
AcDbCircle
 10
177.968907
 20
192.097573
 30
0.0
 40
0.3
100
AcDbArc
 50
90.0
 51
180.0
  0
ARC
  5
34D
100
AcDbEntity
  8
0
100
AcDbCircle
 10
177.338907
 20
185.697573
 30
0.0
 40
0.2
100
AcDbArc
 50
90.0
 51
180.0
  0
LINE
  5
34E
100
AcDbEntity
  8
0
100
AcDbLine
 10
178.184908
 20
186.513582
 30
0.0
 11
177.955313
 21
186.320904
 31
0.0
  0
LINE
  5
34F
100
AcDbEntity
  8
0
100
AcDbLine
 10
177.918654
 20
185.897905
 30
0.0
 11
178.139673
 21
185.635346
 31
0.0
  0
ARC
  5
350
100
AcDbEntity
  8
0
100
AcDbCircle
 10
178.148164
 20
186.091103
 30
0.0
 40
0.3
100
AcDbArc
 50
130.003724
 51
220.090214
  0
LINE
  5
351
100
AcDbEntity
  8
0
100
AcDbLine
 10
177.338907
 20
185.897573
 30
0.0
 11
177.918934
 21
185.897573
 31
0.0
  0
LINE
  5
352
100
AcDbEntity
  8
0
100
AcDbLine
 10
179.020296
 20
185.913878
 30
0.0
 11
179.098924
 21
186.81495
 31
0.0
  0
LINE
  5
353
100
AcDbEntity
  8
0
100
AcDbLine
 10
178.920897
 20
193.050453
 30
0.0
 11
179.291975
 21
192.029267
 31
0.0
  0
ARC
  5
354
100
AcDbEntity
  8
0
100
AcDbCircle
 10
179.47995
 20
192.097573
 30
0.0
 40
0.2
100
AcDbArc
 50
199.970128
 51
270.0
  0
ARC
  5
355
100
AcDbEntity
  8
0
100
AcDbCircle
 10
179.298167
 20
186.797563
 30
0.0
 40
0.2
100
AcDbArc
 50
90.0
 51
175.01295
  0
LINE
  5
356
100
AcDbEntity
  8
0
100
AcDbLine
 10
179.068907
 20
186.470573
 30
0.0
 11
179.068907
 21
187.317523
 31
0.0
  0
ARC
  5
357
100
AcDbEntity
  8
0
100
AcDbCircle
 10
178.636907
 20
192.647573
 30
0.0
 40
0.599648
100
AcDbArc
 50
87.195159
 51
135.0
  0
LINE
  5
358
100
AcDbEntity
  8
0
100
AcDbLine
 10
178.588907
 20
192.397573
 30
0.0
 11
178.588907
 21
192.097573
 31
0.0
  0
ARC
  5
359
100
AcDbEntity
  8
0
100
AcDbCircle
 10
178.638907
 20
192.947583
 30
0.0
 40
0.300167
100
AcDbArc
 50
19.970128
 51
94.462605
  0
LINE
  5
35A
100
AcDbEntity
  8
0
100
AcDbLine
 10
178.717459
 20
185.954135
 30
0.0
 11
178.768875
 21
187.193615
 31
0.0
  0
ARC
  5
35B
100
AcDbEntity
  8
0
100
AcDbCircle
 10
178.517631
 20
185.962425
 30
0.0
 40
0.2
100
AcDbArc
 50
220.007775
 51
357.62463
  0
LINE
  5
35C
100
AcDbEntity
  8
0
100
AcDbLine
 10
179.068907
 20
187.317523
 30
0.0
 11
177.968907
 21
188.417533
 31
0.0
  0
LINE
  5
35D
100
AcDbEntity
  8
0
100
AcDbLine
 10
177.968907
 20
192.397573
 30
0.0
 11
178.588907
 21
192.397573
 31
0.0
  0
LINE
  5
35E
100
AcDbEntity
  8
0
100
AcDbLine
 10
178.588907
 20
192.097573
 30
0.0
 11
177.968907
 21
192.097573
 31
0.0
  0
LINE
  5
35F
100
AcDbEntity
  8
0
100
AcDbLine
 10
177.838887
 20
192.697583
 30
0.0
 11
178.212917
 21
193.071613
 31
0.0
  0
LINE
  5
360
100
AcDbEntity
  8
0
100
AcDbLine
 10
178.148909
 20
186.090635
 30
0.0
 11
178.364439
 21
185.833846
 31
0.0
  0
LINE
  5
361
100
AcDbEntity
  8
0
100
AcDbLine
 10
178.377881
 20
186.28361
 30
0.0
 11
178.148909
 21
186.090635
 31
0.0
  0
LINE
  5
362
100
AcDbEntity
  8
0
100
AcDbLine
 10
178.184908
 20
186.513582
 30
0.0
 11
178.377881
 21
186.28361
 31
0.0
  0
LINE
  5
363
100
AcDbEntity
  8
0
100
AcDbLine
 10
178.768875
 20
187.193615
 30
0.0
 11
177.668907
 21
188.293573
 31
0.0
  0
LINE
  5
364
100
AcDbEntity
  8
0
100
AcDbLine
 10
175.188907
 20
181.947563
 30
0.0
 11
177.138907
 21
181.947563
 31
0.0
  0
ARC
  5
365
100
AcDbEntity
  8
0
100
AcDbCircle
 10
178.738907
 20
184.797563
 30
0.0
 40
1.6
100
AcDbArc
 50
180.0
 51
270.0
  0
LINE
  5
366
100
AcDbEntity
  8
0
100
AcDbLine
 10
175.188907
 20
183.197563
 30
0.0
 11
173.188907
 21
183.197563
 31
0.0
  0
ARC
  5
367
100
AcDbEntity
  8
0
100
AcDbCircle
 10
178.522189
 20
185.957343
 30
0.0
 40
0.5
100
AcDbArc
 50
220.090214
 51
355.01295
  0
LINE
  5
368
100
AcDbEntity
  8
0
100
AcDbLine
 10
179.47995
 20
191.897573
 30
0.0
 11
181.01666
 21
191.897573
 31
0.0
  0
LINE
  5
369
100
AcDbEntity
  8
0
100
AcDbLine
 10
179.298167
 20
186.997563
 30
0.0
 11
181.016652
 21
186.997563
 31
0.0
  0
LINE
  5
36A
100
AcDbEntity
  8
0
100
AcDbLine
 10
189.538907
 20
196.697563
 30
0.0
 11
178.738907
 21
196.697563
 31
0.0
  0
CIRCLE
  5
36B
100
AcDbEntity
  8
0
100
AcDbCircle
 10
184.138907
 20
189.447563
 30
0.0
 40
3.96875
  0
LINE
  5
36C
100
AcDbEntity
  8
0
100
AcDbLine
 10
189.538907
 20
183.197563
 30
0.0
 11
177.138907
 21
183.197563
 31
0.0
  0
LINE
  5
36D
100
AcDbEntity
  8
0
100
AcDbLine
 10
193.188907
 20
179.697563
 30
0.0
 11
173.188907
 21
179.697563
 31
0.0
  0
LINE
  5
36E
100
AcDbEntity
  8
0
100
AcDbLine
 10
198.088907
 20
169.397563
 30
0.0
 11
193.188907
 21
169.397563
 31
0.0
  0
LINE
  5
36F
100
AcDbEntity
  8
0
100
AcDbLine
 10
198.088907
 20
175.997563
 30
0.0
 11
193.188907
 21
175.997563
 31
0.0
  0
LINE
  5
370
100
AcDbEntity
  8
0
100
AcDbLine
 10
193.188907
 20
166.197563
 30
0.0
 11
193.188907
 21
179.697563
 31
0.0
  0
LINE
  5
371
100
AcDbEntity
  8
0
100
AcDbLine
 10
198.088907
 20
167.197563
 30
0.0
 11
198.088907
 21
178.197563
 31
0.0
  0
LINE
  5
372
100
AcDbEntity
  8
CENTER
  6
CENTER
 62
     1
100
AcDbLine
 10
242.895646
 20
206.697563
 30
0.0
 11
168.410389
 21
206.697563
 31
0.0
  0
LINE
  5
373
100
AcDbEntity
  8
CENTER
  6
CENTER
 62
     1
100
AcDbLine
 10
206.188907
 20
172.697563
 30
0.0
 11
191.188907
 21
172.697563
 31
0.0
  0
LINE
  5
374
100
AcDbEntity
  8
0
100
AcDbLine
 10
204.188907
 20
167.197563
 30
0.0
 11
198.088907
 21
167.197563
 31
0.0
  0
LINE
  5
375
100
AcDbEntity
  8
0
100
AcDbLine
 10
204.188907
 20
166.197563
 30
0.0
 11
193.188907
 21
166.197563
 31
0.0
  0
LINE
  5
376
100
AcDbEntity
  8
0
100
AcDbLine
 10
204.188907
 20
178.197563
 30
0.0
 11
198.088907
 21
178.197563
 31
0.0
  0
LINE
  5
377
100
AcDbEntity
  8
0
100
AcDbLine
 10
220.238907
 20
186.697563
 30
0.0
 11
191.138907
 21
186.697563
 31
0.0
  0
LINE
  5
37A
100
AcDbEntity
  8
0
100
AcDbLine
 10
191.138907
 20
184.797563
 30
0.0
 11
191.138907
 21
228.597563
 31
0.0
  0
LINE
  5
37B
100
AcDbEntity
  8
0
100
AcDbLine
 10
175.188907
 20
231.447563
 30
0.0
 11
175.188907
 21
181.947563
 31
0.0
  0
LINE
  5
37C
100
AcDbEntity
  8
0
100
AcDbLine
 10
177.138907
 20
231.447563
 30
0.0
 11
177.138907
 21
181.947563
 31
0.0
  0
LINE
  5
37D
100
AcDbEntity
  8
0
100
AcDbLine
 10
236.188907
 20
231.447563
 30
0.0
 11
236.188907
 21
181.947563
 31
0.0
  0
LINE
  5
37E
100
AcDbEntity
  8
0
100
AcDbLine
 10
234.238907
 20
231.447563
 30
0.0
 11
234.238907
 21
181.947563
 31
0.0
  0
LINE
  5
37F
100
AcDbEntity
  8
0
100
AcDbLine
 10
220.238907
 20
184.797563
 30
0.0
 11
220.238907
 21
228.597563
 31
0.0
  0
LINE
  5
380
100
AcDbEntity
  8
0
100
AcDbLine
 10
238.188907
 20
179.697563
 30
0.0
 11
238.188907
 21
233.697563
 31
0.0
  0
LINE
  5
381
100
AcDbEntity
  8
0
100
AcDbLine
 10
173.188907
 20
179.697563
 30
0.0
 11
173.188907
 21
233.697563
 31
0.0
  0
ENDSEC
  0
SECTION
  2
OBJECTS
  0
DICTIONARY
  5
1EB
100
AcDbDictionary
  3
ACAD_GROUP
350
1EC
  3
ACAD_LAYOUT
350
1F8
  3
ACAD_MLINESTYLE
350
1F5
  3
ACAD_PLOTSETTINGS
350
1F7
  3
ACAD_PLOTSTYLENAME
350
1ED
  3
ACDBHEADERROUNDTRIPXREC
350
38E
  3
AcDbVariableDictionary
350
3B7
  0
DICTIONARY
  5
38C
100
AcDbDictionary
280
     1
  3
ACAD_XREC_ROUNDTRIP
360
38D
  0
DICTIONARY
  5
388
100
AcDbDictionary
280
     1
  3
ACAD_XREC_ROUNDTRIP
360
389
  0
DICTIONARY
  5
38A
100
AcDbDictionary
280
     1
  3
ACAD_XREC_ROUNDTRIP
360
38B
  0
DICTIONARY
  5
3B5
100
AcDbDictionary
280
     1
  3
ACAD_XREC_ROUNDTRIP
360
3B6
  0
DICTIONARY
  5
384
100
AcDbDictionary
280
     1
  3
ACAD_LAYOUTSELFREF
360
3B4
  3
ACAD_XREC_ROUNDTRIP
360
385
  0
DICTIONARY
  5
386
100
AcDbDictionary
280
     1
  3
ACAD_LAYOUTSELFREF
360
3B3
  3
ACAD_XREC_ROUNDTRIP
360
387
  0
DICTIONARY
  5
1EC
102
{ACAD_REACTORS
330
1EB
102
}
100
AcDbDictionary
  0
DICTIONARY
  5
1F8
102
{ACAD_XDICTIONARY
360
3B1
102
}
102
{ACAD_REACTORS
330
1EB
102
}
100
AcDbDictionary
  3
MODEL
350
200
  3
ﾚｲｱｳﾄ1
350
1FC
  0
DICTIONARY
  5
1F5
102
{ACAD_XDICTIONARY
360
3AF
102
}
102
{ACAD_REACTORS
330
1EB
102
}
100
AcDbDictionary
  3
STANDARD
350
1F6
  0
DICTIONARY
  5
1F7
102
{ACAD_REACTORS
330
1EB
102
}
100
AcDbDictionary
  0
ACAD_PROXY_OBJECT
  5
1ED
102
{ACAD_REACTORS
330
1EB
102
}
100
AcDbProxyObject
 90
      499
 91
      500
 93
       86
310
405010041939BDC9B585B0
350
1EE
340
1EE
 94
        0
  0
DICTIONARY
  5
38E
102
{ACAD_REACTORS
330
1EB
102
}
100
AcDbDictionary
  3
CEPSNTYPE
350
398
  3
DIMSTYLEDATA
350
39C
  3
FINGERPRINTGUID
350
399
  3
HYPERLINKBASE
350
391
  3
INSUNITS
350
397
  3
LAYOUTDICT
350
393
  3
LWETCUNION
350
396
  3
PLOTSETDICT
350
394
  3
PLOTSTYLNAMDICT
350
395
  3
PSVPSCALE
350
39B
  3
PUCSBASE
350
39F
  3
PUCSORGBACK
350
3A5
  3
PUCSORGBOTTOM
350
3A1
  3
PUCSORGFRONT
350
3A4
  3
PUCSORGLEFT
350
3A2
  3
PUCSORGRIGHT
350
3A3
  3
PUCSORGTOP
350
3A0
  3
PUCSORTHOREF
350
39D
  3
PUCSORTHOVIEW
350
39E
  3
STYLESHEET
350
392
  3
TSTACKALIGN
350
38F
  3
TSTACKSIZE
350
390
  3
UCSBASE
350
3A8
  3
UCSORGBACK
350
3AE
  3
UCSORGBOTTOM
350
3AA
  3
UCSORGFRONT
350
3AD
  3
UCSORGLEFT
350
3AB
  3
UCSORGRIGHT
350
3AC
  3
UCSORGTOP
350
3A9
  3
UCSORTHOREF
350
3A6
  3
UCSORTHOVIEW
350
3A7
  3
VERSIONGUID
350
39A
  0
DICTIONARY
  5
3B7
102
{ACAD_REACTORS
330
1EB
102
}
100
AcDbDictionary
  3
DIMASSOC
350
3B8
  0
XRECORD
  5
38D
102
{ACAD_REACTORS
330
38C
102
}
100
AcDbXrecord
102
EXTNAMES
  1
*ACTIVE
  2
*Active
102
UCS
 74
     0
 71
     0
 10
0.0
 20
0.0
 30
0.0
 10
1.0
 20
0.0
 30
0.0
 10
0.0
 20
1.0
 30
0.0
146
0.0
 79
     0
102
VIEW
281
     0
  0
XRECORD
  5
389
102
{ACAD_REACTORS
330
388
102
}
100
AcDbXrecord
102
EXTNAMES
  1
BYBLOCK
  2
ByBlock
  0
XRECORD
  5
38B
102
{ACAD_REACTORS
330
38A
102
}
100
AcDbXrecord
102
EXTNAMES
  1
BYLAYER
  2
ByLayer
  0
XRECORD
  5
3B6
102
{ACAD_REACTORS
330
3B5
102
}
100
AcDbXrecord
102
ACADR14ROUNDTRIP
1000
DSTYLE
1002
{
1070
   279
 70
     2
1002
}
  0
XRECORD
  5
3B4
102
{ACAD_REACTORS
330
384
102
}
100
AcDbXrecord
340
1FD
  0
XRECORD
  5
385
102
{ACAD_REACTORS
330
384
102
}
100
AcDbXrecord
102
EXTNAMES
  1
*MODEL_SPACE
  2
*Model_Space
  0
XRECORD
  5
3B3
102
{ACAD_REACTORS
330
386
102
}
100
AcDbXrecord
340
1F9
  0
XRECORD
  5
387
102
{ACAD_REACTORS
330
386
102
}
100
AcDbXrecord
102
EXTNAMES
  1
*PAPER_SPACE
  2
*Paper_Space
  0
DICTIONARY
  5
3B1
100
AcDbDictionary
280
     1
  3
ACAD_XREC_ROUNDTRIP
360
3B2
  0
ACAD_PROXY_OBJECT
  5
200
102
{ACAD_REACTORS
330
1F8
102
}
100
AcDbProxyObject
 90
      499
 91
      502
 93
      836
310
932433A5C50524F4752414D2046494C45535C4D4454365C706C6F74746572735C526F6C616E64204458592D313235302E7063332C01AAAAAAAAA5A69054D6F64656C901A800000000000000000000000000000000000000000000A1000000000000008902A6A6AAAA4
330
1FD
330
0
340
0
340
0
 94
        0
  0
ACAD_PROXY_OBJECT
  5
1FC
102
{ACAD_REACTORS
330
1F8
102
}
100
AcDbProxyObject
 90
      499
 91
      502
 93
     1244
310
932433A5C50524F4752414D2046494C45535C4D4454365C706C6F74746572735C526F6C616E64204458592D313235302E7063332C00AAAAAA416AA59106906DAB2B1B3C431406A800000000000000000000000000000000000000000101E900000000000241C902A6A6A10232D5E076BC5510408CB5781DAF154410232D5E0
310
76BC5510408CB5781DAF15C410232D5E076BC5710408CB5781DAF15C40
330
1F9
330
0
340
0
340
0
 94
        0
  0
DICTIONARY
  5
3AF
100
AcDbDictionary
280
     1
  3
ACAD_XREC_ROUNDTRIP
360
3B0
  0
MLINESTYLE
  5
1F6
102
{ACAD_REACTORS
330
1F5
102
}
100
AcDbMlineStyle
  2
STANDARD
 70
     0
  3

 62
   256
 51
90.0
 52
90.0
 71
     2
 49
0.5
 62
   256
  6
BYLAYER
 49
-0.5
 62
   256
  6
BYLAYER
  0
ACAD_PROXY_OBJECT
  5
1EE
102
{ACAD_REACTORS
330
1ED
102
}
100
AcDbProxyObject
 90
      499
 91
      501
 93
        0
 94
        0
  0
XRECORD
  5
398
102
{ACAD_REACTORS
330
38E
102
}
100
AcDbXrecord
 90
        0
  0
XRECORD
  5
39C
102
{ACAD_REACTORS
330
38E
102
}
100
AcDbXrecord
1000
DSTYLE
1002
{
1070
   341
340
213
1070
   343
340
213
1070
   344
340
20D
1002
}
  0
XRECORD
  5
399
102
{ACAD_REACTORS
330
38E
102
}
100
AcDbXrecord
  1
{EE81B9CA-49F0-4F5B-956E-CAADC4CA7348}
  0
XRECORD
  5
391
102
{ACAD_REACTORS
330
38E
102
}
100
AcDbXrecord
  1

  0
XRECORD
  5
397
102
{ACAD_REACTORS
330
38E
102
}
100
AcDbXrecord
 90
        0
  0
XRECORD
  5
393
102
{ACAD_REACTORS
330
38E
102
}
100
AcDbXrecord
340
1F8
  0
XRECORD
  5
396
102
{ACAD_REACTORS
330
38E
102
}
100
AcDbXrecord
 90
    10781
  0
XRECORD
  5
394
102
{ACAD_REACTORS
330
38E
102
}
100
AcDbXrecord
340
1F7
  0
XRECORD
  5
395
102
{ACAD_REACTORS
330
38E
102
}
100
AcDbXrecord
340
1ED
  0
XRECORD
  5
39B
102
{ACAD_REACTORS
330
38E
102
}
100
AcDbXrecord
 40
0.0
  0
XRECORD
  5
39F
102
{ACAD_REACTORS
330
38E
102
}
100
AcDbXrecord
340
0
  0
XRECORD
  5
3A5
102
{ACAD_REACTORS
330
38E
102
}
100
AcDbXrecord
 10
0.0
 20
0.0
 30
0.0
  0
XRECORD
  5
3A1
102
{ACAD_REACTORS
330
38E
102
}
100
AcDbXrecord
 10
0.0
 20
0.0
 30
0.0
  0
XRECORD
  5
3A4
102
{ACAD_REACTORS
330
38E
102
}
100
AcDbXrecord
 10
0.0
 20
0.0
 30
0.0
  0
XRECORD
  5
3A2
102
{ACAD_REACTORS
330
38E
102
}
100
AcDbXrecord
 10
0.0
 20
0.0
 30
0.0
  0
XRECORD
  5
3A3
102
{ACAD_REACTORS
330
38E
102
}
100
AcDbXrecord
 10
0.0
 20
0.0
 30
0.0
  0
XRECORD
  5
3A0
102
{ACAD_REACTORS
330
38E
102
}
100
AcDbXrecord
 10
0.0
 20
0.0
 30
0.0
  0
XRECORD
  5
39D
102
{ACAD_REACTORS
330
38E
102
}
100
AcDbXrecord
340
0
  0
XRECORD
  5
39E
102
{ACAD_REACTORS
330
38E
102
}
100
AcDbXrecord
 70
     0
  0
XRECORD
  5
392
102
{ACAD_REACTORS
330
38E
102
}
100
AcDbXrecord
  1

  0
XRECORD
  5
38F
102
{ACAD_REACTORS
330
38E
102
}
100
AcDbXrecord
 90
        1
  0
XRECORD
  5
390
102
{ACAD_REACTORS
330
38E
102
}
100
AcDbXrecord
 90
       70
  0
XRECORD
  5
3A8
102
{ACAD_REACTORS
330
38E
102
}
100
AcDbXrecord
340
0
  0
XRECORD
  5
3AE
102
{ACAD_REACTORS
330
38E
102
}
100
AcDbXrecord
 10
0.0
 20
0.0
 30
0.0
  0
XRECORD
  5
3AA
102
{ACAD_REACTORS
330
38E
102
}
100
AcDbXrecord
 10
0.0
 20
0.0
 30
0.0
  0
XRECORD
  5
3AD
102
{ACAD_REACTORS
330
38E
102
}
100
AcDbXrecord
 10
0.0
 20
0.0
 30
0.0
  0
XRECORD
  5
3AB
102
{ACAD_REACTORS
330
38E
102
}
100
AcDbXrecord
 10
0.0
 20
0.0
 30
0.0
  0
XRECORD
  5
3AC
102
{ACAD_REACTORS
330
38E
102
}
100
AcDbXrecord
 10
0.0
 20
0.0
 30
0.0
  0
XRECORD
  5
3A9
102
{ACAD_REACTORS
330
38E
102
}
100
AcDbXrecord
 10
0.0
 20
0.0
 30
0.0
  0
XRECORD
  5
3A6
102
{ACAD_REACTORS
330
38E
102
}
100
AcDbXrecord
340
0
  0
XRECORD
  5
3A7
102
{ACAD_REACTORS
330
38E
102
}
100
AcDbXrecord
 70
     0
  0
XRECORD
  5
39A
102
{ACAD_REACTORS
330
38E
102
}
100
AcDbXrecord
  1
{EF1DB138-418B-4A8D-8E57-5925076BB65B}
  0
DICTIONARYVAR
  5
3B8
102
{ACAD_REACTORS
330
3B7
102
}
100
DictionaryVariables
280
     0
  1
1
  0
XRECORD
  5
3B2
102
{ACAD_REACTORS
330
3B1
102
}
100
AcDbXrecord
102
EXTNAMES
  1
MODEL
  2
Model
  0
XRECORD
  5
3B0
102
{ACAD_REACTORS
330
3AF
102
}
100
AcDbXrecord
102
EXTNAMES
  1
STANDARD
  2
Standard
  0
ENDSEC
  0
EOF
