  0
SECTION
  2
HEADER
  9
$ACADVER
  1
AC1014
  9
$ACADMAINTVER
 70
     0
  9
$DWGCODEPAGE
  3
ANSI_932
  9
$INSBASE
 10
0.0
 20
0.0
 30
0.0
  9
$EXTMIN
 10
67.103987
 20
65.513519
 30
0.0
  9
$EXTMAX
 10
247.24474
 20
140.207511
 30
0.0
  9
$LIMMIN
 10
0.0
 20
0.0
  9
$LIMMAX
 10
297.0
 20
210.0
  9
$ORTHOMODE
 70
     0
  9
$REGENMODE
 70
     1
  9
$FILLMODE
 70
     1
  9
$QTEXTMODE
 70
     0
  9
$MIRRTEXT
 70
     1
  9
$DRAGMODE
 70
     2
  9
$LTSCALE
 40
0.25
  9
$OSMODE
 70
    37
  9
$ATTMODE
 70
     1
  9
$TEXTSIZE
 40
4.0
  9
$TRACEWID
 40
1.0
  9
$TEXTSTYLE
  7
STANDARD
  9
$CLAYER
  8
0
  9
$CELTYPE
  6
BYLAYER
  9
$CECOLOR
 62
   256
  9
$CELTSCALE
 40
1.0
  9
$DELOBJ
 70
     1
  9
$DISPSILH
 70
     0
  9
$DIMSCALE
 40
1.0
  9
$DIMASZ
 40
3.0
  9
$DIMEXO
 40
1.0
  9
$DIMDLI
 40
10.0
  9
$DIMRND
 40
0.0
  9
$DIMDLE
 40
0.0
  9
$DIMEXE
 40
1.0
  9
$DIMTP
 40
0.0
  9
$DIMTM
 40
0.0
  9
$DIMTXT
 40
3.2
  9
$DIMCEN
 40
0.0
  9
$DIMTSZ
 40
0.0
  9
$DIMTOL
 70
     0
  9
$DIMLIM
 70
     0
  9
$DIMTIH
 70
     0
  9
$DIMTOH
 70
     0
  9
$DIMSE1
 70
     0
  9
$DIMSE2
 70
     0
  9
$DIMTAD
 70
     3
  9
$DIMZIN
 70
     8
  9
$DIMBLK
  1
ARROW
  9
$DIMASO
 70
     1
  9
$DIMSHO
 70
     1
  9
$DIMPOST
  1

  9
$DIMAPOST
  1

  9
$DIMALT
 70
     0
  9
$DIMALTD
 70
     2
  9
$DIMALTF
 40
0.04
  9
$DIMLFAC
 40
1.0
  9
$DIMTOFL
 70
     1
  9
$DIMTVP
 40
1.0
  9
$DIMTIX
 70
     0
  9
$DIMSOXD
 70
     0
  9
$DIMSAH
 70
     0
  9
$DIMBLK1
  1

  9
$DIMBLK2
  1

  9
$DIMSTYLE
  2
AA1
  9
$DIMCLRD
 70
     0
  9
$DIMCLRE
 70
     0
  9
$DIMCLRT
 70
     0
  9
$DIMTFAC
 40
0.6
  9
$DIMGAP
 40
1.0
  9
$DIMJUST
 70
     0
  9
$DIMSD1
 70
     0
  9
$DIMSD2
 70
     0
  9
$DIMTOLJ
 70
     1
  9
$DIMTZIN
 70
     0
  9
$DIMALTZ
 70
     0
  9
$DIMALTTZ
 70
     0
  9
$DIMFIT
 70
     3
  9
$DIMUPT
 70
     0
  9
$DIMUNIT
 70
     2
  9
$DIMDEC
 70
     4
  9
$DIMTDEC
 70
     4
  9
$DIMALTU
 70
     2
  9
$DIMALTTD
 70
     2
  9
$DIMTXSTY
  7
STANDARD
  9
$DIMAUNIT
 70
     0
  9
$LUNITS
 70
     2
  9
$LUPREC
 70
     2
  9
$SKETCHINC
 40
1.0
  9
$FILLETRAD
 40
10.0
  9
$AUNITS
 70
     0
  9
$AUPREC
 70
     0
  9
$MENU
  1
acad
  9
$ELEVATION
 40
0.0
  9
$PELEVATION
 40
0.0
  9
$THICKNESS
 40
0.0
  9
$LIMCHECK
 70
     0
  9
$BLIPMODE
 70
     0
  9
$CHAMFERA
 40
0.0
  9
$CHAMFERB
 40
0.0
  9
$CHAMFERC
 40
0.0
  9
$CHAMFERD
 40
0.0
  9
$SKPOLY
 70
     0
  9
$TDCREATE
 40
2451466.578235648
  9
$TDUPDATE
 40
2452821.802521759
  9
$TDINDWG
 40
0.0002178356
  9
$TDUSRTIMER
 40
0.0002176505
  9
$USRTIMER
 70
     1
  9
$ANGBASE
 50
0.0
  9
$ANGDIR
 70
     0
  9
$PDMODE
 70
     1
  9
$PDSIZE
 40
0.0
  9
$PLINEWID
 40
0.0
  9
$COORDS
 70
     1
  9
$SPLFRAME
 70
     0
  9
$SPLINETYPE
 70
     6
  9
$SPLINESEGS
 70
     8
  9
$ATTDIA
 70
     0
  9
$ATTREQ
 70
     1
  9
$HANDLING
 70
     1
  9
$HANDSEED
  5
3B7
  9
$SURFTAB1
 70
     6
  9
$SURFTAB2
 70
     6
  9
$SURFTYPE
 70
     6
  9
$SURFU
 70
     6
  9
$SURFV
 70
     6
  9
$UCSNAME
  2

  9
$UCSORG
 10
0.0
 20
0.0
 30
0.0
  9
$UCSXDIR
 10
1.0
 20
0.0
 30
0.0
  9
$UCSYDIR
 10
0.0
 20
1.0
 30
0.0
  9
$PUCSNAME
  2

  9
$PUCSORG
 10
0.0
 20
0.0
 30
0.0
  9
$PUCSXDIR
 10
1.0
 20
0.0
 30
0.0
  9
$PUCSYDIR
 10
0.0
 20
1.0
 30
0.0
  9
$USERI1
 70
     0
  9
$USERI2
 70
     0
  9
$USERI3
 70
     0
  9
$USERI4
 70
     0
  9
$USERI5
 70
     0
  9
$USERR1
 40
0.0
  9
$USERR2
 40
0.0
  9
$USERR3
 40
0.0
  9
$USERR4
 40
0.0
  9
$USERR5
 40
0.0
  9
$WORLDVIEW
 70
     1
  9
$SHADEDGE
 70
     3
  9
$SHADEDIF
 70
    70
  9
$TILEMODE
 70
     1
  9
$MAXACTVP
 70
    16
  9
$PINSBASE
 10
0.0
 20
0.0
 30
0.0
  9
$PLIMCHECK
 70
     0
  9
$PEXTMIN
 10
1.000000E+20
 20
1.000000E+20
 30
1.000000E+20
  9
$PEXTMAX
 10
-1.000000E+20
 20
-1.000000E+20
 30
-1.000000E+20
  9
$PLIMMIN
 10
0.0
 20
0.0
  9
$PLIMMAX
 10
420.0
 20
297.0
  9
$UNITMODE
 70
     0
  9
$VISRETAIN
 70
     0
  9
$PLINEGEN
 70
     0
  9
$PSLTSCALE
 70
     0
  9
$TREEDEPTH
 70
  3020
  9
$PICKSTYLE
 70
     1
  9
$CMLSTYLE
  2
STANDARD
  9
$CMLJUST
 70
     0
  9
$CMLSCALE
 40
1.0
  9
$PROXYGRAPHICS
 70
     1
  9
$MEASUREMENT
 70
     0
  0
ENDSEC
  0
SECTION
  2
CLASSES
  0
CLASS
  1
ACDBDICTIONARYWDFLT
  2
AcDbDictionaryWithDefault
  3
AutoCAD 2000
 90
        0
280
     0
281
     0
  0
CLASS
  1
ACDBPLACEHOLDER
  2
AcDbPlaceHolder
  3
AutoCAD 2000
 90
        0
280
     0
281
     0
  0
CLASS
  1
LAYOUT
  2
AcDbLayout
  3
AutoCAD 2000
 90
        0
280
     0
281
     0
  0
CLASS
  1
DICTIONARYVAR
  2
AcDbDictionaryVar
  3
"AutoCAD"
 90
        0
280
     0
281
     0
  0
CLASS
  1
LONG_TRANSACTION
  2
AcDbLongTransaction
  3
AutoCAD 2000
 90
        0
280
     0
281
     0
  0
CLASS
  1
LWPOLYLINE
  2
AcDbPolyline
  3
"AutoCAD"
 90
        0
280
     0
281
     1
  0
CLASS
  1
HATCH
  2
AcDbHatch
  3
"ACAD_SEDONA"
 90
        0
280
     0
281
     1
  0
CLASS
  1
XRECORD
  2
AcDbXrecord
  3
"<Built In>"
 90
        0
280
     0
281
     0
  0
ENDSEC
  0
SECTION
  2
TABLES
  0
TABLE
  2
VPORT
  5
1E2
100
AcDbSymbolTable
 70
     1
  0
VPORT
  5
37E
102
{ACAD_XDICTIONARY
360
387
102
}
100
AcDbSymbolTableRecord
100
AcDbViewportTableRecord
  2
*ACTIVE
 70
     0
 10
0.0
 20
0.0
 11
1.0
 21
1.0
 12
128.626581
 22
79.999465
 13
0.0
 23
0.0
 14
10.0
 24
10.0
 15
0.0
 25
0.0
 16
0.0
 26
0.0
 36
1.0
 17
0.0
 27
0.0
 37
0.0
 40
151.784469
 41
1.570997
 42
50.0
 43
0.0
 44
0.0
 50
0.0
 51
0.0
 71
     0
 72
   100
 73
     1
 74
     0
 75
     0
 76
     0
 77
     0
 78
     1
  0
ENDTAB
  0
TABLE
  2
LTYPE
  5
1DF
100
AcDbSymbolTable
 70
     2
  0
LTYPE
  5
1ED
102
{ACAD_XDICTIONARY
360
383
102
}
100
AcDbSymbolTableRecord
100
AcDbLinetypeTableRecord
  2
BYBLOCK
 70
     0
  3

 72
    65
 73
     0
 40
0.0
  0
LTYPE
  5
1EE
102
{ACAD_XDICTIONARY
360
385
102
}
100
AcDbSymbolTableRecord
100
AcDbLinetypeTableRecord
  2
BYLAYER
 70
     0
  3

 72
    65
 73
     0
 40
0.0
  0
LTYPE
  5
1EF
100
AcDbSymbolTableRecord
100
AcDbLinetypeTableRecord
  2
CONTINUOUS
 70
     0
  3
Solid line
 72
    65
 73
     0
 40
0.0
  0
LTYPE
  5
1FD
100
AcDbSymbolTableRecord
100
AcDbLinetypeTableRecord
  2
CENTER
 70
     0
  3
____ _ ____ _ ____ _ ____ _ ____ _ ____ _ ____ 
 72
    65
 73
     4
 40
50.8
 49
31.75
 74
     0
 49
-6.35
 74
     0
 49
6.35
 74
     0
 49
-6.35
 74
     0
  0
ENDTAB
  0
TABLE
  2
LAYER
  5
1DC
100
AcDbSymbolTable
 70
     3
  0
LAYER
  5
1EA
100
AcDbSymbolTableRecord
100
AcDbLayerTableRecord
  2
0
 70
     0
 62
     7
  6
CONTINUOUS
  0
LAYER
  5
1FE
100
AcDbSymbolTableRecord
100
AcDbLayerTableRecord
  2
DIMENSION
 70
     0
 62
    -4
  6
CONTINUOUS
  0
LAYER
  5
1FF
100
AcDbSymbolTableRecord
100
AcDbLayerTableRecord
  2
CENTER
 70
     0
 62
     1
  6
CENTER
  0
ENDTAB
  0
TABLE
  2
STYLE
  5
1DD
100
AcDbSymbolTable
 70
     1
  0
STYLE
  5
1EB
100
AcDbSymbolTableRecord
100
AcDbTextStyleTableRecord
  2
STANDARD
 70
     0
 40
0.0
 41
1.0
 50
0.0
 71
     0
 42
4.0
  3
txt
  4

  0
ENDTAB
  0
TABLE
  2
VIEW
  5
1E0
100
AcDbSymbolTable
 70
     0
  0
ENDTAB
  0
TABLE
  2
UCS
  5
1E1
100
AcDbSymbolTable
 70
     0
  0
ENDTAB
  0
TABLE
  2
APPID
  5
1E3
100
AcDbSymbolTable
 70
     1
  0
APPID
  5
1EC
100
AcDbSymbolTableRecord
100
AcDbRegAppTableRecord
  2
ACAD
 70
     0
  0
ENDTAB
  0
TABLE
  2
DIMSTYLE
  5
1E4
100
AcDbSymbolTable
 70
     1
  0
DIMSTYLE
105
200
102
{ACAD_XDICTIONARY
360
3B0
102
}
100
AcDbSymbolTableRecord
100
AcDbDimStyleTableRecord
  2
AA1
 70
     0
  3

  4

  5

  6

  7

 40
1.0
 41
3.0
 42
1.0
 43
10.0
 44
1.0
 45
0.0
 46
0.0
 47
0.0
 48
0.0
140
3.2
141
0.0
142
0.0
143
0.04
144
1.0
145
1.0
146
0.6
147
0.0
 71
     0
 72
     0
 73
     0
 74
     0
 75
     0
 76
     0
 77
     0
 78
     8
170
     0
171
     2
172
     1
173
     0
174
     0
175
     0
176
     0
177
     0
178
     0
270
     2
271
     2
272
     2
273
     2
274
     2
340
1EB
275
     0
280
     0
281
     0
282
     0
283
     1
284
     8
285
     8
286
     8
287
     5
288
     0
  0
ENDTAB
  0
TABLE
  2
BLOCK_RECORD
  5
1DB
100
AcDbSymbolTable
 70
     3
  0
BLOCK_RECORD
  5
1F8
102
{ACAD_XDICTIONARY
360
37F
102
}
100
AcDbSymbolTableRecord
100
AcDbBlockTableRecord
  2
*MODEL_SPACE
  0
BLOCK_RECORD
  5
1F4
102
{ACAD_XDICTIONARY
360
381
102
}
100
AcDbSymbolTableRecord
100
AcDbBlockTableRecord
  2
*PAPER_SPACE
  0
BLOCK_RECORD
  5
202
100
AcDbSymbolTableRecord
100
AcDbBlockTableRecord
  2
$MODEL_SPACE
  0
BLOCK_RECORD
  5
205
100
AcDbSymbolTableRecord
100
AcDbBlockTableRecord
  2
$PAPER_SPACE
  0
BLOCK_RECORD
  5
208
100
AcDbSymbolTableRecord
100
AcDbBlockTableRecord
  2
ARROW
  0
ENDTAB
  0
ENDSEC
  0
SECTION
  2
BLOCKS
  0
BLOCK
  5
1F9
100
AcDbEntity
  8
0
100
AcDbBlockBegin
  2
*MODEL_SPACE
 70
     0
 10
0.0
 20
0.0
 30
0.0
  3
*MODEL_SPACE
  1

  0
ENDBLK
  5
1FA
100
AcDbEntity
  8
0
100
AcDbBlockEnd
  0
BLOCK
  5
1F5
100
AcDbEntity
 67
     1
  8
0
100
AcDbBlockBegin
  2
*PAPER_SPACE
 70
     0
 10
0.0
 20
0.0
 30
0.0
  3
*PAPER_SPACE
  1

  0
ENDBLK
  5
1F6
100
AcDbEntity
 67
     1
  8
0
100
AcDbBlockEnd
  0
BLOCK
  5
203
100
AcDbEntity
  8
0
100
AcDbBlockBegin
  2
$MODEL_SPACE
 70
     0
 10
0.0
 20
0.0
 30
0.0
  3
$MODEL_SPACE
  1

  0
ENDBLK
  5
204
100
AcDbEntity
  8
0
100
AcDbBlockEnd
  0
BLOCK
  5
206
100
AcDbEntity
  8
0
100
AcDbBlockBegin
  2
$PAPER_SPACE
 70
     0
 10
0.0
 20
0.0
 30
0.0
  3
$PAPER_SPACE
  1

  0
ENDBLK
  5
207
100
AcDbEntity
  8
0
100
AcDbBlockEnd
  0
BLOCK
  5
209
100
AcDbEntity
  8
0
100
AcDbBlockBegin
  2
ARROW
 70
     0
 10
0.0
 20
0.0
 30
0.0
  3
ARROW
  1

  0
LINE
  5
20A
100
AcDbEntity
  8
DIMENSION
100
AcDbLine
 10
0.0
 20
0.0
 30
0.0
 11
-1.0
 21
0.176327
 31
0.0
  0
LINE
  5
20B
100
AcDbEntity
  8
DIMENSION
100
AcDbLine
 10
0.0
 20
0.0
 30
0.0
 11
-1.0
 21
-0.176327
 31
0.0
  0
LINE
  5
20C
100
AcDbEntity
  8
DIMENSION
100
AcDbLine
 10
-1.0
 20
0.0
 30
0.0
 11
0.0
 21
0.0
 31
0.0
  0
ENDBLK
  5
20D
100
AcDbEntity
  8
0
100
AcDbBlockEnd
  0
ENDSEC
  0
SECTION
  2
ENTITIES
  0
LINE
  5
20E
100
AcDbEntity
  8
0
100
AcDbLine
 10
86.827103
 20
86.360515
 30
0.0
 11
86.827103
 21
119.360515
 31
0.0
  0
LINE
  5
20F
100
AcDbEntity
  8
0
100
AcDbLine
 10
74.127103
 20
121.360515
 30
0.0
 11
74.127103
 21
84.360515
 31
0.0
  0
LINE
  5
210
100
AcDbEntity
  8
0
100
AcDbLine
 10
75.827103
 20
121.360515
 30
0.0
 11
75.827103
 21
84.360515
 31
0.0
  0
LINE
  5
211
100
AcDbEntity
  8
0
100
AcDbLine
 10
120.027103
 20
121.360515
 30
0.0
 11
120.027103
 21
84.360515
 31
0.0
  0
LINE
  5
212
100
AcDbEntity
  8
0
100
AcDbLine
 10
118.327103
 20
121.360515
 30
0.0
 11
118.327103
 21
84.360515
 31
0.0
  0
LINE
  5
213
100
AcDbEntity
  8
0
100
AcDbLine
 10
107.327103
 20
86.360515
 30
0.0
 11
107.327103
 21
119.360515
 31
0.0
  0
LINE
  5
214
100
AcDbEntity
  8
0
100
AcDbLine
 10
122.077103
 20
81.860515
 30
0.0
 11
122.077103
 21
123.860515
 31
0.0
  0
LINE
  5
215
100
AcDbEntity
  8
0
100
AcDbLine
 10
72.077103
 20
81.860515
 30
0.0
 11
72.077103
 21
123.860515
 31
0.0
  0
LINE
  5
218
100
AcDbEntity
  8
CENTER
  6
CENTER
 62
     1
100
AcDbLine
 10
125.337755
 20
102.860515
 30
0.0
 11
67.103987
 21
102.860515
 31
0.0
  0
LINE
  5
219
100
AcDbEntity
  8
0
100
AcDbLine
 10
122.077103
 20
81.860515
 30
0.0
 11
97.077103
 21
81.860515
 31
0.0
  0
LINE
  5
21A
100
AcDbEntity
  8
0
100
AcDbLine
 10
107.327103
 20
88.360515
 30
0.0
 11
86.827103
 21
88.360515
 31
0.0
  0
LINE
  5
21B
100
AcDbEntity
  8
0
100
AcDbLine
 10
91.977103
 20
71.110515
 30
0.0
 11
91.977103
 21
80.610515
 31
0.0
  0
LINE
  5
21C
100
AcDbEntity
  8
0
100
AcDbLine
 10
97.077103
 20
69.860515
 30
0.0
 11
97.077103
 21
81.860515
 31
0.0
  0
LINE
  5
21D
100
AcDbEntity
  8
0
100
AcDbLine
 10
87.077103
 20
69.860515
 30
0.0
 11
87.077103
 21
81.860515
 31
0.0
  0
LINE
  5
21E
100
AcDbEntity
  8
0
100
AcDbLine
 10
97.077103
 20
69.860515
 30
0.0
 11
87.077103
 21
69.860515
 31
0.0
  0
LINE
  5
21F
100
AcDbEntity
  8
0
100
AcDbLine
 10
97.077103
 20
71.110515
 30
0.0
 11
91.977103
 21
71.110515
 31
0.0
  0
LINE
  5
220
100
AcDbEntity
  8
0
100
AcDbLine
 10
85.827103
 20
95.360515
 30
0.0
 11
76.827103
 21
95.360515
 31
0.0
  0
LINE
  5
221
100
AcDbEntity
  8
0
100
AcDbLine
 10
85.827103
 20
85.360515
 30
0.0
 11
75.827103
 21
85.360515
 31
0.0
  0
CIRCLE
  5
222
100
AcDbEntity
  8
0
100
AcDbCircle
 10
81.327103
 20
90.360515
 30
0.0
 40
3.175
  0
LINE
  5
223
100
AcDbEntity
  8
0
100
AcDbLine
 10
87.077103
 20
81.860515
 30
0.0
 11
72.077103
 21
81.860515
 31
0.0
  0
LINE
  5
224
100
AcDbEntity
  8
0
100
AcDbLine
 10
77.569103
 20
87.889535
 30
0.0
 11
77.569103
 21
88.760485
 31
0.0
  0
LINE
  5
225
100
AcDbEntity
  8
0
100
AcDbLine
 10
77.218907
 20
87.287899
 30
0.0
 11
77.269094
 21
88.636524
 31
0.0
  0
LINE
  5
226
100
AcDbEntity
  8
0
100
AcDbLine
 10
74.127103
 20
85.360515
 30
0.0
 11
72.077103
 21
85.360515
 31
0.0
  0
LINE
  5
227
100
AcDbEntity
  8
0
100
AcDbLine
 10
74.127103
 20
84.360515
 30
0.0
 11
75.827103
 21
84.360515
 31
0.0
  0
ARC
  5
228
100
AcDbEntity
  8
0
100
AcDbCircle
 10
76.827103
 20
86.360515
 30
0.0
 40
1.0
100
AcDbArc
 50
180.0
 51
270.0
  0
ARC
  5
229
100
AcDbEntity
  8
0
100
AcDbCircle
 10
76.027103
 20
87.210535
 30
0.0
 40
0.2
100
AcDbArc
 50
90.0
 51
180.0
  0
LINE
  5
22A
100
AcDbEntity
  8
0
100
AcDbLine
 10
74.127103
 20
87.860515
 30
0.0
 11
75.827103
 21
87.860515
 31
0.0
  0
ARC
  5
22B
100
AcDbEntity
  8
0
100
AcDbCircle
 10
77.019046
 20
87.295337
 30
0.0
 40
0.2
100
AcDbArc
 50
215.063255
 51
357.86882
  0
LINE
  5
22C
100
AcDbEntity
  8
0
100
AcDbLine
 10
76.818148
 20
87.755546
 30
0.0
 11
76.573125
 21
87.582543
 31
0.0
  0
LINE
  5
22D
100
AcDbEntity
  8
0
100
AcDbLine
 10
76.646138
 20
88.000569
 30
0.0
 11
76.400636
 21
87.828907
 31
0.0
  0
LINE
  5
22E
100
AcDbEntity
  8
0
100
AcDbLine
 10
76.326995
 20
87.410699
 30
0.0
 11
76.605749
 21
87.01355
 31
0.0
  0
LINE
  5
22F
100
AcDbEntity
  8
0
100
AcDbLine
 10
76.573125
 20
87.582543
 30
0.0
 11
76.855342
 21
87.180441
 31
0.0
  0
LINE
  5
230
100
AcDbEntity
  8
0
100
AcDbLine
 10
76.646138
 20
88.000569
 30
0.0
 11
76.818148
 21
87.755546
 31
0.0
  0
ARC
  5
231
100
AcDbEntity
  8
0
100
AcDbCircle
 10
76.572547
 20
87.583049
 30
0.0
 40
0.3
100
AcDbArc
 50
124.96231
 51
215.064447
  0
LINE
  5
232
100
AcDbEntity
  8
0
100
AcDbLine
 10
76.027103
 20
87.410535
 30
0.0
 11
76.32711
 21
87.410535
 31
0.0
  0
LINE
  5
233
100
AcDbEntity
  8
0
100
AcDbLine
 10
77.798378
 20
88.410535
 30
0.0
 11
78.821483
 21
88.410535
 31
0.0
  0
ARC
  5
234
100
AcDbEntity
  8
0
100
AcDbCircle
 10
77.798378
 20
88.210535
 30
0.0
 40
0.2
100
AcDbArc
 50
90.0
 51
174.934977
  0
ARC
  5
235
100
AcDbEntity
  8
0
100
AcDbCircle
 10
77.015002
 20
87.300798
 30
0.0
 40
0.5
100
AcDbArc
 50
215.064447
 51
354.934977
  0
LINE
  5
236
100
AcDbEntity
  8
0
100
AcDbLine
 10
77.513049
 20
87.256655
 30
0.0
 11
77.599159
 21
88.228192
 31
0.0
  0
LINE
  5
237
100
AcDbEntity
  8
0
100
AcDbLine
 10
77.260924
 20
93.329036
 30
0.0
 11
77.584291
 21
92.442024
 31
0.0
  0
ARC
  5
238
100
AcDbEntity
  8
0
100
AcDbCircle
 10
76.469103
 20
92.410535
 30
0.0
 40
0.3
100
AcDbArc
 50
90.0
 51
180.0
  0
LINE
  5
239
100
AcDbEntity
  8
0
100
AcDbLine
 10
76.989103
 20
92.710535
 30
0.0
 11
76.989103
 21
92.410535
 31
0.0
  0
LINE
  5
23A
100
AcDbEntity
  8
0
100
AcDbLine
 10
76.469103
 20
89.860475
 30
0.0
 11
76.469103
 21
92.410535
 31
0.0
  0
LINE
  5
23B
100
AcDbEntity
  8
0
100
AcDbLine
 10
76.169103
 20
89.736515
 30
0.0
 11
76.169103
 21
92.410535
 31
0.0
  0
LINE
  5
23C
100
AcDbEntity
  8
0
100
AcDbLine
 10
76.989103
 20
92.410535
 30
0.0
 11
76.469103
 21
92.410535
 31
0.0
  0
LINE
  5
23D
100
AcDbEntity
  8
0
100
AcDbLine
 10
77.269094
 20
88.636524
 30
0.0
 11
76.169103
 21
89.736515
 31
0.0
  0
LINE
  5
23E
100
AcDbEntity
  8
0
100
AcDbLine
 10
77.772194
 20
92.310525
 30
0.0
 11
78.821492
 21
92.310525
 31
0.0
  0
ARC
  5
23F
100
AcDbEntity
  8
0
100
AcDbCircle
 10
77.772194
 20
92.510525
 30
0.0
 40
0.2
100
AcDbArc
 50
200.029669
 51
270.0
  0
LINE
  5
240
100
AcDbEntity
  8
0
100
AcDbLine
 10
77.569103
 20
88.760485
 30
0.0
 11
76.469103
 21
89.860475
 31
0.0
  0
ARC
  5
241
100
AcDbEntity
  8
0
100
AcDbCircle
 10
76.827103
 20
94.360515
 30
0.0
 40
1.0
100
AcDbArc
 50
90.0
 51
180.0
  0
ARC
  5
242
100
AcDbEntity
  8
0
100
AcDbCircle
 10
76.027103
 20
93.210525
 30
0.0
 40
0.2
100
AcDbArc
 50
180.0
 51
270.0
  0
ARC
  5
243
100
AcDbEntity
  8
0
100
AcDbCircle
 10
77.073021
 20
93.260535
 30
0.0
 40
0.2
100
AcDbArc
 50
20.029669
 51
90.0
  0
LINE
  5
244
100
AcDbEntity
  8
0
100
AcDbLine
 10
76.427095
 20
93.010525
 30
0.0
 11
76.74471
 21
93.389085
 31
0.0
  0
ARC
  5
245
100
AcDbEntity
  8
0
100
AcDbCircle
 10
76.897926
 20
93.260535
 30
0.0
 40
0.2
100
AcDbArc
 50
90.0
 51
140.00301
  0
LINE
  5
246
100
AcDbEntity
  8
0
100
AcDbLine
 10
76.027103
 20
93.010525
 30
0.0
 11
76.427095
 21
93.010525
 31
0.0
  0
LINE
  5
247
100
AcDbEntity
  8
0
100
AcDbLine
 10
76.469103
 20
92.710535
 30
0.0
 11
76.989103
 21
92.710535
 31
0.0
  0
LINE
  5
248
100
AcDbEntity
  8
0
100
AcDbLine
 10
76.897926
 20
93.460535
 30
0.0
 11
77.073021
 21
93.460535
 31
0.0
  0
LINE
  5
249
100
AcDbEntity
  8
0
100
AcDbLine
 10
85.435299
 20
87.287899
 30
0.0
 11
85.385113
 21
88.636524
 31
0.0
  0
LINE
  5
24A
100
AcDbEntity
  8
0
100
AcDbLine
 10
85.085103
 20
87.889535
 30
0.0
 11
85.085103
 21
88.760485
 31
0.0
  0
LINE
  5
24B
100
AcDbEntity
  8
CENTER
  6
CENTER
 62
     1
100
AcDbLine
 10
98.077103
 20
75.860515
 30
0.0
 11
86.077103
 21
75.860515
 31
0.0
  0
LINE
  5
24C
100
AcDbEntity
  8
0
100
AcDbLine
 10
91.977103
 20
78.610515
 30
0.0
 11
87.077103
 21
78.610515
 31
0.0
  0
LINE
  5
24D
100
AcDbEntity
  8
0
100
AcDbLine
 10
91.977103
 20
73.110515
 30
0.0
 11
87.077103
 21
73.110515
 31
0.0
  0
LINE
  5
24E
100
AcDbEntity
  8
0
100
AcDbLine
 10
84.855829
 20
88.410535
 30
0.0
 11
83.832723
 21
88.410535
 31
0.0
  0
ARC
  5
24F
100
AcDbEntity
  8
0
100
AcDbCircle
 10
85.639205
 20
87.300798
 30
0.0
 40
0.5
100
AcDbArc
 50
185.065023
 51
324.935553
  0
LINE
  5
250
100
AcDbEntity
  8
0
100
AcDbLine
 10
86.081082
 20
87.582543
 30
0.0
 11
85.798865
 21
87.180441
 31
0.0
  0
LINE
  5
251
100
AcDbEntity
  8
0
100
AcDbLine
 10
86.008069
 20
88.000569
 30
0.0
 11
86.253571
 21
87.828907
 31
0.0
  0
LINE
  5
252
100
AcDbEntity
  8
0
100
AcDbLine
 10
85.836059
 20
87.755546
 30
0.0
 11
86.081082
 21
87.582543
 31
0.0
  0
LINE
  5
253
100
AcDbEntity
  8
0
100
AcDbLine
 10
86.008069
 20
88.000569
 30
0.0
 11
85.836059
 21
87.755546
 31
0.0
  0
ARC
  5
254
100
AcDbEntity
  8
0
100
AcDbCircle
 10
85.635161
 20
87.295337
 30
0.0
 40
0.2
100
AcDbArc
 50
182.13118
 51
324.936745
  0
ARC
  5
255
100
AcDbEntity
  8
0
100
AcDbCircle
 10
84.855829
 20
88.210535
 30
0.0
 40
0.2
100
AcDbArc
 50
5.065023
 51
90.0
  0
LINE
  5
256
100
AcDbEntity
  8
0
100
AcDbLine
 10
85.141157
 20
87.256655
 30
0.0
 11
85.055048
 21
88.228192
 31
0.0
  0
ARC
  5
257
100
AcDbEntity
  8
0
100
AcDbCircle
 10
86.627103
 20
87.210535
 30
0.0
 40
0.2
100
AcDbArc
 50
0.0
 51
90.0
  0
LINE
  5
258
100
AcDbEntity
  8
0
100
AcDbLine
 10
86.627103
 20
87.410535
 30
0.0
 11
86.327096
 21
87.410535
 31
0.0
  0
LINE
  5
259
100
AcDbEntity
  8
0
100
AcDbLine
 10
86.327212
 20
87.410699
 30
0.0
 11
86.048458
 21
87.01355
 31
0.0
  0
ARC
  5
25A
100
AcDbEntity
  8
0
100
AcDbCircle
 10
86.08166
 20
87.583049
 30
0.0
 40
0.3
100
AcDbArc
 50
324.935553
 51
55.03769
  0
ARC
  5
25B
100
AcDbEntity
  8
0
100
AcDbCircle
 10
85.827103
 20
86.360515
 30
0.0
 40
1.0
100
AcDbArc
 50
270.0
 51
0.0
  0
LINE
  5
25C
100
AcDbEntity
  8
0
100
AcDbLine
 10
97.077103
 20
80.610515
 30
0.0
 11
91.977103
 21
80.610515
 31
0.0
  0
LINE
  5
25D
100
AcDbEntity
  8
0
100
AcDbLine
 10
84.882013
 20
92.310525
 30
0.0
 11
83.832714
 21
92.310525
 31
0.0
  0
LINE
  5
25E
100
AcDbEntity
  8
0
100
AcDbLine
 10
85.393282
 20
93.329036
 30
0.0
 11
85.069916
 21
92.442024
 31
0.0
  0
LINE
  5
25F
100
AcDbEntity
  8
0
100
AcDbLine
 10
85.665103
 20
92.710535
 30
0.0
 11
85.665103
 21
92.410535
 31
0.0
  0
ARC
  5
260
100
AcDbEntity
  8
0
100
AcDbCircle
 10
86.185103
 20
92.410535
 30
0.0
 40
0.3
100
AcDbArc
 50
0.0
 51
90.0
  0
LINE
  5
261
100
AcDbEntity
  8
0
100
AcDbLine
 10
86.185103
 20
89.860475
 30
0.0
 11
86.185103
 21
92.410535
 31
0.0
  0
LINE
  5
262
100
AcDbEntity
  8
0
100
AcDbLine
 10
85.665103
 20
92.410535
 30
0.0
 11
86.185103
 21
92.410535
 31
0.0
  0
ARC
  5
263
100
AcDbEntity
  8
0
100
AcDbCircle
 10
84.882013
 20
92.510525
 30
0.0
 40
0.2
100
AcDbArc
 50
270.0
 51
339.970331
  0
LINE
  5
264
100
AcDbEntity
  8
0
100
AcDbLine
 10
85.085103
 20
88.760485
 30
0.0
 11
86.185103
 21
89.860475
 31
0.0
  0
LINE
  5
265
100
AcDbEntity
  8
0
100
AcDbLine
 10
86.485103
 20
89.736515
 30
0.0
 11
86.485103
 21
92.410535
 31
0.0
  0
LINE
  5
266
100
AcDbEntity
  8
0
100
AcDbLine
 10
85.385113
 20
88.636524
 30
0.0
 11
86.485103
 21
89.736515
 31
0.0
  0
ARC
  5
267
100
AcDbEntity
  8
0
100
AcDbCircle
 10
85.581186
 20
93.260535
 30
0.0
 40
0.2
100
AcDbArc
 50
90.0
 51
159.970331
  0
ARC
  5
268
100
AcDbEntity
  8
0
100
AcDbCircle
 10
85.756281
 20
93.260535
 30
0.0
 40
0.2
100
AcDbArc
 50
39.99699
 51
90.0
  0
LINE
  5
269
100
AcDbEntity
  8
0
100
AcDbLine
 10
86.185103
 20
92.710535
 30
0.0
 11
85.665103
 21
92.710535
 31
0.0
  0
LINE
  5
26A
100
AcDbEntity
  8
0
100
AcDbLine
 10
86.227112
 20
93.010525
 30
0.0
 11
85.909497
 21
93.389085
 31
0.0
  0
LINE
  5
26B
100
AcDbEntity
  8
0
100
AcDbLine
 10
85.756281
 20
93.460535
 30
0.0
 11
85.581186
 21
93.460535
 31
0.0
  0
ARC
  5
26C
100
AcDbEntity
  8
0
100
AcDbCircle
 10
86.627103
 20
93.210525
 30
0.0
 40
0.2
100
AcDbArc
 50
270.0
 51
0.0
  0
ARC
  5
26D
100
AcDbEntity
  8
0
100
AcDbCircle
 10
85.827103
 20
94.360515
 30
0.0
 40
1.0
100
AcDbArc
 50
0.0
 51
90.0
  0
LINE
  5
26E
100
AcDbEntity
  8
0
100
AcDbLine
 10
86.627103
 20
93.010525
 30
0.0
 11
86.227112
 21
93.010525
 31
0.0
  0
LINE
  5
26F
100
AcDbEntity
  8
0
100
AcDbLine
 10
116.935299
 20
87.287899
 30
0.0
 11
116.885113
 21
88.636524
 31
0.0
  0
LINE
  5
270
100
AcDbEntity
  8
0
100
AcDbLine
 10
116.585103
 20
87.889535
 30
0.0
 11
116.585103
 21
88.760485
 31
0.0
  0
LINE
  5
271
100
AcDbEntity
  8
0
100
AcDbLine
 10
109.069103
 20
87.889535
 30
0.0
 11
109.069103
 21
88.760485
 31
0.0
  0
LINE
  5
272
100
AcDbEntity
  8
0
100
AcDbLine
 10
108.718907
 20
87.287899
 30
0.0
 11
108.769094
 21
88.636524
 31
0.0
  0
CIRCLE
  5
273
100
AcDbEntity
  8
0
100
AcDbCircle
 10
112.827103
 20
90.360515
 30
0.0
 40
3.175
  0
LINE
  5
274
100
AcDbEntity
  8
0
100
AcDbLine
 10
108.327103
 20
85.360515
 30
0.0
 11
118.327103
 21
85.360515
 31
0.0
  0
ARC
  5
275
100
AcDbEntity
  8
0
100
AcDbCircle
 10
108.072547
 20
87.583049
 30
0.0
 40
0.3
100
AcDbArc
 50
124.96231
 51
215.064447
  0
LINE
  5
276
100
AcDbEntity
  8
0
100
AcDbLine
 10
107.826995
 20
87.410699
 30
0.0
 11
108.105749
 21
87.01355
 31
0.0
  0
ARC
  5
277
100
AcDbEntity
  8
0
100
AcDbCircle
 10
108.327103
 20
86.360515
 30
0.0
 40
1.0
100
AcDbArc
 50
180.0
 51
270.0
  0
LINE
  5
278
100
AcDbEntity
  8
0
100
AcDbLine
 10
107.527103
 20
87.410535
 30
0.0
 11
107.82711
 21
87.410535
 31
0.0
  0
ARC
  5
279
100
AcDbEntity
  8
0
100
AcDbCircle
 10
107.527103
 20
87.210535
 30
0.0
 40
0.2
100
AcDbArc
 50
90.0
 51
180.0
  0
LINE
  5
27A
100
AcDbEntity
  8
0
100
AcDbLine
 10
109.013049
 20
87.256655
 30
0.0
 11
109.099159
 21
88.228192
 31
0.0
  0
ARC
  5
27B
100
AcDbEntity
  8
0
100
AcDbCircle
 10
109.298378
 20
88.210535
 30
0.0
 40
0.2
100
AcDbArc
 50
90.0
 51
174.934977
  0
LINE
  5
27C
100
AcDbEntity
  8
0
100
AcDbLine
 10
109.298378
 20
88.410535
 30
0.0
 11
110.321483
 21
88.410535
 31
0.0
  0
ARC
  5
27D
100
AcDbEntity
  8
0
100
AcDbCircle
 10
108.519046
 20
87.295337
 30
0.0
 40
0.2
100
AcDbArc
 50
215.063255
 51
357.86882
  0
LINE
  5
27E
100
AcDbEntity
  8
0
100
AcDbLine
 10
108.146138
 20
88.000569
 30
0.0
 11
108.318148
 21
87.755546
 31
0.0
  0
LINE
  5
27F
100
AcDbEntity
  8
0
100
AcDbLine
 10
108.318148
 20
87.755546
 30
0.0
 11
108.073125
 21
87.582543
 31
0.0
  0
LINE
  5
280
100
AcDbEntity
  8
0
100
AcDbLine
 10
108.146138
 20
88.000569
 30
0.0
 11
107.900636
 21
87.828907
 31
0.0
  0
LINE
  5
281
100
AcDbEntity
  8
0
100
AcDbLine
 10
108.073125
 20
87.582543
 30
0.0
 11
108.355342
 21
87.180441
 31
0.0
  0
ARC
  5
282
100
AcDbEntity
  8
0
100
AcDbCircle
 10
108.515002
 20
87.300798
 30
0.0
 40
0.5
100
AcDbArc
 50
215.064447
 51
354.934977
  0
LINE
  5
283
100
AcDbEntity
  8
0
100
AcDbLine
 10
120.027103
 20
87.860515
 30
0.0
 11
118.327103
 21
87.860515
 31
0.0
  0
LINE
  5
284
100
AcDbEntity
  8
0
100
AcDbLine
 10
120.027103
 20
84.360515
 30
0.0
 11
118.327103
 21
84.360515
 31
0.0
  0
LINE
  5
285
100
AcDbEntity
  8
0
100
AcDbLine
 10
116.641157
 20
87.256655
 30
0.0
 11
116.555048
 21
88.228192
 31
0.0
  0
ARC
  5
286
100
AcDbEntity
  8
0
100
AcDbCircle
 10
117.139205
 20
87.300798
 30
0.0
 40
0.5
100
AcDbArc
 50
185.065023
 51
324.935553
  0
ARC
  5
287
100
AcDbEntity
  8
0
100
AcDbCircle
 10
116.355829
 20
88.210535
 30
0.0
 40
0.2
100
AcDbArc
 50
5.065023
 51
90.0
  0
LINE
  5
288
100
AcDbEntity
  8
0
100
AcDbLine
 10
116.355829
 20
88.410535
 30
0.0
 11
115.332723
 21
88.410535
 31
0.0
  0
ARC
  5
289
100
AcDbEntity
  8
0
100
AcDbCircle
 10
118.127103
 20
87.210535
 30
0.0
 40
0.2
100
AcDbArc
 50
0.0
 51
90.0
  0
LINE
  5
28A
100
AcDbEntity
  8
0
100
AcDbLine
 10
118.127103
 20
87.410535
 30
0.0
 11
117.827096
 21
87.410535
 31
0.0
  0
ARC
  5
28B
100
AcDbEntity
  8
0
100
AcDbCircle
 10
117.58166
 20
87.583049
 30
0.0
 40
0.3
100
AcDbArc
 50
324.935553
 51
55.03769
  0
LINE
  5
28C
100
AcDbEntity
  8
0
100
AcDbLine
 10
117.508069
 20
88.000569
 30
0.0
 11
117.336059
 21
87.755546
 31
0.0
  0
LINE
  5
28D
100
AcDbEntity
  8
0
100
AcDbLine
 10
117.581082
 20
87.582543
 30
0.0
 11
117.298865
 21
87.180441
 31
0.0
  0
LINE
  5
28E
100
AcDbEntity
  8
0
100
AcDbLine
 10
117.827212
 20
87.410699
 30
0.0
 11
117.548458
 21
87.01355
 31
0.0
  0
LINE
  5
28F
100
AcDbEntity
  8
0
100
AcDbLine
 10
117.508069
 20
88.000569
 30
0.0
 11
117.753571
 21
87.828907
 31
0.0
  0
LINE
  5
290
100
AcDbEntity
  8
0
100
AcDbLine
 10
117.336059
 20
87.755546
 30
0.0
 11
117.581082
 21
87.582543
 31
0.0
  0
ARC
  5
291
100
AcDbEntity
  8
0
100
AcDbCircle
 10
117.327103
 20
86.360515
 30
0.0
 40
1.0
100
AcDbArc
 50
270.0
 51
360.0
  0
ARC
  5
292
100
AcDbEntity
  8
0
100
AcDbCircle
 10
117.135161
 20
87.295337
 30
0.0
 40
0.2
100
AcDbArc
 50
182.13118
 51
324.936745
  0
LINE
  5
293
100
AcDbEntity
  8
0
100
AcDbLine
 10
120.027103
 20
85.360515
 30
0.0
 11
122.077103
 21
85.360515
 31
0.0
  0
LINE
  5
294
100
AcDbEntity
  8
0
100
AcDbLine
 10
108.327103
 20
95.360515
 30
0.0
 11
117.327103
 21
95.360515
 31
0.0
  0
LINE
  5
295
100
AcDbEntity
  8
0
100
AcDbLine
 10
108.769094
 20
88.636524
 30
0.0
 11
107.669103
 21
89.736515
 31
0.0
  0
LINE
  5
296
100
AcDbEntity
  8
0
100
AcDbLine
 10
107.527103
 20
93.010525
 30
0.0
 11
107.927095
 21
93.010525
 31
0.0
  0
ARC
  5
297
100
AcDbEntity
  8
0
100
AcDbCircle
 10
107.969103
 20
92.410535
 30
0.0
 40
0.3
100
AcDbArc
 50
90.0
 51
180.0
  0
ARC
  5
298
100
AcDbEntity
  8
0
100
AcDbCircle
 10
108.327103
 20
94.360515
 30
0.0
 40
1.0
100
AcDbArc
 50
90.0
 51
180.0
  0
LINE
  5
299
100
AcDbEntity
  8
0
100
AcDbLine
 10
107.669103
 20
89.736515
 30
0.0
 11
107.669103
 21
92.410535
 31
0.0
  0
ARC
  5
29A
100
AcDbEntity
  8
0
100
AcDbCircle
 10
107.527103
 20
93.210525
 30
0.0
 40
0.2
100
AcDbArc
 50
180.0
 51
270.0
  0
LINE
  5
29B
100
AcDbEntity
  8
0
100
AcDbLine
 10
108.489103
 20
92.710535
 30
0.0
 11
108.489103
 21
92.410535
 31
0.0
  0
LINE
  5
29C
100
AcDbEntity
  8
0
100
AcDbLine
 10
108.760924
 20
93.329036
 30
0.0
 11
109.084291
 21
92.442024
 31
0.0
  0
LINE
  5
29D
100
AcDbEntity
  8
0
100
AcDbLine
 10
109.069103
 20
88.760485
 30
0.0
 11
107.969103
 21
89.860475
 31
0.0
  0
ARC
  5
29E
100
AcDbEntity
  8
0
100
AcDbCircle
 10
109.272194
 20
92.510525
 30
0.0
 40
0.2
100
AcDbArc
 50
200.029669
 51
270.0
  0
LINE
  5
29F
100
AcDbEntity
  8
0
100
AcDbLine
 10
109.272194
 20
92.310525
 30
0.0
 11
110.321492
 21
92.310525
 31
0.0
  0
LINE
  5
2A0
100
AcDbEntity
  8
0
100
AcDbLine
 10
108.489103
 20
92.410535
 30
0.0
 11
107.969103
 21
92.410535
 31
0.0
  0
LINE
  5
2A1
100
AcDbEntity
  8
0
100
AcDbLine
 10
107.969103
 20
89.860475
 30
0.0
 11
107.969103
 21
92.410535
 31
0.0
  0
LINE
  5
2A2
100
AcDbEntity
  8
0
100
AcDbLine
 10
108.397926
 20
93.460535
 30
0.0
 11
108.573021
 21
93.460535
 31
0.0
  0
LINE
  5
2A3
100
AcDbEntity
  8
0
100
AcDbLine
 10
107.927095
 20
93.010525
 30
0.0
 11
108.24471
 21
93.389085
 31
0.0
  0
LINE
  5
2A4
100
AcDbEntity
  8
0
100
AcDbLine
 10
107.969103
 20
92.710535
 30
0.0
 11
108.489103
 21
92.710535
 31
0.0
  0
ARC
  5
2A5
100
AcDbEntity
  8
0
100
AcDbCircle
 10
108.397926
 20
93.260535
 30
0.0
 40
0.2
100
AcDbArc
 50
90.0
 51
140.00301
  0
ARC
  5
2A6
100
AcDbEntity
  8
0
100
AcDbCircle
 10
108.573021
 20
93.260535
 30
0.0
 40
0.2
100
AcDbArc
 50
20.029669
 51
90.0
  0
LINE
  5
2A7
100
AcDbEntity
  8
0
100
AcDbLine
 10
117.165103
 20
92.710535
 30
0.0
 11
117.165103
 21
92.410535
 31
0.0
  0
ARC
  5
2A8
100
AcDbEntity
  8
0
100
AcDbCircle
 10
117.685103
 20
92.410535
 30
0.0
 40
0.3
100
AcDbArc
 50
0.0
 51
90.0
  0
LINE
  5
2A9
100
AcDbEntity
  8
0
100
AcDbLine
 10
116.893282
 20
93.329036
 30
0.0
 11
116.569916
 21
92.442024
 31
0.0
  0
LINE
  5
2AA
100
AcDbEntity
  8
0
100
AcDbLine
 10
116.585103
 20
88.760485
 30
0.0
 11
117.685103
 21
89.860475
 31
0.0
  0
ARC
  5
2AB
100
AcDbEntity
  8
0
100
AcDbCircle
 10
116.382013
 20
92.510525
 30
0.0
 40
0.2
100
AcDbArc
 50
270.0
 51
339.970331
  0
LINE
  5
2AC
100
AcDbEntity
  8
0
100
AcDbLine
 10
116.382013
 20
92.310525
 30
0.0
 11
115.332714
 21
92.310525
 31
0.0
  0
LINE
  5
2AD
100
AcDbEntity
  8
0
100
AcDbLine
 10
116.885113
 20
88.636524
 30
0.0
 11
117.985103
 21
89.736515
 31
0.0
  0
LINE
  5
2AE
100
AcDbEntity
  8
0
100
AcDbLine
 10
117.165103
 20
92.410535
 30
0.0
 11
117.685103
 21
92.410535
 31
0.0
  0
LINE
  5
2AF
100
AcDbEntity
  8
0
100
AcDbLine
 10
117.985103
 20
89.736515
 30
0.0
 11
117.985103
 21
92.410535
 31
0.0
  0
LINE
  5
2B0
100
AcDbEntity
  8
0
100
AcDbLine
 10
117.685103
 20
89.860475
 30
0.0
 11
117.685103
 21
92.410535
 31
0.0
  0
LINE
  5
2B1
100
AcDbEntity
  8
0
100
AcDbLine
 10
117.256281
 20
93.460535
 30
0.0
 11
117.081186
 21
93.460535
 31
0.0
  0
LINE
  5
2B2
100
AcDbEntity
  8
0
100
AcDbLine
 10
117.685103
 20
92.710535
 30
0.0
 11
117.165103
 21
92.710535
 31
0.0
  0
ARC
  5
2B3
100
AcDbEntity
  8
0
100
AcDbCircle
 10
118.127103
 20
93.210525
 30
0.0
 40
0.2
100
AcDbArc
 50
270.0
 51
0.0
  0
LINE
  5
2B4
100
AcDbEntity
  8
0
100
AcDbLine
 10
118.127103
 20
93.010525
 30
0.0
 11
117.727112
 21
93.010525
 31
0.0
  0
ARC
  5
2B5
100
AcDbEntity
  8
0
100
AcDbCircle
 10
117.256281
 20
93.260535
 30
0.0
 40
0.2
100
AcDbArc
 50
39.99699
 51
90.0
  0
ARC
  5
2B6
100
AcDbEntity
  8
0
100
AcDbCircle
 10
117.327103
 20
94.360515
 30
0.0
 40
1.0
100
AcDbArc
 50
360.0
 51
90.0
  0
LINE
  5
2B7
100
AcDbEntity
  8
0
100
AcDbLine
 10
117.727112
 20
93.010525
 30
0.0
 11
117.409497
 21
93.389085
 31
0.0
  0
ARC
  5
2B8
100
AcDbEntity
  8
0
100
AcDbCircle
 10
117.081186
 20
93.260535
 30
0.0
 40
0.2
100
AcDbArc
 50
90.0
 51
159.970331
  0
LINE
  5
2B9
100
AcDbEntity
  8
0
100
AcDbLine
 10
107.327103
 20
117.360515
 30
0.0
 11
86.827103
 21
117.360515
 31
0.0
  0
LINE
  5
2BA
100
AcDbEntity
  8
0
100
AcDbLine
 10
122.077103
 20
123.860515
 30
0.0
 11
97.077103
 21
123.860515
 31
0.0
  0
CIRCLE
  5
2BB
100
AcDbEntity
  8
0
100
AcDbCircle
 10
81.327103
 20
115.360515
 30
0.0
 40
3.175
  0
LINE
  5
2BC
100
AcDbEntity
  8
0
100
AcDbLine
 10
85.827103
 20
110.360515
 30
0.0
 11
76.827103
 21
110.360515
 31
0.0
  0
LINE
  5
2BD
100
AcDbEntity
  8
0
100
AcDbLine
 10
85.827103
 20
120.360515
 30
0.0
 11
75.827103
 21
120.360515
 31
0.0
  0
LINE
  5
2BE
100
AcDbEntity
  8
0
100
AcDbLine
 10
87.077103
 20
123.860515
 30
0.0
 11
72.077103
 21
123.860515
 31
0.0
  0
LINE
  5
2BF
100
AcDbEntity
  8
0
100
AcDbLine
 10
76.989103
 20
113.010495
 30
0.0
 11
76.989103
 21
113.310495
 31
0.0
  0
LINE
  5
2C0
100
AcDbEntity
  8
0
100
AcDbLine
 10
77.260924
 20
112.391994
 30
0.0
 11
77.584291
 21
113.279006
 31
0.0
  0
ARC
  5
2C1
100
AcDbEntity
  8
0
100
AcDbCircle
 10
76.469103
 20
113.310495
 30
0.0
 40
0.3
100
AcDbArc
 50
180.0
 51
270.0
  0
ARC
  5
2C2
100
AcDbEntity
  8
0
100
AcDbCircle
 10
76.827103
 20
111.360515
 30
0.0
 40
1.0
100
AcDbArc
 50
180.0
 51
270.0
  0
ARC
  5
2C3
100
AcDbEntity
  8
0
100
AcDbCircle
 10
76.027103
 20
112.510505
 30
0.0
 40
0.2
100
AcDbArc
 50
90.0
 51
180.0
  0
LINE
  5
2C4
100
AcDbEntity
  8
0
100
AcDbLine
 10
76.469103
 20
113.010495
 30
0.0
 11
76.989103
 21
113.010495
 31
0.0
  0
LINE
  5
2C5
100
AcDbEntity
  8
0
100
AcDbLine
 10
76.427095
 20
112.710505
 30
0.0
 11
76.74471
 21
112.331946
 31
0.0
  0
ARC
  5
2C6
100
AcDbEntity
  8
0
100
AcDbCircle
 10
76.897926
 20
112.460495
 30
0.0
 40
0.2
100
AcDbArc
 50
219.99699
 51
270.0
  0
LINE
  5
2C7
100
AcDbEntity
  8
0
100
AcDbLine
 10
76.897926
 20
112.260495
 30
0.0
 11
77.073021
 21
112.260495
 31
0.0
  0
ARC
  5
2C8
100
AcDbEntity
  8
0
100
AcDbCircle
 10
77.073021
 20
112.460495
 30
0.0
 40
0.2
100
AcDbArc
 50
270.0
 51
339.970331
  0
LINE
  5
2C9
100
AcDbEntity
  8
0
100
AcDbLine
 10
76.027103
 20
112.710505
 30
0.0
 11
76.427095
 21
112.710505
 31
0.0
  0
LINE
  5
2CA
100
AcDbEntity
  8
0
100
AcDbLine
 10
74.127103
 20
120.360515
 30
0.0
 11
72.077103
 21
120.360515
 31
0.0
  0
LINE
  5
2CB
100
AcDbEntity
  8
0
100
AcDbLine
 10
77.569103
 20
117.831495
 30
0.0
 11
77.569103
 21
116.960545
 31
0.0
  0
ARC
  5
2CC
100
AcDbEntity
  8
0
100
AcDbCircle
 10
77.798378
 20
117.510495
 30
0.0
 40
0.2
100
AcDbArc
 50
185.065023
 51
270.0
  0
LINE
  5
2CD
100
AcDbEntity
  8
0
100
AcDbLine
 10
77.218907
 20
118.433131
 30
0.0
 11
77.269094
 21
117.084506
 31
0.0
  0
LINE
  5
2CE
100
AcDbEntity
  8
0
100
AcDbLine
 10
76.469103
 20
115.860555
 30
0.0
 11
76.469103
 21
113.310495
 31
0.0
  0
LINE
  5
2CF
100
AcDbEntity
  8
0
100
AcDbLine
 10
76.169103
 20
115.984515
 30
0.0
 11
76.169103
 21
113.310495
 31
0.0
  0
LINE
  5
2D0
100
AcDbEntity
  8
0
100
AcDbLine
 10
76.989103
 20
113.310495
 30
0.0
 11
76.469103
 21
113.310495
 31
0.0
  0
LINE
  5
2D1
100
AcDbEntity
  8
0
100
AcDbLine
 10
77.269094
 20
117.084506
 30
0.0
 11
76.169103
 21
115.984515
 31
0.0
  0
LINE
  5
2D2
100
AcDbEntity
  8
0
100
AcDbLine
 10
77.772194
 20
113.410505
 30
0.0
 11
78.821492
 21
113.410505
 31
0.0
  0
ARC
  5
2D3
100
AcDbEntity
  8
0
100
AcDbCircle
 10
77.772194
 20
113.210505
 30
0.0
 40
0.2
100
AcDbArc
 50
90.0
 51
159.970331
  0
LINE
  5
2D4
100
AcDbEntity
  8
0
100
AcDbLine
 10
77.569103
 20
116.960545
 30
0.0
 11
76.469103
 21
115.860555
 31
0.0
  0
ARC
  5
2D5
100
AcDbEntity
  8
0
100
AcDbCircle
 10
76.827103
 20
119.360515
 30
0.0
 40
1.0
100
AcDbArc
 50
90.0
 51
180.0
  0
ARC
  5
2D6
100
AcDbEntity
  8
0
100
AcDbCircle
 10
76.027103
 20
118.510495
 30
0.0
 40
0.2
100
AcDbArc
 50
180.0
 51
270.0
  0
LINE
  5
2D7
100
AcDbEntity
  8
0
100
AcDbLine
 10
74.127103
 20
117.860515
 30
0.0
 11
75.827103
 21
117.860515
 31
0.0
  0
LINE
  5
2D8
100
AcDbEntity
  8
0
100
AcDbLine
 10
74.127103
 20
121.360515
 30
0.0
 11
75.827103
 21
121.360515
 31
0.0
  0
LINE
  5
2D9
100
AcDbEntity
  8
0
100
AcDbLine
 10
76.818148
 20
117.965484
 30
0.0
 11
76.573125
 21
118.138487
 31
0.0
  0
LINE
  5
2DA
100
AcDbEntity
  8
0
100
AcDbLine
 10
76.646138
 20
117.720461
 30
0.0
 11
76.400636
 21
117.892123
 31
0.0
  0
LINE
  5
2DB
100
AcDbEntity
  8
0
100
AcDbLine
 10
76.326995
 20
118.310331
 30
0.0
 11
76.605749
 21
118.707481
 31
0.0
  0
LINE
  5
2DC
100
AcDbEntity
  8
0
100
AcDbLine
 10
76.573125
 20
118.138487
 30
0.0
 11
76.855342
 21
118.54059
 31
0.0
  0
LINE
  5
2DD
100
AcDbEntity
  8
0
100
AcDbLine
 10
76.646138
 20
117.720461
 30
0.0
 11
76.818148
 21
117.965484
 31
0.0
  0
ARC
  5
2DE
100
AcDbEntity
  8
0
100
AcDbCircle
 10
77.019046
 20
118.425693
 30
0.0
 40
0.2
100
AcDbArc
 50
2.13118
 51
144.936745
  0
ARC
  5
2DF
100
AcDbEntity
  8
0
100
AcDbCircle
 10
76.572547
 20
118.137982
 30
0.0
 40
0.3
100
AcDbArc
 50
144.935553
 51
235.03769
  0
LINE
  5
2E0
100
AcDbEntity
  8
0
100
AcDbLine
 10
76.027103
 20
118.310495
 30
0.0
 11
76.32711
 21
118.310495
 31
0.0
  0
LINE
  5
2E1
100
AcDbEntity
  8
0
100
AcDbLine
 10
77.798378
 20
117.310495
 30
0.0
 11
78.821483
 21
117.310495
 31
0.0
  0
ARC
  5
2E2
100
AcDbEntity
  8
0
100
AcDbCircle
 10
77.015002
 20
118.420232
 30
0.0
 40
0.5
100
AcDbArc
 50
5.065023
 51
144.935553
  0
LINE
  5
2E3
100
AcDbEntity
  8
0
100
AcDbLine
 10
77.513049
 20
118.464375
 30
0.0
 11
77.599159
 21
117.492838
 31
0.0
  0
ARC
  5
2E4
100
AcDbEntity
  8
0
100
AcDbCircle
 10
86.185103
 20
113.310495
 30
0.0
 40
0.3
100
AcDbArc
 50
270.0
 51
0.0
  0
LINE
  5
2E5
100
AcDbEntity
  8
0
100
AcDbLine
 10
85.393282
 20
112.391994
 30
0.0
 11
85.069916
 21
113.279006
 31
0.0
  0
LINE
  5
2E6
100
AcDbEntity
  8
0
100
AcDbLine
 10
85.665103
 20
113.010495
 30
0.0
 11
85.665103
 21
113.310495
 31
0.0
  0
ARC
  5
2E7
100
AcDbEntity
  8
0
100
AcDbCircle
 10
85.756281
 20
112.460495
 30
0.0
 40
0.2
100
AcDbArc
 50
270.0
 51
320.00301
  0
LINE
  5
2E8
100
AcDbEntity
  8
0
100
AcDbLine
 10
86.185103
 20
113.010495
 30
0.0
 11
85.665103
 21
113.010495
 31
0.0
  0
LINE
  5
2E9
100
AcDbEntity
  8
0
100
AcDbLine
 10
86.227112
 20
112.710505
 30
0.0
 11
85.909497
 21
112.331946
 31
0.0
  0
ARC
  5
2EA
100
AcDbEntity
  8
0
100
AcDbCircle
 10
85.581186
 20
112.460495
 30
0.0
 40
0.2
100
AcDbArc
 50
200.029669
 51
270.0
  0
LINE
  5
2EB
100
AcDbEntity
  8
0
100
AcDbLine
 10
85.756281
 20
112.260495
 30
0.0
 11
85.581186
 21
112.260495
 31
0.0
  0
ARC
  5
2EC
100
AcDbEntity
  8
0
100
AcDbCircle
 10
86.627103
 20
112.510505
 30
0.0
 40
0.2
100
AcDbArc
 50
0.0
 51
90.0
  0
ARC
  5
2ED
100
AcDbEntity
  8
0
100
AcDbCircle
 10
85.827103
 20
111.360515
 30
0.0
 40
1.0
100
AcDbArc
 50
270.0
 51
0.0
  0
LINE
  5
2EE
100
AcDbEntity
  8
0
100
AcDbLine
 10
86.627103
 20
112.710505
 30
0.0
 11
86.227112
 21
112.710505
 31
0.0
  0
LINE
  5
2EF
100
AcDbEntity
  8
0
100
AcDbLine
 10
84.855829
 20
117.310495
 30
0.0
 11
83.832723
 21
117.310495
 31
0.0
  0
LINE
  5
2F0
100
AcDbEntity
  8
0
100
AcDbLine
 10
84.882013
 20
113.410505
 30
0.0
 11
83.832714
 21
113.410505
 31
0.0
  0
LINE
  5
2F1
100
AcDbEntity
  8
0
100
AcDbLine
 10
85.085103
 20
117.831495
 30
0.0
 11
85.085103
 21
116.960545
 31
0.0
  0
ARC
  5
2F2
100
AcDbEntity
  8
0
100
AcDbCircle
 10
84.855829
 20
117.510495
 30
0.0
 40
0.2
100
AcDbArc
 50
270.0
 51
354.934977
  0
LINE
  5
2F3
100
AcDbEntity
  8
0
100
AcDbLine
 10
85.435299
 20
118.433131
 30
0.0
 11
85.385113
 21
117.084506
 31
0.0
  0
LINE
  5
2F4
100
AcDbEntity
  8
0
100
AcDbLine
 10
86.185103
 20
115.860555
 30
0.0
 11
86.185103
 21
113.310495
 31
0.0
  0
LINE
  5
2F5
100
AcDbEntity
  8
0
100
AcDbLine
 10
85.665103
 20
113.310495
 30
0.0
 11
86.185103
 21
113.310495
 31
0.0
  0
ARC
  5
2F6
100
AcDbEntity
  8
0
100
AcDbCircle
 10
84.882013
 20
113.210505
 30
0.0
 40
0.2
100
AcDbArc
 50
20.029669
 51
90.0
  0
LINE
  5
2F7
100
AcDbEntity
  8
0
100
AcDbLine
 10
85.085103
 20
116.960545
 30
0.0
 11
86.185103
 21
115.860555
 31
0.0
  0
LINE
  5
2F8
100
AcDbEntity
  8
0
100
AcDbLine
 10
86.485103
 20
115.984515
 30
0.0
 11
86.485103
 21
113.310495
 31
0.0
  0
LINE
  5
2F9
100
AcDbEntity
  8
0
100
AcDbLine
 10
85.385113
 20
117.084506
 30
0.0
 11
86.485103
 21
115.984515
 31
0.0
  0
LINE
  5
2FA
100
AcDbEntity
  8
0
100
AcDbLine
 10
86.081082
 20
118.138487
 30
0.0
 11
85.798865
 21
118.54059
 31
0.0
  0
ARC
  5
2FB
100
AcDbEntity
  8
0
100
AcDbCircle
 10
85.639205
 20
118.420232
 30
0.0
 40
0.5
100
AcDbArc
 50
35.064447
 51
174.934977
  0
LINE
  5
2FC
100
AcDbEntity
  8
0
100
AcDbLine
 10
86.008069
 20
117.720461
 30
0.0
 11
86.253571
 21
117.892123
 31
0.0
  0
LINE
  5
2FD
100
AcDbEntity
  8
0
100
AcDbLine
 10
85.836059
 20
117.965484
 30
0.0
 11
86.081082
 21
118.138487
 31
0.0
  0
LINE
  5
2FE
100
AcDbEntity
  8
0
100
AcDbLine
 10
86.008069
 20
117.720461
 30
0.0
 11
85.836059
 21
117.965484
 31
0.0
  0
ARC
  5
2FF
100
AcDbEntity
  8
0
100
AcDbCircle
 10
85.635161
 20
118.425693
 30
0.0
 40
0.2
100
AcDbArc
 50
35.063255
 51
177.86882
  0
LINE
  5
300
100
AcDbEntity
  8
0
100
AcDbLine
 10
85.141157
 20
118.464375
 30
0.0
 11
85.055048
 21
117.492838
 31
0.0
  0
ARC
  5
301
100
AcDbEntity
  8
0
100
AcDbCircle
 10
86.627103
 20
118.510495
 30
0.0
 40
0.2
100
AcDbArc
 50
270.0
 51
0.0
  0
LINE
  5
302
100
AcDbEntity
  8
0
100
AcDbLine
 10
86.627103
 20
118.310495
 30
0.0
 11
86.327096
 21
118.310495
 31
0.0
  0
LINE
  5
303
100
AcDbEntity
  8
0
100
AcDbLine
 10
86.327212
 20
118.310331
 30
0.0
 11
86.048458
 21
118.707481
 31
0.0
  0
ARC
  5
304
100
AcDbEntity
  8
0
100
AcDbCircle
 10
86.08166
 20
118.137982
 30
0.0
 40
0.3
100
AcDbArc
 50
304.96231
 51
35.064447
  0
ARC
  5
305
100
AcDbEntity
  8
0
100
AcDbCircle
 10
85.827103
 20
119.360515
 30
0.0
 40
1.0
100
AcDbArc
 50
0.0
 51
90.0
  0
LINE
  5
306
100
AcDbEntity
  8
CENTER
  6
CENTER
 62
     1
100
AcDbLine
 10
98.077103
 20
129.860515
 30
0.0
 11
86.077103
 21
129.860515
 31
0.0
  0
LINE
  5
307
100
AcDbEntity
  8
0
100
AcDbLine
 10
91.977103
 20
127.110515
 30
0.0
 11
87.077103
 21
127.110515
 31
0.0
  0
LINE
  5
308
100
AcDbEntity
  8
0
100
AcDbLine
 10
91.977103
 20
132.610515
 30
0.0
 11
87.077103
 21
132.610515
 31
0.0
  0
LINE
  5
309
100
AcDbEntity
  8
0
100
AcDbLine
 10
97.077103
 20
135.860515
 30
0.0
 11
87.077103
 21
135.860515
 31
0.0
  0
LINE
  5
30A
100
AcDbEntity
  8
0
100
AcDbLine
 10
87.077103
 20
135.860515
 30
0.0
 11
87.077103
 21
123.860515
 31
0.0
  0
LINE
  5
30B
100
AcDbEntity
  8
0
100
AcDbLine
 10
97.077103
 20
135.860515
 30
0.0
 11
97.077103
 21
123.860515
 31
0.0
  0
LINE
  5
30C
100
AcDbEntity
  8
0
100
AcDbLine
 10
91.977103
 20
134.610515
 30
0.0
 11
91.977103
 21
125.110515
 31
0.0
  0
LINE
  5
30D
100
AcDbEntity
  8
0
100
AcDbLine
 10
97.077103
 20
125.110515
 30
0.0
 11
91.977103
 21
125.110515
 31
0.0
  0
LINE
  5
30E
100
AcDbEntity
  8
0
100
AcDbLine
 10
97.077103
 20
134.610515
 30
0.0
 11
91.977103
 21
134.610515
 31
0.0
  0
LINE
  5
30F
100
AcDbEntity
  8
0
100
AcDbLine
 10
92.077103
 20
135.860515
 30
0.0
 11
92.077203
 21
135.860515
 31
0.0
  0
LINE
  5
310
100
AcDbEntity
  8
0
100
AcDbLine
 10
94.577103
 20
135.860515
 30
0.0
 11
94.577103
 21
135.860615
 31
0.0
  0
LINE
  5
311
100
AcDbEntity
  8
0
100
AcDbLine
 10
108.327103
 20
120.360515
 30
0.0
 11
118.327103
 21
120.360515
 31
0.0
  0
LINE
  5
312
100
AcDbEntity
  8
0
100
AcDbLine
 10
108.327103
 20
110.360515
 30
0.0
 11
117.327103
 21
110.360515
 31
0.0
  0
CIRCLE
  5
313
100
AcDbEntity
  8
0
100
AcDbCircle
 10
112.827103
 20
115.360515
 30
0.0
 40
3.175
  0
LINE
  5
314
100
AcDbEntity
  8
0
100
AcDbLine
 10
108.489103
 20
113.010495
 30
0.0
 11
108.489103
 21
113.310495
 31
0.0
  0
LINE
  5
315
100
AcDbEntity
  8
0
100
AcDbLine
 10
108.760924
 20
112.391994
 30
0.0
 11
109.084291
 21
113.279006
 31
0.0
  0
ARC
  5
316
100
AcDbEntity
  8
0
100
AcDbCircle
 10
107.969103
 20
113.310495
 30
0.0
 40
0.3
100
AcDbArc
 50
180.0
 51
270.0
  0
LINE
  5
317
100
AcDbEntity
  8
0
100
AcDbLine
 10
107.527103
 20
112.710505
 30
0.0
 11
107.927095
 21
112.710505
 31
0.0
  0
ARC
  5
318
100
AcDbEntity
  8
0
100
AcDbCircle
 10
108.327103
 20
111.360515
 30
0.0
 40
1.0
100
AcDbArc
 50
180.0
 51
270.0
  0
ARC
  5
319
100
AcDbEntity
  8
0
100
AcDbCircle
 10
107.527103
 20
112.510505
 30
0.0
 40
0.2
100
AcDbArc
 50
90.0
 51
180.0
  0
LINE
  5
31A
100
AcDbEntity
  8
0
100
AcDbLine
 10
108.397926
 20
112.260495
 30
0.0
 11
108.573021
 21
112.260495
 31
0.0
  0
ARC
  5
31B
100
AcDbEntity
  8
0
100
AcDbCircle
 10
108.573021
 20
112.460495
 30
0.0
 40
0.2
100
AcDbArc
 50
270.0
 51
339.970331
  0
LINE
  5
31C
100
AcDbEntity
  8
0
100
AcDbLine
 10
107.927095
 20
112.710505
 30
0.0
 11
108.24471
 21
112.331946
 31
0.0
  0
LINE
  5
31D
100
AcDbEntity
  8
0
100
AcDbLine
 10
107.969103
 20
113.010495
 30
0.0
 11
108.489103
 21
113.010495
 31
0.0
  0
ARC
  5
31E
100
AcDbEntity
  8
0
100
AcDbCircle
 10
108.397926
 20
112.460495
 30
0.0
 40
0.2
100
AcDbArc
 50
219.99699
 51
270.0
  0
ARC
  5
31F
100
AcDbEntity
  8
0
100
AcDbCircle
 10
108.072547
 20
118.137982
 30
0.0
 40
0.3
100
AcDbArc
 50
144.935553
 51
235.03769
  0
LINE
  5
320
100
AcDbEntity
  8
0
100
AcDbLine
 10
107.826995
 20
118.310331
 30
0.0
 11
108.105749
 21
118.707481
 31
0.0
  0
LINE
  5
321
100
AcDbEntity
  8
0
100
AcDbLine
 10
108.769094
 20
117.084506
 30
0.0
 11
107.669103
 21
115.984515
 31
0.0
  0
ARC
  5
322
100
AcDbEntity
  8
0
100
AcDbCircle
 10
108.327103
 20
119.360515
 30
0.0
 40
1.0
100
AcDbArc
 50
90.0
 51
180.0
  0
LINE
  5
323
100
AcDbEntity
  8
0
100
AcDbLine
 10
107.669103
 20
115.984515
 30
0.0
 11
107.669103
 21
113.310495
 31
0.0
  0
LINE
  5
324
100
AcDbEntity
  8
0
100
AcDbLine
 10
107.527103
 20
118.310495
 30
0.0
 11
107.82711
 21
118.310495
 31
0.0
  0
ARC
  5
325
100
AcDbEntity
  8
0
100
AcDbCircle
 10
107.527103
 20
118.510495
 30
0.0
 40
0.2
100
AcDbArc
 50
180.0
 51
270.0
  0
LINE
  5
326
100
AcDbEntity
  8
0
100
AcDbLine
 10
108.718907
 20
118.433131
 30
0.0
 11
108.769094
 21
117.084506
 31
0.0
  0
ARC
  5
327
100
AcDbEntity
  8
0
100
AcDbCircle
 10
109.298378
 20
117.510495
 30
0.0
 40
0.2
100
AcDbArc
 50
185.065023
 51
270.0
  0
LINE
  5
328
100
AcDbEntity
  8
0
100
AcDbLine
 10
109.069103
 20
117.831495
 30
0.0
 11
109.069103
 21
116.960545
 31
0.0
  0
LINE
  5
329
100
AcDbEntity
  8
0
100
AcDbLine
 10
109.069103
 20
116.960545
 30
0.0
 11
107.969103
 21
115.860555
 31
0.0
  0
ARC
  5
32A
100
AcDbEntity
  8
0
100
AcDbCircle
 10
109.272194
 20
113.210505
 30
0.0
 40
0.2
100
AcDbArc
 50
90.0
 51
159.970331
  0
LINE
  5
32B
100
AcDbEntity
  8
0
100
AcDbLine
 10
108.489103
 20
113.310495
 30
0.0
 11
107.969103
 21
113.310495
 31
0.0
  0
LINE
  5
32C
100
AcDbEntity
  8
0
100
AcDbLine
 10
109.272194
 20
113.410505
 30
0.0
 11
110.321492
 21
113.410505
 31
0.0
  0
LINE
  5
32D
100
AcDbEntity
  8
0
100
AcDbLine
 10
107.969103
 20
115.860555
 30
0.0
 11
107.969103
 21
113.310495
 31
0.0
  0
LINE
  5
32E
100
AcDbEntity
  8
0
100
AcDbLine
 10
109.013049
 20
118.464375
 30
0.0
 11
109.099159
 21
117.492838
 31
0.0
  0
ARC
  5
32F
100
AcDbEntity
  8
0
100
AcDbCircle
 10
108.519046
 20
118.425693
 30
0.0
 40
0.2
100
AcDbArc
 50
2.13118
 51
144.936745
  0
LINE
  5
330
100
AcDbEntity
  8
0
100
AcDbLine
 10
108.146138
 20
117.720461
 30
0.0
 11
108.318148
 21
117.965484
 31
0.0
  0
LINE
  5
331
100
AcDbEntity
  8
0
100
AcDbLine
 10
108.318148
 20
117.965484
 30
0.0
 11
108.073125
 21
118.138487
 31
0.0
  0
LINE
  5
332
100
AcDbEntity
  8
0
100
AcDbLine
 10
108.146138
 20
117.720461
 30
0.0
 11
107.900636
 21
117.892123
 31
0.0
  0
ARC
  5
333
100
AcDbEntity
  8
0
100
AcDbCircle
 10
108.515002
 20
118.420232
 30
0.0
 40
0.5
100
AcDbArc
 50
5.065023
 51
144.935553
  0
LINE
  5
334
100
AcDbEntity
  8
0
100
AcDbLine
 10
108.073125
 20
118.138487
 30
0.0
 11
108.355342
 21
118.54059
 31
0.0
  0
LINE
  5
335
100
AcDbEntity
  8
0
100
AcDbLine
 10
109.298378
 20
117.310495
 30
0.0
 11
110.321483
 21
117.310495
 31
0.0
  0
ARC
  5
336
100
AcDbEntity
  8
0
100
AcDbCircle
 10
117.685103
 20
113.310495
 30
0.0
 40
0.3
100
AcDbArc
 50
270.0
 51
0.0
  0
LINE
  5
337
100
AcDbEntity
  8
0
100
AcDbLine
 10
116.893282
 20
112.391994
 30
0.0
 11
116.569916
 21
113.279006
 31
0.0
  0
LINE
  5
338
100
AcDbEntity
  8
0
100
AcDbLine
 10
117.165103
 20
113.010495
 30
0.0
 11
117.165103
 21
113.310495
 31
0.0
  0
ARC
  5
339
100
AcDbEntity
  8
0
100
AcDbCircle
 10
118.127103
 20
112.510505
 30
0.0
 40
0.2
100
AcDbArc
 50
0.0
 51
90.0
  0
LINE
  5
33A
100
AcDbEntity
  8
0
100
AcDbLine
 10
118.127103
 20
112.710505
 30
0.0
 11
117.727112
 21
112.710505
 31
0.0
  0
ARC
  5
33B
100
AcDbEntity
  8
0
100
AcDbCircle
 10
117.081186
 20
112.460495
 30
0.0
 40
0.2
100
AcDbArc
 50
200.029669
 51
270.0
  0
LINE
  5
33C
100
AcDbEntity
  8
0
100
AcDbLine
 10
117.256281
 20
112.260495
 30
0.0
 11
117.081186
 21
112.260495
 31
0.0
  0
ARC
  5
33D
100
AcDbEntity
  8
0
100
AcDbCircle
 10
117.256281
 20
112.460495
 30
0.0
 40
0.2
100
AcDbArc
 50
270.0
 51
320.00301
  0
ARC
  5
33E
100
AcDbEntity
  8
0
100
AcDbCircle
 10
117.327103
 20
111.360515
 30
0.0
 40
1.0
100
AcDbArc
 50
270.0
 51
0.0
  0
LINE
  5
33F
100
AcDbEntity
  8
0
100
AcDbLine
 10
117.727112
 20
112.710505
 30
0.0
 11
117.409497
 21
112.331946
 31
0.0
  0
LINE
  5
340
100
AcDbEntity
  8
0
100
AcDbLine
 10
117.685103
 20
113.010495
 30
0.0
 11
117.165103
 21
113.010495
 31
0.0
  0
LINE
  5
341
100
AcDbEntity
  8
0
100
AcDbLine
 10
120.027103
 20
117.860515
 30
0.0
 11
118.327103
 21
117.860515
 31
0.0
  0
LINE
  5
342
100
AcDbEntity
  8
0
100
AcDbLine
 10
120.027103
 20
121.360515
 30
0.0
 11
118.327103
 21
121.360515
 31
0.0
  0
LINE
  5
343
100
AcDbEntity
  8
0
100
AcDbLine
 10
116.935299
 20
118.433131
 30
0.0
 11
116.885113
 21
117.084506
 31
0.0
  0
ARC
  5
344
100
AcDbEntity
  8
0
100
AcDbCircle
 10
116.355829
 20
117.510495
 30
0.0
 40
0.2
100
AcDbArc
 50
270.0
 51
354.934977
  0
LINE
  5
345
100
AcDbEntity
  8
0
100
AcDbLine
 10
116.585103
 20
117.831495
 30
0.0
 11
116.585103
 21
116.960545
 31
0.0
  0
LINE
  5
346
100
AcDbEntity
  8
0
100
AcDbLine
 10
116.585103
 20
116.960545
 30
0.0
 11
117.685103
 21
115.860555
 31
0.0
  0
ARC
  5
347
100
AcDbEntity
  8
0
100
AcDbCircle
 10
116.382013
 20
113.210505
 30
0.0
 40
0.2
100
AcDbArc
 50
20.029669
 51
90.0
  0
LINE
  5
348
100
AcDbEntity
  8
0
100
AcDbLine
 10
116.382013
 20
113.410505
 30
0.0
 11
115.332714
 21
113.410505
 31
0.0
  0
LINE
  5
349
100
AcDbEntity
  8
0
100
AcDbLine
 10
116.885113
 20
117.084506
 30
0.0
 11
117.985103
 21
115.984515
 31
0.0
  0
LINE
  5
34A
100
AcDbEntity
  8
0
100
AcDbLine
 10
117.165103
 20
113.310495
 30
0.0
 11
117.685103
 21
113.310495
 31
0.0
  0
LINE
  5
34B
100
AcDbEntity
  8
0
100
AcDbLine
 10
117.985103
 20
115.984515
 30
0.0
 11
117.985103
 21
113.310495
 31
0.0
  0
LINE
  5
34C
100
AcDbEntity
  8
0
100
AcDbLine
 10
117.685103
 20
115.860555
 30
0.0
 11
117.685103
 21
113.310495
 31
0.0
  0
LINE
  5
34D
100
AcDbEntity
  8
0
100
AcDbLine
 10
116.641157
 20
118.464375
 30
0.0
 11
116.555048
 21
117.492838
 31
0.0
  0
ARC
  5
34E
100
AcDbEntity
  8
0
100
AcDbCircle
 10
117.139205
 20
118.420232
 30
0.0
 40
0.5
100
AcDbArc
 50
35.064447
 51
174.934977
  0
LINE
  5
34F
100
AcDbEntity
  8
0
100
AcDbLine
 10
116.355829
 20
117.310495
 30
0.0
 11
115.332723
 21
117.310495
 31
0.0
  0
ARC
  5
350
100
AcDbEntity
  8
0
100
AcDbCircle
 10
118.127103
 20
118.510495
 30
0.0
 40
0.2
100
AcDbArc
 50
270.0
 51
0.0
  0
LINE
  5
351
100
AcDbEntity
  8
0
100
AcDbLine
 10
118.127103
 20
118.310495
 30
0.0
 11
117.827096
 21
118.310495
 31
0.0
  0
ARC
  5
352
100
AcDbEntity
  8
0
100
AcDbCircle
 10
117.58166
 20
118.137982
 30
0.0
 40
0.3
100
AcDbArc
 50
304.96231
 51
35.064447
  0
ARC
  5
353
100
AcDbEntity
  8
0
100
AcDbCircle
 10
117.135161
 20
118.425693
 30
0.0
 40
0.2
100
AcDbArc
 50
35.063255
 51
177.86882
  0
LINE
  5
354
100
AcDbEntity
  8
0
100
AcDbLine
 10
117.508069
 20
117.720461
 30
0.0
 11
117.336059
 21
117.965484
 31
0.0
  0
LINE
  5
355
100
AcDbEntity
  8
0
100
AcDbLine
 10
117.581082
 20
118.138487
 30
0.0
 11
117.298865
 21
118.54059
 31
0.0
  0
LINE
  5
356
100
AcDbEntity
  8
0
100
AcDbLine
 10
117.827212
 20
118.310331
 30
0.0
 11
117.548458
 21
118.707481
 31
0.0
  0
LINE
  5
357
100
AcDbEntity
  8
0
100
AcDbLine
 10
117.508069
 20
117.720461
 30
0.0
 11
117.753571
 21
117.892123
 31
0.0
  0
LINE
  5
358
100
AcDbEntity
  8
0
100
AcDbLine
 10
117.336059
 20
117.965484
 30
0.0
 11
117.581082
 21
118.138487
 31
0.0
  0
ARC
  5
359
100
AcDbEntity
  8
0
100
AcDbCircle
 10
117.327103
 20
119.360515
 30
0.0
 40
1.0
100
AcDbArc
 50
0.0
 51
90.0
  0
LINE
  5
35A
100
AcDbEntity
  8
0
100
AcDbLine
 10
120.027103
 20
120.360515
 30
0.0
 11
122.077103
 21
120.360515
 31
0.0
  0
CIRCLE
  5
35B
100
AcDbEntity
  8
CENTER
  6
CENTER
 62
     1
100
AcDbCircle
 10
209.897744
 20
102.860515
 30
0.0
 40
27.0
  0
LINE
  5
35C
100
AcDbEntity
  8
CENTER
  6
CENTER
 62
     1
100
AcDbLine
 10
209.897744
 20
140.207511
 30
0.0
 11
209.897744
 21
65.513519
 31
0.0
  0
CIRCLE
  5
35D
100
AcDbEntity
  8
0
100
AcDbCircle
 10
209.897744
 20
102.860515
 30
0.0
 40
21.0
  0
CIRCLE
  5
35E
100
AcDbEntity
  8
0
100
AcDbCircle
 10
182.900627
 20
102.85608
 30
0.0
 40
2.75
  0
CIRCLE
  5
35F
100
AcDbEntity
  8
0
100
AcDbCircle
 10
236.823322
 20
102.860515
 30
0.0
 40
2.75
  0
CIRCLE
  5
360
100
AcDbEntity
  8
0
100
AcDbCircle
 10
209.897744
 20
102.860515
 30
0.0
 40
7.5
  0
CIRCLE
  5
361
100
AcDbEntity
  8
0
100
AcDbCircle
 10
209.897744
 20
102.860515
 30
0.0
 40
17.5
  0
CIRCLE
  5
362
100
AcDbEntity
  8
0
100
AcDbCircle
 10
182.900627
 20
102.85608
 30
0.0
 40
4.75
  0
CIRCLE
  5
363
100
AcDbEntity
  8
0
100
AcDbCircle
 10
236.823322
 20
102.860515
 30
0.0
 40
4.75
  0
LWPOLYLINE
  5
364
100
AcDbEntity
  8
0
100
AcDbPolyline
 90
        2
 70
     0
 43
0.0
 10
242.854358
 20
104.552133
 10
211.589362
 20
135.817129
  0
LWPOLYLINE
  5
368
100
AcDbEntity
  8
0
100
AcDbPolyline
 90
        2
 70
     0
 43
0.0
 10
208.206126
 20
135.817129
 10
176.94113
 20
104.552133
  0
LINE
  5
36C
100
AcDbEntity
  8
CENTER
  6
CENTER
 62
     1
100
AcDbLine
 10
172.550748
 20
102.860515
 30
0.0
 11
247.24474
 21
102.860515
 31
0.0
  0
LWPOLYLINE
  5
36D
100
AcDbEntity
  8
0
100
AcDbPolyline
 90
        2
 70
     0
 43
0.0
 10
211.589362
 20
69.903901
 10
242.854358
 20
101.168897
  0
LWPOLYLINE
  5
371
100
AcDbEntity
  8
0
100
AcDbPolyline
 90
        2
 70
     0
 43
0.0
 10
176.94113
 20
101.168897
 10
208.206126
 20
69.903901
  0
ARC
  5
375
100
AcDbEntity
  8
0
100
AcDbCircle
 10
209.897744
 20
102.860515
 30
0.0
 40
33.0
100
AcDbArc
 50
177.061665
 51
182.938335
  0
CIRCLE
  5
376
100
AcDbEntity
  8
0
100
AcDbCircle
 10
209.897744
 20
75.860515
 30
0.0
 40
4.75
  0
ARC
  5
377
100
AcDbEntity
  8
0
100
AcDbCircle
 10
209.897744
 20
102.860515
 30
0.0
 40
33.0
100
AcDbArc
 50
267.061665
 51
272.938335
  0
CIRCLE
  5
378
100
AcDbEntity
  8
0
100
AcDbCircle
 10
209.897744
 20
75.860515
 30
0.0
 40
2.75
  0
ARC
  5
379
100
AcDbEntity
  8
0
100
AcDbCircle
 10
209.897744
 20
102.860515
 30
0.0
 40
33.0
100
AcDbArc
 50
357.061665
 51
2.938335
  0
CIRCLE
  5
37A
100
AcDbEntity
  8
0
100
AcDbCircle
 10
209.850778
 20
129.752785
 30
0.0
 40
4.75
  0
CIRCLE
  5
37B
100
AcDbEntity
  8
0
100
AcDbCircle
 10
209.850778
 20
129.752785
 30
0.0
 40
2.75
  0
ARC
  5
37C
100
AcDbEntity
  8
0
100
AcDbCircle
 10
209.897744
 20
102.860515
 30
0.0
 40
33.0
100
AcDbArc
 50
87.061665
 51
92.938335
  0
ENDSEC
  0
SECTION
  2
OBJECTS
  0
DICTIONARY
  5
1E6
100
AcDbDictionary
  3
ACAD_GROUP
350
1E7
  3
ACAD_LAYOUT
350
1F3
  3
ACAD_MLINESTYLE
350
1F0
  3
ACAD_PLOTSETTINGS
350
1F2
  3
ACAD_PLOTSTYLENAME
350
1E8
  3
ACDBHEADERROUNDTRIPXREC
350
389
  3
AcDbVariableDictionary
350
3B2
  0
DICTIONARY
  5
387
100
AcDbDictionary
280
     1
  3
ACAD_XREC_ROUNDTRIP
360
388
  0
DICTIONARY
  5
383
100
AcDbDictionary
280
     1
  3
ACAD_XREC_ROUNDTRIP
360
384
  0
DICTIONARY
  5
385
100
AcDbDictionary
280
     1
  3
ACAD_XREC_ROUNDTRIP
360
386
  0
DICTIONARY
  5
3B0
100
AcDbDictionary
280
     1
  3
ACAD_XREC_ROUNDTRIP
360
3B1
  0
DICTIONARY
  5
37F
100
AcDbDictionary
280
     1
  3
ACAD_LAYOUTSELFREF
360
3AF
  3
ACAD_XREC_ROUNDTRIP
360
380
  0
DICTIONARY
  5
381
100
AcDbDictionary
280
     1
  3
ACAD_LAYOUTSELFREF
360
3AE
  3
ACAD_XREC_ROUNDTRIP
360
382
  0
DICTIONARY
  5
1E7
102
{ACAD_REACTORS
330
1E6
102
}
100
AcDbDictionary
  0
DICTIONARY
  5
1F3
102
{ACAD_XDICTIONARY
360
3AC
102
}
102
{ACAD_REACTORS
330
1E6
102
}
100
AcDbDictionary
  3
MODEL
350
1FB
  3
ﾚｲｱｳﾄ1
350
1F7
  0
DICTIONARY
  5
1F0
102
{ACAD_XDICTIONARY
360
3AA
102
}
102
{ACAD_REACTORS
330
1E6
102
}
100
AcDbDictionary
  3
STANDARD
350
1F1
  0
DICTIONARY
  5
1F2
102
{ACAD_REACTORS
330
1E6
102
}
100
AcDbDictionary
  0
ACAD_PROXY_OBJECT
  5
1E8
102
{ACAD_REACTORS
330
1E6
102
}
100
AcDbProxyObject
 90
      499
 91
      500
 93
       86
310
405010041939BDC9B585B0
350
1E9
340
1E9
 94
        0
  0
DICTIONARY
  5
389
102
{ACAD_REACTORS
330
1E6
102
}
100
AcDbDictionary
  3
CEPSNTYPE
350
393
  3
DIMSTYLEDATA
350
397
  3
FINGERPRINTGUID
350
394
  3
HYPERLINKBASE
350
38C
  3
INSUNITS
350
392
  3
LAYOUTDICT
350
38E
  3
LWETCUNION
350
391
  3
PLOTSETDICT
350
38F
  3
PLOTSTYLNAMDICT
350
390
  3
PSVPSCALE
350
396
  3
PUCSBASE
350
39A
  3
PUCSORGBACK
350
3A0
  3
PUCSORGBOTTOM
350
39C
  3
PUCSORGFRONT
350
39F
  3
PUCSORGLEFT
350
39D
  3
PUCSORGRIGHT
350
39E
  3
PUCSORGTOP
350
39B
  3
PUCSORTHOREF
350
398
  3
PUCSORTHOVIEW
350
399
  3
STYLESHEET
350
38D
  3
TSTACKALIGN
350
38A
  3
TSTACKSIZE
350
38B
  3
UCSBASE
350
3A3
  3
UCSORGBACK
350
3A9
  3
UCSORGBOTTOM
350
3A5
  3
UCSORGFRONT
350
3A8
  3
UCSORGLEFT
350
3A6
  3
UCSORGRIGHT
350
3A7
  3
UCSORGTOP
350
3A4
  3
UCSORTHOREF
350
3A1
  3
UCSORTHOVIEW
350
3A2
  3
VERSIONGUID
350
395
  0
DICTIONARY
  5
3B2
102
{ACAD_REACTORS
330
1E6
102
}
100
AcDbDictionary
  3
DIMASSOC
350
3B3
  0
XRECORD
  5
388
102
{ACAD_REACTORS
330
387
102
}
100
AcDbXrecord
102
EXTNAMES
  1
*ACTIVE
  2
*Active
102
UCS
 74
     0
 71
     0
 10
0.0
 20
0.0
 30
0.0
 10
1.0
 20
0.0
 30
0.0
 10
0.0
 20
1.0
 30
0.0
146
0.0
 79
     0
102
VIEW
281
     0
  0
XRECORD
  5
384
102
{ACAD_REACTORS
330
383
102
}
100
AcDbXrecord
102
EXTNAMES
  1
BYBLOCK
  2
ByBlock
  0
XRECORD
  5
386
102
{ACAD_REACTORS
330
385
102
}
100
AcDbXrecord
102
EXTNAMES
  1
BYLAYER
  2
ByLayer
  0
XRECORD
  5
3B1
102
{ACAD_REACTORS
330
3B0
102
}
100
AcDbXrecord
102
ACADR14ROUNDTRIP
1000
DSTYLE
1002
{
1070
   279
 70
     2
1002
}
  0
XRECORD
  5
3AF
102
{ACAD_REACTORS
330
37F
102
}
100
AcDbXrecord
340
1F8
  0
XRECORD
  5
380
102
{ACAD_REACTORS
330
37F
102
}
100
AcDbXrecord
102
EXTNAMES
  1
*MODEL_SPACE
  2
*Model_Space
  0
XRECORD
  5
3AE
102
{ACAD_REACTORS
330
381
102
}
100
AcDbXrecord
340
1F4
  0
XRECORD
  5
382
102
{ACAD_REACTORS
330
381
102
}
100
AcDbXrecord
102
EXTNAMES
  1
*PAPER_SPACE
  2
*Paper_Space
  0
DICTIONARY
  5
3AC
100
AcDbDictionary
280
     1
  3
ACAD_XREC_ROUNDTRIP
360
3AD
  0
ACAD_PROXY_OBJECT
  5
1FB
102
{ACAD_REACTORS
330
1F3
102
}
100
AcDbProxyObject
 90
      499
 91
      502
 93
      836
310
932433A5C50524F4752414D2046494C45535C4D4454365C706C6F74746572735C526F6C616E64204458592D313235302E7063332C01AAAAAAAAA5A69054D6F64656C901A800000000000000000000000000000000000000000000A1000000000000008902A6A6AAAAF
330
1F8
330
0
340
0
340
0
 94
        0
  0
ACAD_PROXY_OBJECT
  5
1F7
102
{ACAD_REACTORS
330
1F3
102
}
100
AcDbProxyObject
 90
      499
 91
      502
 93
     1244
310
932433A5C50524F4752414D2046494C45535C4D4454365C706C6F74746572735C526F6C616E64204458592D313235302E7063332C00AAAAAA416AA59106906DAB2B1B3C431406A800000000000000000000000000000000000000000101E900000000000241C902A6A6A10232D5E076BC5510408CB5781DAF154410232D5E0
310
76BC5510408CB5781DAF15C410232D5E076BC5710408CB5781DAF15C40
330
1F4
330
0
340
0
340
0
 94
        0
  0
DICTIONARY
  5
3AA
100
AcDbDictionary
280
     1
  3
ACAD_XREC_ROUNDTRIP
360
3AB
  0
MLINESTYLE
  5
1F1
102
{ACAD_REACTORS
330
1F0
102
}
100
AcDbMlineStyle
  2
STANDARD
 70
     0
  3

 62
   256
 51
90.0
 52
90.0
 71
     2
 49
0.5
 62
   256
  6
BYLAYER
 49
-0.5
 62
   256
  6
BYLAYER
  0
ACAD_PROXY_OBJECT
  5
1E9
102
{ACAD_REACTORS
330
1E8
102
}
100
AcDbProxyObject
 90
      499
 91
      501
 93
        0
 94
        0
  0
XRECORD
  5
393
102
{ACAD_REACTORS
330
389
102
}
100
AcDbXrecord
 90
        0
  0
XRECORD
  5
397
102
{ACAD_REACTORS
330
389
102
}
100
AcDbXrecord
1000
DSTYLE
1002
{
1070
   341
340
208
1070
   342
340
208
1002
}
  0
XRECORD
  5
394
102
{ACAD_REACTORS
330
389
102
}
100
AcDbXrecord
  1
{CB01C570-D336-44E4-84E7-06AAFE9C45F5}
  0
XRECORD
  5
38C
102
{ACAD_REACTORS
330
389
102
}
100
AcDbXrecord
  1

  0
XRECORD
  5
392
102
{ACAD_REACTORS
330
389
102
}
100
AcDbXrecord
 90
        0
  0
XRECORD
  5
38E
102
{ACAD_REACTORS
330
389
102
}
100
AcDbXrecord
340
1F3
  0
XRECORD
  5
391
102
{ACAD_REACTORS
330
389
102
}
100
AcDbXrecord
 90
    10781
  0
XRECORD
  5
38F
102
{ACAD_REACTORS
330
389
102
}
100
AcDbXrecord
340
1F2
  0
XRECORD
  5
390
102
{ACAD_REACTORS
330
389
102
}
100
AcDbXrecord
340
1E8
  0
XRECORD
  5
396
102
{ACAD_REACTORS
330
389
102
}
100
AcDbXrecord
 40
0.0
  0
XRECORD
  5
39A
102
{ACAD_REACTORS
330
389
102
}
100
AcDbXrecord
340
0
  0
XRECORD
  5
3A0
102
{ACAD_REACTORS
330
389
102
}
100
AcDbXrecord
 10
0.0
 20
0.0
 30
0.0
  0
XRECORD
  5
39C
102
{ACAD_REACTORS
330
389
102
}
100
AcDbXrecord
 10
0.0
 20
0.0
 30
0.0
  0
XRECORD
  5
39F
102
{ACAD_REACTORS
330
389
102
}
100
AcDbXrecord
 10
0.0
 20
0.0
 30
0.0
  0
XRECORD
  5
39D
102
{ACAD_REACTORS
330
389
102
}
100
AcDbXrecord
 10
0.0
 20
0.0
 30
0.0
  0
XRECORD
  5
39E
102
{ACAD_REACTORS
330
389
102
}
100
AcDbXrecord
 10
0.0
 20
0.0
 30
0.0
  0
XRECORD
  5
39B
102
{ACAD_REACTORS
330
389
102
}
100
AcDbXrecord
 10
0.0
 20
0.0
 30
0.0
  0
XRECORD
  5
398
102
{ACAD_REACTORS
330
389
102
}
100
AcDbXrecord
340
0
  0
XRECORD
  5
399
102
{ACAD_REACTORS
330
389
102
}
100
AcDbXrecord
 70
     0
  0
XRECORD
  5
38D
102
{ACAD_REACTORS
330
389
102
}
100
AcDbXrecord
  1

  0
XRECORD
  5
38A
102
{ACAD_REACTORS
330
389
102
}
100
AcDbXrecord
 90
        1
  0
XRECORD
  5
38B
102
{ACAD_REACTORS
330
389
102
}
100
AcDbXrecord
 90
       70
  0
XRECORD
  5
3A3
102
{ACAD_REACTORS
330
389
102
}
100
AcDbXrecord
340
0
  0
XRECORD
  5
3A9
102
{ACAD_REACTORS
330
389
102
}
100
AcDbXrecord
 10
0.0
 20
0.0
 30
0.0
  0
XRECORD
  5
3A5
102
{ACAD_REACTORS
330
389
102
}
100
AcDbXrecord
 10
0.0
 20
0.0
 30
0.0
  0
XRECORD
  5
3A8
102
{ACAD_REACTORS
330
389
102
}
100
AcDbXrecord
 10
0.0
 20
0.0
 30
0.0
  0
XRECORD
  5
3A6
102
{ACAD_REACTORS
330
389
102
}
100
AcDbXrecord
 10
0.0
 20
0.0
 30
0.0
  0
XRECORD
  5
3A7
102
{ACAD_REACTORS
330
389
102
}
100
AcDbXrecord
 10
0.0
 20
0.0
 30
0.0
  0
XRECORD
  5
3A4
102
{ACAD_REACTORS
330
389
102
}
100
AcDbXrecord
 10
0.0
 20
0.0
 30
0.0
  0
XRECORD
  5
3A1
102
{ACAD_REACTORS
330
389
102
}
100
AcDbXrecord
340
0
  0
XRECORD
  5
3A2
102
{ACAD_REACTORS
330
389
102
}
100
AcDbXrecord
 70
     0
  0
XRECORD
  5
395
102
{ACAD_REACTORS
330
389
102
}
100
AcDbXrecord
  1
{5473FB22-5CCE-4C09-B4C3-CE8686749405}
  0
DICTIONARYVAR
  5
3B3
102
{ACAD_REACTORS
330
3B2
102
}
100
DictionaryVariables
280
     0
  1
1
  0
XRECORD
  5
3AD
102
{ACAD_REACTORS
330
3AC
102
}
100
AcDbXrecord
102
EXTNAMES
  1
MODEL
  2
Model
  0
XRECORD
  5
3AB
102
{ACAD_REACTORS
330
3AA
102
}
100
AcDbXrecord
102
EXTNAMES
  1
STANDARD
  2
Standard
  0
ENDSEC
  0
EOF
