  0
SECTION
  2
HEADER
  9
$ACADVER
  1
AC1014
  9
$ACADMAINTVER
 70
     0
  9
$DWGCODEPAGE
  3
ANSI_932
  9
$INSBASE
 10
0.0
 20
0.0
 30
0.0
  9
$EXTMIN
 10
77.326645
 20
72.385937
 30
0.0
  9
$EXTMAX
 10
239.115355
 20
135.659946
 30
0.0
  9
$LIMMIN
 10
0.0
 20
0.0
  9
$LIMMAX
 10
297.0
 20
210.0
  9
$ORTHOMODE
 70
     1
  9
$REGENMODE
 70
     1
  9
$FILLMODE
 70
     1
  9
$QTEXTMODE
 70
     0
  9
$MIRRTEXT
 70
     1
  9
$DRAGMODE
 70
     2
  9
$LTSCALE
 40
0.25
  9
$OSMODE
 70
    37
  9
$ATTMODE
 70
     1
  9
$TEXTSIZE
 40
4.0
  9
$TRACEWID
 40
1.0
  9
$TEXTSTYLE
  7
STANDARD
  9
$CLAYER
  8
0
  9
$CELTYPE
  6
BYLAYER
  9
$CECOLOR
 62
   256
  9
$CELTSCALE
 40
1.0
  9
$DELOBJ
 70
     1
  9
$DISPSILH
 70
     0
  9
$DIMSCALE
 40
1.0
  9
$DIMASZ
 40
3.0
  9
$DIMEXO
 40
1.0
  9
$DIMDLI
 40
10.0
  9
$DIMRND
 40
0.0
  9
$DIMDLE
 40
0.0
  9
$DIMEXE
 40
1.0
  9
$DIMTP
 40
0.0
  9
$DIMTM
 40
0.0
  9
$DIMTXT
 40
3.2
  9
$DIMCEN
 40
0.0
  9
$DIMTSZ
 40
0.0
  9
$DIMTOL
 70
     0
  9
$DIMLIM
 70
     0
  9
$DIMTIH
 70
     0
  9
$DIMTOH
 70
     0
  9
$DIMSE1
 70
     0
  9
$DIMSE2
 70
     0
  9
$DIMTAD
 70
     3
  9
$DIMZIN
 70
     8
  9
$DIMBLK
  1
ARROW
  9
$DIMASO
 70
     1
  9
$DIMSHO
 70
     1
  9
$DIMPOST
  1

  9
$DIMAPOST
  1

  9
$DIMALT
 70
     0
  9
$DIMALTD
 70
     2
  9
$DIMALTF
 40
0.04
  9
$DIMLFAC
 40
1.0
  9
$DIMTOFL
 70
     1
  9
$DIMTVP
 40
1.0
  9
$DIMTIX
 70
     0
  9
$DIMSOXD
 70
     0
  9
$DIMSAH
 70
     0
  9
$DIMBLK1
  1

  9
$DIMBLK2
  1

  9
$DIMSTYLE
  2
AA1
  9
$DIMCLRD
 70
     0
  9
$DIMCLRE
 70
     0
  9
$DIMCLRT
 70
     0
  9
$DIMTFAC
 40
0.6
  9
$DIMGAP
 40
1.0
  9
$DIMJUST
 70
     0
  9
$DIMSD1
 70
     0
  9
$DIMSD2
 70
     0
  9
$DIMTOLJ
 70
     1
  9
$DIMTZIN
 70
     0
  9
$DIMALTZ
 70
     0
  9
$DIMALTTZ
 70
     0
  9
$DIMFIT
 70
     3
  9
$DIMUPT
 70
     0
  9
$DIMUNIT
 70
     2
  9
$DIMDEC
 70
     4
  9
$DIMTDEC
 70
     4
  9
$DIMALTU
 70
     2
  9
$DIMALTTD
 70
     2
  9
$DIMTXSTY
  7
STANDARD
  9
$DIMAUNIT
 70
     0
  9
$LUNITS
 70
     2
  9
$LUPREC
 70
     2
  9
$SKETCHINC
 40
1.0
  9
$FILLETRAD
 40
10.0
  9
$AUNITS
 70
     0
  9
$AUPREC
 70
     0
  9
$MENU
  1
acad
  9
$ELEVATION
 40
0.0
  9
$PELEVATION
 40
0.0
  9
$THICKNESS
 40
0.0
  9
$LIMCHECK
 70
     0
  9
$BLIPMODE
 70
     0
  9
$CHAMFERA
 40
0.0
  9
$CHAMFERB
 40
0.0
  9
$CHAMFERC
 40
0.0
  9
$CHAMFERD
 40
0.0
  9
$SKPOLY
 70
     0
  9
$TDCREATE
 40
2451466.578144791
  9
$TDUPDATE
 40
2452821.802014467
  9
$TDINDWG
 40
0.0041316551
  9
$TDUSRTIMER
 40
0.0041316551
  9
$USRTIMER
 70
     1
  9
$ANGBASE
 50
0.0
  9
$ANGDIR
 70
     0
  9
$PDMODE
 70
     1
  9
$PDSIZE
 40
0.0
  9
$PLINEWID
 40
0.0
  9
$COORDS
 70
     1
  9
$SPLFRAME
 70
     0
  9
$SPLINETYPE
 70
     6
  9
$SPLINESEGS
 70
     8
  9
$ATTDIA
 70
     0
  9
$ATTREQ
 70
     1
  9
$HANDLING
 70
     1
  9
$HANDSEED
  5
3D1
  9
$SURFTAB1
 70
     6
  9
$SURFTAB2
 70
     6
  9
$SURFTYPE
 70
     6
  9
$SURFU
 70
     6
  9
$SURFV
 70
     6
  9
$UCSNAME
  2

  9
$UCSORG
 10
0.0
 20
0.0
 30
0.0
  9
$UCSXDIR
 10
1.0
 20
0.0
 30
0.0
  9
$UCSYDIR
 10
0.0
 20
1.0
 30
0.0
  9
$PUCSNAME
  2

  9
$PUCSORG
 10
0.0
 20
0.0
 30
0.0
  9
$PUCSXDIR
 10
1.0
 20
0.0
 30
0.0
  9
$PUCSYDIR
 10
0.0
 20
1.0
 30
0.0
  9
$USERI1
 70
     0
  9
$USERI2
 70
     0
  9
$USERI3
 70
     0
  9
$USERI4
 70
     0
  9
$USERI5
 70
     0
  9
$USERR1
 40
0.0
  9
$USERR2
 40
0.0
  9
$USERR3
 40
0.0
  9
$USERR4
 40
0.0
  9
$USERR5
 40
0.0
  9
$WORLDVIEW
 70
     1
  9
$SHADEDGE
 70
     3
  9
$SHADEDIF
 70
    70
  9
$TILEMODE
 70
     1
  9
$MAXACTVP
 70
    16
  9
$PINSBASE
 10
0.0
 20
0.0
 30
0.0
  9
$PLIMCHECK
 70
     0
  9
$PEXTMIN
 10
1.000000E+20
 20
1.000000E+20
 30
1.000000E+20
  9
$PEXTMAX
 10
-1.000000E+20
 20
-1.000000E+20
 30
-1.000000E+20
  9
$PLIMMIN
 10
0.0
 20
0.0
  9
$PLIMMAX
 10
420.0
 20
297.0
  9
$UNITMODE
 70
     0
  9
$VISRETAIN
 70
     0
  9
$PLINEGEN
 70
     0
  9
$PSLTSCALE
 70
     0
  9
$TREEDEPTH
 70
  3020
  9
$PICKSTYLE
 70
     1
  9
$CMLSTYLE
  2
STANDARD
  9
$CMLJUST
 70
     0
  9
$CMLSCALE
 40
1.0
  9
$PROXYGRAPHICS
 70
     1
  9
$MEASUREMENT
 70
     0
  0
ENDSEC
  0
SECTION
  2
CLASSES
  0
CLASS
  1
ACDBDICTIONARYWDFLT
  2
AcDbDictionaryWithDefault
  3
AutoCAD 2000
 90
        0
280
     0
281
     0
  0
CLASS
  1
ACDBPLACEHOLDER
  2
AcDbPlaceHolder
  3
AutoCAD 2000
 90
        0
280
     0
281
     0
  0
CLASS
  1
LAYOUT
  2
AcDbLayout
  3
AutoCAD 2000
 90
        0
280
     0
281
     0
  0
CLASS
  1
DICTIONARYVAR
  2
AcDbDictionaryVar
  3
"AutoCAD"
 90
        0
280
     0
281
     0
  0
CLASS
  1
LONG_TRANSACTION
  2
AcDbLongTransaction
  3
AutoCAD 2000
 90
        0
280
     0
281
     0
  0
CLASS
  1
LWPOLYLINE
  2
AcDbPolyline
  3
"AutoCAD"
 90
        0
280
     0
281
     1
  0
CLASS
  1
HATCH
  2
AcDbHatch
  3
"ACAD_SEDONA"
 90
        0
280
     0
281
     1
  0
CLASS
  1
XRECORD
  2
AcDbXrecord
  3
"<Built In>"
 90
        0
280
     0
281
     0
  0
ENDSEC
  0
SECTION
  2
TABLES
  0
TABLE
  2
VPORT
  5
204
100
AcDbSymbolTable
 70
     1
  0
VPORT
  5
398
102
{ACAD_XDICTIONARY
360
3A1
102
}
100
AcDbSymbolTableRecord
100
AcDbViewportTableRecord
  2
*ACTIVE
 70
     0
 10
0.0
 20
0.0
 11
1.0
 21
1.0
 12
148.445279
 22
92.760845
 13
0.0
 23
0.0
 14
10.0
 24
10.0
 15
0.0
 25
0.0
 16
0.0
 26
0.0
 36
1.0
 17
0.0
 27
0.0
 37
0.0
 40
176.989103
 41
1.570997
 42
50.0
 43
0.0
 44
0.0
 50
0.0
 51
0.0
 71
     0
 72
   100
 73
     1
 74
     0
 75
     0
 76
     0
 77
     0
 78
     1
  0
ENDTAB
  0
TABLE
  2
LTYPE
  5
201
100
AcDbSymbolTable
 70
     2
  0
LTYPE
  5
20F
102
{ACAD_XDICTIONARY
360
39D
102
}
100
AcDbSymbolTableRecord
100
AcDbLinetypeTableRecord
  2
BYBLOCK
 70
     0
  3

 72
    65
 73
     0
 40
0.0
  0
LTYPE
  5
210
102
{ACAD_XDICTIONARY
360
39F
102
}
100
AcDbSymbolTableRecord
100
AcDbLinetypeTableRecord
  2
BYLAYER
 70
     0
  3

 72
    65
 73
     0
 40
0.0
  0
LTYPE
  5
211
100
AcDbSymbolTableRecord
100
AcDbLinetypeTableRecord
  2
CONTINUOUS
 70
     0
  3
Solid line
 72
    65
 73
     0
 40
0.0
  0
LTYPE
  5
21F
100
AcDbSymbolTableRecord
100
AcDbLinetypeTableRecord
  2
CENTER
 70
     0
  3
____ _ ____ _ ____ _ ____ _ ____ _ ____ _ ____ 
 72
    65
 73
     4
 40
50.8
 49
31.75
 74
     0
 49
-6.35
 74
     0
 49
6.35
 74
     0
 49
-6.35
 74
     0
  0
ENDTAB
  0
TABLE
  2
LAYER
  5
1FE
100
AcDbSymbolTable
 70
     3
  0
LAYER
  5
20C
100
AcDbSymbolTableRecord
100
AcDbLayerTableRecord
  2
0
 70
     0
 62
     7
  6
CONTINUOUS
  0
LAYER
  5
220
100
AcDbSymbolTableRecord
100
AcDbLayerTableRecord
  2
DIMENSION
 70
     0
 62
    -4
  6
CONTINUOUS
  0
LAYER
  5
221
100
AcDbSymbolTableRecord
100
AcDbLayerTableRecord
  2
CENTER
 70
     0
 62
     1
  6
CENTER
  0
ENDTAB
  0
TABLE
  2
STYLE
  5
1FF
100
AcDbSymbolTable
 70
     1
  0
STYLE
  5
20D
100
AcDbSymbolTableRecord
100
AcDbTextStyleTableRecord
  2
STANDARD
 70
     0
 40
0.0
 41
1.0
 50
0.0
 71
     0
 42
4.0
  3
txt
  4

  0
ENDTAB
  0
TABLE
  2
VIEW
  5
202
100
AcDbSymbolTable
 70
     0
  0
ENDTAB
  0
TABLE
  2
UCS
  5
203
100
AcDbSymbolTable
 70
     0
  0
ENDTAB
  0
TABLE
  2
APPID
  5
205
100
AcDbSymbolTable
 70
     1
  0
APPID
  5
20E
100
AcDbSymbolTableRecord
100
AcDbRegAppTableRecord
  2
ACAD
 70
     0
  0
ENDTAB
  0
TABLE
  2
DIMSTYLE
  5
206
100
AcDbSymbolTable
 70
     1
  0
DIMSTYLE
105
222
102
{ACAD_XDICTIONARY
360
3CA
102
}
100
AcDbSymbolTableRecord
100
AcDbDimStyleTableRecord
  2
AA1
 70
     0
  3

  4

  5

  6

  7

 40
1.0
 41
3.0
 42
1.0
 43
10.0
 44
1.0
 45
0.0
 46
0.0
 47
0.0
 48
0.0
140
3.2
141
0.0
142
0.0
143
0.04
144
1.0
145
1.0
146
0.6
147
0.0
 71
     0
 72
     0
 73
     0
 74
     0
 75
     0
 76
     0
 77
     0
 78
     8
170
     0
171
     2
172
     1
173
     0
174
     0
175
     0
176
     0
177
     0
178
     0
270
     2
271
     2
272
     2
273
     2
274
     2
340
20D
275
     0
280
     0
281
     0
282
     0
283
     1
284
     8
285
     8
286
     8
287
     5
288
     0
  0
ENDTAB
  0
TABLE
  2
BLOCK_RECORD
  5
1FD
100
AcDbSymbolTable
 70
     3
  0
BLOCK_RECORD
  5
21A
102
{ACAD_XDICTIONARY
360
399
102
}
100
AcDbSymbolTableRecord
100
AcDbBlockTableRecord
  2
*MODEL_SPACE
  0
BLOCK_RECORD
  5
216
102
{ACAD_XDICTIONARY
360
39B
102
}
100
AcDbSymbolTableRecord
100
AcDbBlockTableRecord
  2
*PAPER_SPACE
  0
BLOCK_RECORD
  5
224
100
AcDbSymbolTableRecord
100
AcDbBlockTableRecord
  2
$MODEL_SPACE
  0
BLOCK_RECORD
  5
227
100
AcDbSymbolTableRecord
100
AcDbBlockTableRecord
  2
$PAPER_SPACE
  0
BLOCK_RECORD
  5
22A
100
AcDbSymbolTableRecord
100
AcDbBlockTableRecord
  2
ARROW
  0
ENDTAB
  0
ENDSEC
  0
SECTION
  2
BLOCKS
  0
BLOCK
  5
21B
100
AcDbEntity
  8
0
100
AcDbBlockBegin
  2
*MODEL_SPACE
 70
     0
 10
0.0
 20
0.0
 30
0.0
  3
*MODEL_SPACE
  1

  0
ENDBLK
  5
21C
100
AcDbEntity
  8
0
100
AcDbBlockEnd
  0
BLOCK
  5
217
100
AcDbEntity
 67
     1
  8
0
100
AcDbBlockBegin
  2
*PAPER_SPACE
 70
     0
 10
0.0
 20
0.0
 30
0.0
  3
*PAPER_SPACE
  1

  0
ENDBLK
  5
218
100
AcDbEntity
 67
     1
  8
0
100
AcDbBlockEnd
  0
BLOCK
  5
225
100
AcDbEntity
  8
0
100
AcDbBlockBegin
  2
$MODEL_SPACE
 70
     0
 10
0.0
 20
0.0
 30
0.0
  3
$MODEL_SPACE
  1

  0
ENDBLK
  5
226
100
AcDbEntity
  8
0
100
AcDbBlockEnd
  0
BLOCK
  5
228
100
AcDbEntity
  8
0
100
AcDbBlockBegin
  2
$PAPER_SPACE
 70
     0
 10
0.0
 20
0.0
 30
0.0
  3
$PAPER_SPACE
  1

  0
ENDBLK
  5
229
100
AcDbEntity
  8
0
100
AcDbBlockEnd
  0
BLOCK
  5
22B
100
AcDbEntity
  8
0
100
AcDbBlockBegin
  2
ARROW
 70
     0
 10
0.0
 20
0.0
 30
0.0
  3
ARROW
  1

  0
LINE
  5
22C
100
AcDbEntity
  8
DIMENSION
100
AcDbLine
 10
0.0
 20
0.0
 30
0.0
 11
-1.0
 21
0.176327
 31
0.0
  0
LINE
  5
22D
100
AcDbEntity
  8
DIMENSION
100
AcDbLine
 10
0.0
 20
0.0
 30
0.0
 11
-1.0
 21
-0.176327
 31
0.0
  0
LINE
  5
22E
100
AcDbEntity
  8
DIMENSION
100
AcDbLine
 10
-1.0
 20
0.0
 30
0.0
 11
0.0
 21
0.0
 31
0.0
  0
ENDBLK
  5
22F
100
AcDbEntity
  8
0
100
AcDbBlockEnd
  0
ENDSEC
  0
SECTION
  2
ENTITIES
  0
LINE
  5
230
100
AcDbEntity
  8
0
100
AcDbLine
 10
94.739184
 20
89.022941
 30
0.0
 11
94.739184
 21
119.022941
 31
0.0
  0
LINE
  5
231
100
AcDbEntity
  8
0
100
AcDbLine
 10
83.439184
 20
120.872941
 30
0.0
 11
83.439184
 21
87.172941
 31
0.0
  0
LINE
  5
232
100
AcDbEntity
  8
0
100
AcDbLine
 10
84.739184
 20
120.872941
 30
0.0
 11
84.739184
 21
87.172941
 31
0.0
  0
LINE
  5
233
100
AcDbEntity
  8
0
100
AcDbLine
 10
125.339184
 20
120.872941
 30
0.0
 11
125.339184
 21
87.172941
 31
0.0
  0
LINE
  5
234
100
AcDbEntity
  8
0
100
AcDbLine
 10
124.039184
 20
120.872941
 30
0.0
 11
124.039184
 21
87.172941
 31
0.0
  0
LINE
  5
235
100
AcDbEntity
  8
0
100
AcDbLine
 10
126.889184
 20
85.022941
 30
0.0
 11
126.889184
 21
123.022941
 31
0.0
  0
LINE
  5
236
100
AcDbEntity
  8
0
100
AcDbLine
 10
114.039184
 20
89.022941
 30
0.0
 11
114.039184
 21
119.022941
 31
0.0
  0
LINE
  5
237
100
AcDbEntity
  8
0
100
AcDbLine
 10
81.889184
 20
85.022941
 30
0.0
 11
81.889184
 21
123.022941
 31
0.0
  0
LINE
  5
23A
100
AcDbEntity
  8
CENTER
  6
CENTER
 62
     1
100
AcDbLine
 10
130.130767
 20
104.022941
 30
0.0
 11
77.326645
 21
104.022941
 31
0.0
  0
LINE
  5
23B
100
AcDbEntity
  8
CENTER
  6
CENTER
 62
     1
100
AcDbLine
 10
95.889184
 20
80.022941
 30
0.0
 11
105.889184
 21
80.022941
 31
0.0
  0
LINE
  5
23C
100
AcDbEntity
  8
0
100
AcDbLine
 10
104.889184
 20
84.022941
 30
0.0
 11
100.789184
 21
84.022941
 31
0.0
  0
LINE
  5
23D
100
AcDbEntity
  8
0
100
AcDbLine
 10
104.889184
 20
75.022941
 30
0.0
 11
96.889184
 21
75.022941
 31
0.0
  0
LINE
  5
23E
100
AcDbEntity
  8
0
100
AcDbLine
 10
104.889184
 20
76.022941
 30
0.0
 11
100.789184
 21
76.022941
 31
0.0
  0
LINE
  5
23F
100
AcDbEntity
  8
0
100
AcDbLine
 10
114.039184
 20
91.022941
 30
0.0
 11
94.739184
 21
91.022941
 31
0.0
  0
ARC
  5
240
100
AcDbEntity
  8
0
100
AcDbCircle
 10
93.739184
 20
89.022941
 30
0.0
 40
1.0
100
AcDbArc
 50
270.0
 51
0.0
  0
ARC
  5
241
100
AcDbEntity
  8
0
100
AcDbCircle
 10
85.739184
 20
89.022941
 30
0.0
 40
1.0
100
AcDbArc
 50
180.0
 51
270.0
  0
LINE
  5
242
100
AcDbEntity
  8
0
100
AcDbLine
 10
93.739184
 20
88.022941
 30
0.0
 11
84.739184
 21
88.022941
 31
0.0
  0
LINE
  5
243
100
AcDbEntity
  8
0
100
AcDbLine
 10
96.889184
 20
85.022941
 30
0.0
 11
81.889184
 21
85.022941
 31
0.0
  0
LINE
  5
244
100
AcDbEntity
  8
0
100
AcDbLine
 10
83.439184
 20
87.172941
 30
0.0
 11
84.739184
 21
87.172941
 31
0.0
  0
LINE
  5
245
100
AcDbEntity
  8
0
100
AcDbLine
 10
83.439184
 20
88.022941
 30
0.0
 11
81.889184
 21
88.022941
 31
0.0
  0
LINE
  5
246
100
AcDbEntity
  8
0
100
AcDbLine
 10
100.789184
 20
76.022941
 30
0.0
 11
100.789184
 21
84.022941
 31
0.0
  0
LINE
  5
247
100
AcDbEntity
  8
0
100
AcDbLine
 10
96.889184
 20
75.022941
 30
0.0
 11
96.889184
 21
85.022941
 31
0.0
  0
LINE
  5
248
100
AcDbEntity
  8
0
100
AcDbLine
 10
100.789184
 20
77.772941
 30
0.0
 11
96.889184
 21
77.772941
 31
0.0
  0
LINE
  5
249
100
AcDbEntity
  8
0
100
AcDbLine
 10
100.789184
 20
82.272941
 30
0.0
 11
96.889184
 21
82.272941
 31
0.0
  0
LINE
  5
24A
100
AcDbEntity
  8
0
100
AcDbLine
 10
93.739184
 20
98.022941
 30
0.0
 11
85.739184
 21
98.022941
 31
0.0
  0
CIRCLE
  5
24B
100
AcDbEntity
  8
0
100
AcDbCircle
 10
89.739184
 20
93.022941
 30
0.0
 40
2.77815
  0
CIRCLE
  5
24C
100
AcDbEntity
  8
0
100
AcDbCircle
 10
89.739184
 20
93.022941
 30
0.0
 40
2.77815
  0
LINE
  5
24D
100
AcDbEntity
  8
0
100
AcDbLine
 10
83.439184
 20
90.672941
 30
0.0
 11
84.739184
 21
90.672941
 31
0.0
  0
LINE
  5
24E
100
AcDbEntity
  8
0
100
AcDbLine
 10
85.172184
 20
92.139961
 30
0.0
 11
85.172184
 21
94.922961
 31
0.0
  0
LINE
  5
24F
100
AcDbEntity
  8
0
100
AcDbLine
 10
85.372184
 20
92.222951
 30
0.0
 11
85.372184
 21
94.922951
 31
0.0
  0
LINE
  5
250
100
AcDbEntity
  8
0
100
AcDbLine
 10
85.452194
 20
90.751971
 30
0.0
 11
85.702513
 21
90.453649
 31
0.0
  0
LINE
  5
251
100
AcDbEntity
  8
0
100
AcDbLine
 10
85.477204
 20
91.033001
 30
0.0
 11
85.605194
 21
90.880001
 31
0.0
  0
LINE
  5
252
100
AcDbEntity
  8
0
100
AcDbLine
 10
85.605184
 20
90.879971
 30
0.0
 11
85.452194
 21
90.751971
 31
0.0
  0
ARC
  5
253
100
AcDbEntity
  8
0
100
AcDbCircle
 10
84.839184
 20
90.522961
 30
0.0
 40
0.1
100
AcDbArc
 50
90.0
 51
180.0
  0
LINE
  5
254
100
AcDbEntity
  8
0
100
AcDbLine
 10
84.839184
 20
90.622961
 30
0.0
 11
85.299194
 21
90.622961
 31
0.0
  0
ARC
  5
255
100
AcDbEntity
  8
0
100
AcDbCircle
 10
85.452412
 20
90.751508
 30
0.0
 40
0.2
100
AcDbArc
 50
129.912973
 51
219.998813
  0
LINE
  5
256
100
AcDbEntity
  8
0
100
AcDbLine
 10
85.477174
 20
91.032971
 30
0.0
 11
85.324087
 21
90.904912
 31
0.0
  0
LINE
  5
257
100
AcDbEntity
  8
0
100
AcDbLine
 10
85.2992
 20
90.622954
 30
0.0
 11
85.548829
 21
90.325445
 31
0.0
  0
ARC
  5
258
100
AcDbEntity
  8
0
100
AcDbCircle
 10
86.241785
 20
91.222961
 30
0.0
 40
0.1
100
AcDbArc
 50
90.0
 51
175.003171
  0
LINE
  5
259
100
AcDbEntity
  8
0
100
AcDbLine
 10
86.077506
 20
90.492146
 30
0.0
 11
86.142165
 21
91.231671
 31
0.0
  0
LINE
  5
25A
100
AcDbEntity
  8
0
100
AcDbLine
 10
85.878997
 20
90.513008
 30
0.0
 11
85.922194
 21
91.390021
 31
0.0
  0
LINE
  5
25B
100
AcDbEntity
  8
0
100
AcDbLine
 10
86.122184
 20
91.002951
 30
0.0
 11
86.122184
 21
91.472951
 31
0.0
  0
LINE
  5
25C
100
AcDbEntity
  8
0
100
AcDbLine
 10
86.122174
 20
91.472971
 30
0.0
 11
85.372164
 21
92.222981
 31
0.0
  0
LINE
  5
25D
100
AcDbEntity
  8
0
100
AcDbLine
 10
85.922174
 20
91.389991
 30
0.0
 11
85.172164
 21
92.140011
 31
0.0
  0
ARC
  5
25E
100
AcDbEntity
  8
0
100
AcDbCircle
 10
85.778646
 20
90.518277
 30
0.0
 40
0.3
100
AcDbArc
 50
219.998813
 51
355.003171
  0
ARC
  5
25F
100
AcDbEntity
  8
0
100
AcDbCircle
 10
85.779118
 20
90.517928
 30
0.0
 40
0.1
100
AcDbArc
 50
219.999779
 51
357.180215
  0
LINE
  5
260
100
AcDbEntity
  8
0
100
AcDbLine
 10
86.241785
 20
91.322961
 30
0.0
 11
87.541884
 21
91.322961
 31
0.0
  0
ARC
  5
261
100
AcDbEntity
  8
0
100
AcDbCircle
 10
86.377277
 20
94.922951
 30
0.0
 40
0.2
100
AcDbArc
 50
200.008355
 51
270.0
  0
LINE
  5
262
100
AcDbEntity
  8
0
100
AcDbLine
 10
85.822184
 20
94.922951
 30
0.0
 11
85.372184
 21
94.922951
 31
0.0
  0
LINE
  5
263
100
AcDbEntity
  8
0
100
AcDbLine
 10
85.372184
 20
95.122961
 30
0.0
 11
85.822184
 21
95.122961
 31
0.0
  0
ARC
  5
264
100
AcDbEntity
  8
0
100
AcDbCircle
 10
85.668025
 20
95.522951
 30
0.0
 40
0.2
100
AcDbArc
 50
90.0
 51
140.004804
  0
LINE
  5
265
100
AcDbEntity
  8
0
100
AcDbLine
 10
85.822184
 20
95.122961
 30
0.0
 11
85.822184
 21
94.922951
 31
0.0
  0
LINE
  5
266
100
AcDbEntity
  8
0
100
AcDbLine
 10
85.668025
 20
95.722951
 30
0.0
 11
85.733103
 21
95.722951
 31
0.0
  0
ARC
  5
267
100
AcDbEntity
  8
0
100
AcDbCircle
 10
85.372184
 20
94.922961
 30
0.0
 40
0.2
100
AcDbArc
 50
90.0
 51
180.0
  0
ARC
  5
268
100
AcDbEntity
  8
0
100
AcDbCircle
 10
84.939184
 20
95.522961
 30
0.0
 40
0.2
100
AcDbArc
 50
180.0
 51
270.0
  0
LINE
  5
269
100
AcDbEntity
  8
0
100
AcDbLine
 10
84.939184
 20
95.322961
 30
0.0
 11
85.239184
 21
95.322961
 31
0.0
  0
LINE
  5
26A
100
AcDbEntity
  8
0
100
AcDbLine
 10
85.239204
 20
95.322991
 30
0.0
 11
85.514805
 21
95.651496
 31
0.0
  0
LINE
  5
26B
100
AcDbEntity
  8
0
100
AcDbLine
 10
85.921031
 20
95.591383
 30
0.0
 11
86.189349
 21
94.85452
 31
0.0
  0
ARC
  5
26C
100
AcDbEntity
  8
0
100
AcDbCircle
 10
85.733103
 20
95.522951
 30
0.0
 40
0.2
100
AcDbArc
 50
20.008355
 51
90.0
  0
LINE
  5
26D
100
AcDbEntity
  8
0
100
AcDbLine
 10
86.377277
 20
94.722951
 30
0.0
 11
87.541884
 21
94.722951
 31
0.0
  0
ARC
  5
26E
100
AcDbEntity
  8
0
100
AcDbCircle
 10
85.739184
 20
97.022941
 30
0.0
 40
1.0
100
AcDbArc
 50
90.0
 51
180.0
  0
LINE
  5
26F
100
AcDbEntity
  8
0
100
AcDbLine
 10
94.106184
 20
92.222951
 30
0.0
 11
94.106184
 21
94.922951
 31
0.0
  0
LINE
  5
270
100
AcDbEntity
  8
0
100
AcDbLine
 10
94.306184
 20
92.139961
 30
0.0
 11
94.306184
 21
94.922961
 31
0.0
  0
LINE
  5
271
100
AcDbEntity
  8
0
100
AcDbLine
 10
93.356194
 20
91.472971
 30
0.0
 11
94.106204
 21
92.222981
 31
0.0
  0
ARC
  5
272
100
AcDbEntity
  8
0
100
AcDbCircle
 10
93.699721
 20
90.518277
 30
0.0
 40
0.3
100
AcDbArc
 50
184.996829
 51
320.001187
  0
LINE
  5
273
100
AcDbEntity
  8
0
100
AcDbLine
 10
93.400861
 20
90.492146
 30
0.0
 11
93.336202
 21
91.231671
 31
0.0
  0
LINE
  5
274
100
AcDbEntity
  8
0
100
AcDbLine
 10
93.356184
 20
91.002951
 30
0.0
 11
93.356184
 21
91.472951
 31
0.0
  0
ARC
  5
275
100
AcDbEntity
  8
0
100
AcDbCircle
 10
93.236583
 20
91.222961
 30
0.0
 40
0.1
100
AcDbArc
 50
4.996829
 51
90.0
  0
LINE
  5
276
100
AcDbEntity
  8
0
100
AcDbLine
 10
93.236583
 20
91.322961
 30
0.0
 11
91.936484
 21
91.322961
 31
0.0
  0
LINE
  5
277
100
AcDbEntity
  8
0
100
AcDbLine
 10
93.556194
 20
91.389991
 30
0.0
 11
94.306204
 21
92.140011
 31
0.0
  0
ARC
  5
278
100
AcDbEntity
  8
0
100
AcDbCircle
 10
93.699249
 20
90.517928
 30
0.0
 40
0.1
100
AcDbArc
 50
182.819785
 51
320.000221
  0
LINE
  5
279
100
AcDbEntity
  8
0
100
AcDbLine
 10
93.873184
 20
90.879971
 30
0.0
 11
94.026174
 21
90.751971
 31
0.0
  0
LINE
  5
27A
100
AcDbEntity
  8
0
100
AcDbLine
 10
94.001164
 20
91.033001
 30
0.0
 11
93.873174
 21
90.880001
 31
0.0
  0
LINE
  5
27B
100
AcDbEntity
  8
0
100
AcDbLine
 10
94.001194
 20
91.032971
 30
0.0
 11
94.15428
 21
90.904912
 31
0.0
  0
ARC
  5
27C
100
AcDbEntity
  8
0
100
AcDbCircle
 10
94.025956
 20
90.751508
 30
0.0
 40
0.2
100
AcDbArc
 50
320.001187
 51
50.087027
  0
LINE
  5
27D
100
AcDbEntity
  8
0
100
AcDbLine
 10
94.179167
 20
90.622954
 30
0.0
 11
93.929538
 21
90.325445
 31
0.0
  0
LINE
  5
27E
100
AcDbEntity
  8
0
100
AcDbLine
 10
94.026174
 20
90.751971
 30
0.0
 11
93.775854
 21
90.453649
 31
0.0
  0
LINE
  5
27F
100
AcDbEntity
  8
0
100
AcDbLine
 10
93.59937
 20
90.513008
 30
0.0
 11
93.556174
 21
91.390021
 31
0.0
  0
ARC
  5
280
100
AcDbEntity
  8
0
100
AcDbCircle
 10
94.639184
 20
90.522961
 30
0.0
 40
0.1
100
AcDbArc
 50
0.0
 51
90.0
  0
LINE
  5
281
100
AcDbEntity
  8
0
100
AcDbLine
 10
94.639184
 20
90.622961
 30
0.0
 11
94.179174
 21
90.622961
 31
0.0
  0
LINE
  5
282
100
AcDbEntity
  8
0
100
AcDbLine
 10
93.557336
 20
95.591383
 30
0.0
 11
93.289018
 21
94.85452
 31
0.0
  0
ARC
  5
283
100
AcDbEntity
  8
0
100
AcDbCircle
 10
93.10109
 20
94.922951
 30
0.0
 40
0.2
100
AcDbArc
 50
270.0
 51
339.991645
  0
LINE
  5
284
100
AcDbEntity
  8
0
100
AcDbLine
 10
93.10109
 20
94.722951
 30
0.0
 11
91.936484
 21
94.722951
 31
0.0
  0
LINE
  5
285
100
AcDbEntity
  8
0
100
AcDbLine
 10
93.656184
 20
94.922951
 30
0.0
 11
94.106184
 21
94.922951
 31
0.0
  0
LINE
  5
286
100
AcDbEntity
  8
0
100
AcDbLine
 10
94.106184
 20
95.122961
 30
0.0
 11
93.656184
 21
95.122961
 31
0.0
  0
LINE
  5
287
100
AcDbEntity
  8
0
100
AcDbLine
 10
93.810343
 20
95.722951
 30
0.0
 11
93.745265
 21
95.722951
 31
0.0
  0
ARC
  5
288
100
AcDbEntity
  8
0
100
AcDbCircle
 10
94.106184
 20
94.922961
 30
0.0
 40
0.2
100
AcDbArc
 50
0.0
 51
90.0
  0
ARC
  5
289
100
AcDbEntity
  8
0
100
AcDbCircle
 10
93.810343
 20
95.522951
 30
0.0
 40
0.2
100
AcDbArc
 50
39.995196
 51
90.0
  0
LINE
  5
28A
100
AcDbEntity
  8
0
100
AcDbLine
 10
94.239164
 20
95.322991
 30
0.0
 11
93.963562
 21
95.651496
 31
0.0
  0
LINE
  5
28B
100
AcDbEntity
  8
0
100
AcDbLine
 10
93.656184
 20
95.122961
 30
0.0
 11
93.656184
 21
94.922951
 31
0.0
  0
ARC
  5
28C
100
AcDbEntity
  8
0
100
AcDbCircle
 10
93.745265
 20
95.522951
 30
0.0
 40
0.2
100
AcDbArc
 50
90.0
 51
159.991645
  0
ARC
  5
28D
100
AcDbEntity
  8
0
100
AcDbCircle
 10
94.539184
 20
95.522961
 30
0.0
 40
0.2
100
AcDbArc
 50
270.0
 51
0.0
  0
LINE
  5
28E
100
AcDbEntity
  8
0
100
AcDbLine
 10
94.539184
 20
95.322961
 30
0.0
 11
94.239184
 21
95.322961
 31
0.0
  0
ARC
  5
28F
100
AcDbEntity
  8
0
100
AcDbCircle
 10
93.739184
 20
97.022941
 30
0.0
 40
1.0
100
AcDbArc
 50
0.0
 51
90.0
  0
LINE
  5
290
100
AcDbEntity
  8
0
100
AcDbLine
 10
125.339184
 20
90.672941
 30
0.0
 11
124.039184
 21
90.672941
 31
0.0
  0
LINE
  5
291
100
AcDbEntity
  8
0
100
AcDbLine
 10
125.339184
 20
87.172941
 30
0.0
 11
124.039184
 21
87.172941
 31
0.0
  0
LINE
  5
292
100
AcDbEntity
  8
0
100
AcDbLine
 10
126.889184
 20
85.022941
 30
0.0
 11
104.889184
 21
85.022941
 31
0.0
  0
ARC
  5
293
100
AcDbEntity
  8
0
100
AcDbCircle
 10
123.039184
 20
89.022941
 30
0.0
 40
1.0
100
AcDbArc
 50
270.0
 51
360.0
  0
ARC
  5
294
100
AcDbEntity
  8
0
100
AcDbCircle
 10
115.039184
 20
89.022941
 30
0.0
 40
1.0
100
AcDbArc
 50
180.0
 51
270.0
  0
LINE
  5
295
100
AcDbEntity
  8
0
100
AcDbLine
 10
104.889184
 20
75.022941
 30
0.0
 11
104.889184
 21
85.022941
 31
0.0
  0
LINE
  5
296
100
AcDbEntity
  8
0
100
AcDbLine
 10
115.039184
 20
88.022941
 30
0.0
 11
124.039184
 21
88.022941
 31
0.0
  0
CIRCLE
  5
297
100
AcDbEntity
  8
0
100
AcDbCircle
 10
119.039184
 20
93.022941
 30
0.0
 40
2.77815
  0
CIRCLE
  5
298
100
AcDbEntity
  8
0
100
AcDbCircle
 10
119.039184
 20
93.022941
 30
0.0
 40
2.77815
  0
LINE
  5
299
100
AcDbEntity
  8
0
100
AcDbLine
 10
114.472184
 20
92.139961
 30
0.0
 11
114.472184
 21
94.922961
 31
0.0
  0
LINE
  5
29A
100
AcDbEntity
  8
0
100
AcDbLine
 10
114.672184
 20
92.222951
 30
0.0
 11
114.672184
 21
94.922951
 31
0.0
  0
LINE
  5
29B
100
AcDbEntity
  8
0
100
AcDbLine
 10
115.541785
 20
91.322961
 30
0.0
 11
116.841884
 21
91.322961
 31
0.0
  0
ARC
  5
29C
100
AcDbEntity
  8
0
100
AcDbCircle
 10
115.541785
 20
91.222961
 30
0.0
 40
0.1
100
AcDbArc
 50
90.0
 51
175.003171
  0
LINE
  5
29D
100
AcDbEntity
  8
0
100
AcDbLine
 10
115.377506
 20
90.492146
 30
0.0
 11
115.442165
 21
91.231671
 31
0.0
  0
LINE
  5
29E
100
AcDbEntity
  8
0
100
AcDbLine
 10
115.178997
 20
90.513008
 30
0.0
 11
115.222194
 21
91.390021
 31
0.0
  0
LINE
  5
29F
100
AcDbEntity
  8
0
100
AcDbLine
 10
115.422184
 20
91.002951
 30
0.0
 11
115.422184
 21
91.472951
 31
0.0
  0
ARC
  5
2A0
100
AcDbEntity
  8
0
100
AcDbCircle
 10
114.139184
 20
90.522961
 30
0.0
 40
0.1
100
AcDbArc
 50
90.0
 51
180.0
  0
LINE
  5
2A1
100
AcDbEntity
  8
0
100
AcDbLine
 10
114.139184
 20
90.622961
 30
0.0
 11
114.599194
 21
90.622961
 31
0.0
  0
LINE
  5
2A2
100
AcDbEntity
  8
0
100
AcDbLine
 10
114.752194
 20
90.751971
 30
0.0
 11
115.002513
 21
90.453649
 31
0.0
  0
LINE
  5
2A3
100
AcDbEntity
  8
0
100
AcDbLine
 10
114.5992
 20
90.622954
 30
0.0
 11
114.848829
 21
90.325445
 31
0.0
  0
ARC
  5
2A4
100
AcDbEntity
  8
0
100
AcDbCircle
 10
114.752412
 20
90.751508
 30
0.0
 40
0.2
100
AcDbArc
 50
129.912973
 51
219.998813
  0
LINE
  5
2A5
100
AcDbEntity
  8
0
100
AcDbLine
 10
114.777174
 20
91.032971
 30
0.0
 11
114.624087
 21
90.904912
 31
0.0
  0
LINE
  5
2A6
100
AcDbEntity
  8
0
100
AcDbLine
 10
114.777204
 20
91.033001
 30
0.0
 11
114.905194
 21
90.880001
 31
0.0
  0
LINE
  5
2A7
100
AcDbEntity
  8
0
100
AcDbLine
 10
114.905184
 20
90.879971
 30
0.0
 11
114.752194
 21
90.751971
 31
0.0
  0
ARC
  5
2A8
100
AcDbEntity
  8
0
100
AcDbCircle
 10
115.079118
 20
90.517928
 30
0.0
 40
0.1
100
AcDbArc
 50
219.999779
 51
357.180215
  0
ARC
  5
2A9
100
AcDbEntity
  8
0
100
AcDbCircle
 10
115.078646
 20
90.518277
 30
0.0
 40
0.3
100
AcDbArc
 50
219.998813
 51
355.003171
  0
LINE
  5
2AA
100
AcDbEntity
  8
0
100
AcDbLine
 10
115.422174
 20
91.472971
 30
0.0
 11
114.672164
 21
92.222981
 31
0.0
  0
LINE
  5
2AB
100
AcDbEntity
  8
0
100
AcDbLine
 10
115.222174
 20
91.389991
 30
0.0
 11
114.472164
 21
92.140011
 31
0.0
  0
LINE
  5
2AC
100
AcDbEntity
  8
0
100
AcDbLine
 10
115.677277
 20
94.722951
 30
0.0
 11
116.841884
 21
94.722951
 31
0.0
  0
ARC
  5
2AD
100
AcDbEntity
  8
0
100
AcDbCircle
 10
115.033103
 20
95.522951
 30
0.0
 40
0.2
100
AcDbArc
 50
20.008355
 51
90.0
  0
ARC
  5
2AE
100
AcDbEntity
  8
0
100
AcDbCircle
 10
115.677277
 20
94.922951
 30
0.0
 40
0.2
100
AcDbArc
 50
200.008355
 51
270.0
  0
LINE
  5
2AF
100
AcDbEntity
  8
0
100
AcDbLine
 10
115.221031
 20
95.591383
 30
0.0
 11
115.489349
 21
94.85452
 31
0.0
  0
LINE
  5
2B0
100
AcDbEntity
  8
0
100
AcDbLine
 10
115.122184
 20
95.122961
 30
0.0
 11
115.122184
 21
94.922951
 31
0.0
  0
ARC
  5
2B1
100
AcDbEntity
  8
0
100
AcDbCircle
 10
114.239184
 20
95.522961
 30
0.0
 40
0.2
100
AcDbArc
 50
180.0
 51
270.0
  0
LINE
  5
2B2
100
AcDbEntity
  8
0
100
AcDbLine
 10
114.539204
 20
95.322991
 30
0.0
 11
114.814805
 21
95.651496
 31
0.0
  0
ARC
  5
2B3
100
AcDbEntity
  8
0
100
AcDbCircle
 10
114.968025
 20
95.522951
 30
0.0
 40
0.2
100
AcDbArc
 50
90.0
 51
140.004804
  0
LINE
  5
2B4
100
AcDbEntity
  8
0
100
AcDbLine
 10
114.239184
 20
95.322961
 30
0.0
 11
114.539184
 21
95.322961
 31
0.0
  0
ARC
  5
2B5
100
AcDbEntity
  8
0
100
AcDbCircle
 10
114.672184
 20
94.922961
 30
0.0
 40
0.2
100
AcDbArc
 50
90.0
 51
180.0
  0
LINE
  5
2B6
100
AcDbEntity
  8
0
100
AcDbLine
 10
114.968025
 20
95.722951
 30
0.0
 11
115.033103
 21
95.722951
 31
0.0
  0
LINE
  5
2B7
100
AcDbEntity
  8
0
100
AcDbLine
 10
114.672184
 20
95.122961
 30
0.0
 11
115.122184
 21
95.122961
 31
0.0
  0
LINE
  5
2B8
100
AcDbEntity
  8
0
100
AcDbLine
 10
115.122184
 20
94.922951
 30
0.0
 11
114.672184
 21
94.922951
 31
0.0
  0
LINE
  5
2B9
100
AcDbEntity
  8
0
100
AcDbLine
 10
123.406184
 20
92.222951
 30
0.0
 11
123.406184
 21
94.922951
 31
0.0
  0
LINE
  5
2BA
100
AcDbEntity
  8
0
100
AcDbLine
 10
123.606184
 20
92.139961
 30
0.0
 11
123.606184
 21
94.922961
 31
0.0
  0
LINE
  5
2BB
100
AcDbEntity
  8
0
100
AcDbLine
 10
122.536583
 20
91.322961
 30
0.0
 11
121.236484
 21
91.322961
 31
0.0
  0
LINE
  5
2BC
100
AcDbEntity
  8
0
100
AcDbLine
 10
123.479167
 20
90.622954
 30
0.0
 11
123.229538
 21
90.325445
 31
0.0
  0
LINE
  5
2BD
100
AcDbEntity
  8
0
100
AcDbLine
 10
123.301194
 20
91.032971
 30
0.0
 11
123.45428
 21
90.904912
 31
0.0
  0
ARC
  5
2BE
100
AcDbEntity
  8
0
100
AcDbCircle
 10
123.325956
 20
90.751508
 30
0.0
 40
0.2
100
AcDbArc
 50
320.001187
 51
50.087027
  0
LINE
  5
2BF
100
AcDbEntity
  8
0
100
AcDbLine
 10
123.939184
 20
90.622961
 30
0.0
 11
123.479174
 21
90.622961
 31
0.0
  0
ARC
  5
2C0
100
AcDbEntity
  8
0
100
AcDbCircle
 10
123.939184
 20
90.522961
 30
0.0
 40
0.1
100
AcDbArc
 50
360.0
 51
90.0
  0
LINE
  5
2C1
100
AcDbEntity
  8
0
100
AcDbLine
 10
122.656184
 20
91.002951
 30
0.0
 11
122.656184
 21
91.472951
 31
0.0
  0
LINE
  5
2C2
100
AcDbEntity
  8
0
100
AcDbLine
 10
122.89937
 20
90.513008
 30
0.0
 11
122.856174
 21
91.390021
 31
0.0
  0
ARC
  5
2C3
100
AcDbEntity
  8
0
100
AcDbCircle
 10
122.999249
 20
90.517928
 30
0.0
 40
0.1
100
AcDbArc
 50
182.819785
 51
320.000221
  0
LINE
  5
2C4
100
AcDbEntity
  8
0
100
AcDbLine
 10
122.700861
 20
90.492146
 30
0.0
 11
122.636202
 21
91.231671
 31
0.0
  0
ARC
  5
2C5
100
AcDbEntity
  8
0
100
AcDbCircle
 10
122.536583
 20
91.222961
 30
0.0
 40
0.1
100
AcDbArc
 50
4.996829
 51
90.0
  0
LINE
  5
2C6
100
AcDbEntity
  8
0
100
AcDbLine
 10
123.173184
 20
90.879971
 30
0.0
 11
123.326174
 21
90.751971
 31
0.0
  0
LINE
  5
2C7
100
AcDbEntity
  8
0
100
AcDbLine
 10
123.301164
 20
91.033001
 30
0.0
 11
123.173174
 21
90.880001
 31
0.0
  0
LINE
  5
2C8
100
AcDbEntity
  8
0
100
AcDbLine
 10
123.326174
 20
90.751971
 30
0.0
 11
123.075854
 21
90.453649
 31
0.0
  0
ARC
  5
2C9
100
AcDbEntity
  8
0
100
AcDbCircle
 10
122.999721
 20
90.518277
 30
0.0
 40
0.3
100
AcDbArc
 50
184.996829
 51
320.001187
  0
LINE
  5
2CA
100
AcDbEntity
  8
0
100
AcDbLine
 10
122.856194
 20
91.389991
 30
0.0
 11
123.606204
 21
92.140011
 31
0.0
  0
LINE
  5
2CB
100
AcDbEntity
  8
0
100
AcDbLine
 10
122.656194
 20
91.472971
 30
0.0
 11
123.406204
 21
92.222981
 31
0.0
  0
LINE
  5
2CC
100
AcDbEntity
  8
0
100
AcDbLine
 10
122.40109
 20
94.722951
 30
0.0
 11
121.236484
 21
94.722951
 31
0.0
  0
LINE
  5
2CD
100
AcDbEntity
  8
0
100
AcDbLine
 10
123.539164
 20
95.322991
 30
0.0
 11
123.263562
 21
95.651496
 31
0.0
  0
LINE
  5
2CE
100
AcDbEntity
  8
0
100
AcDbLine
 10
123.839184
 20
95.322961
 30
0.0
 11
123.539184
 21
95.322961
 31
0.0
  0
ARC
  5
2CF
100
AcDbEntity
  8
0
100
AcDbCircle
 10
123.839184
 20
95.522961
 30
0.0
 40
0.2
100
AcDbArc
 50
270.0
 51
360.0
  0
ARC
  5
2D0
100
AcDbEntity
  8
0
100
AcDbCircle
 10
123.406184
 20
94.922961
 30
0.0
 40
0.2
100
AcDbArc
 50
360.0
 51
90.0
  0
ARC
  5
2D1
100
AcDbEntity
  8
0
100
AcDbCircle
 10
123.045265
 20
95.522951
 30
0.0
 40
0.2
100
AcDbArc
 50
90.0
 51
159.991645
  0
LINE
  5
2D2
100
AcDbEntity
  8
0
100
AcDbLine
 10
123.110343
 20
95.722951
 30
0.0
 11
123.045265
 21
95.722951
 31
0.0
  0
ARC
  5
2D3
100
AcDbEntity
  8
0
100
AcDbCircle
 10
122.40109
 20
94.922951
 30
0.0
 40
0.2
100
AcDbArc
 50
270.0
 51
339.991645
  0
LINE
  5
2D4
100
AcDbEntity
  8
0
100
AcDbLine
 10
122.956184
 20
95.122961
 30
0.0
 11
122.956184
 21
94.922951
 31
0.0
  0
LINE
  5
2D5
100
AcDbEntity
  8
0
100
AcDbLine
 10
122.857336
 20
95.591383
 30
0.0
 11
122.589018
 21
94.85452
 31
0.0
  0
ARC
  5
2D6
100
AcDbEntity
  8
0
100
AcDbCircle
 10
123.110343
 20
95.522951
 30
0.0
 40
0.2
100
AcDbArc
 50
39.995196
 51
90.0
  0
LINE
  5
2D7
100
AcDbEntity
  8
0
100
AcDbLine
 10
123.406184
 20
95.122961
 30
0.0
 11
122.956184
 21
95.122961
 31
0.0
  0
LINE
  5
2D8
100
AcDbEntity
  8
0
100
AcDbLine
 10
122.956184
 20
94.922951
 30
0.0
 11
123.406184
 21
94.922951
 31
0.0
  0
LINE
  5
2D9
100
AcDbEntity
  8
0
100
AcDbLine
 10
115.039184
 20
98.022941
 30
0.0
 11
123.039184
 21
98.022941
 31
0.0
  0
ARC
  5
2DA
100
AcDbEntity
  8
0
100
AcDbCircle
 10
115.039184
 20
97.022941
 30
0.0
 40
1.0
100
AcDbArc
 50
90.0
 51
180.0
  0
ARC
  5
2DB
100
AcDbEntity
  8
0
100
AcDbCircle
 10
123.039184
 20
97.022941
 30
0.0
 40
1.0
100
AcDbArc
 50
360.0
 51
90.0
  0
LINE
  5
2DC
100
AcDbEntity
  8
0
100
AcDbLine
 10
125.339184
 20
88.022941
 30
0.0
 11
126.889184
 21
88.022941
 31
0.0
  0
LINE
  5
2DD
100
AcDbEntity
  8
CENTER
  6
CENTER
 62
     1
100
AcDbLine
 10
95.889184
 20
128.022941
 30
0.0
 11
105.889184
 21
128.022941
 31
0.0
  0
LINE
  5
2DE
100
AcDbEntity
  8
0
100
AcDbLine
 10
114.039184
 20
117.022941
 30
0.0
 11
94.739184
 21
117.022941
 31
0.0
  0
LINE
  5
2DF
100
AcDbEntity
  8
0
100
AcDbLine
 10
104.889184
 20
124.022941
 30
0.0
 11
100.789184
 21
124.022941
 31
0.0
  0
LINE
  5
2E0
100
AcDbEntity
  8
0
100
AcDbLine
 10
104.889184
 20
132.022941
 30
0.0
 11
100.789184
 21
132.022941
 31
0.0
  0
LINE
  5
2E1
100
AcDbEntity
  8
0
100
AcDbLine
 10
104.889184
 20
133.022941
 30
0.0
 11
96.889184
 21
133.022941
 31
0.0
  0
LINE
  5
2E2
100
AcDbEntity
  8
0
100
AcDbLine
 10
93.739184
 20
120.022941
 30
0.0
 11
84.739184
 21
120.022941
 31
0.0
  0
LINE
  5
2E3
100
AcDbEntity
  8
0
100
AcDbLine
 10
93.739184
 20
110.022941
 30
0.0
 11
85.739184
 21
110.022941
 31
0.0
  0
CIRCLE
  5
2E4
100
AcDbEntity
  8
0
100
AcDbCircle
 10
89.739184
 20
115.022941
 30
0.0
 40
2.77815
  0
CIRCLE
  5
2E5
100
AcDbEntity
  8
0
100
AcDbCircle
 10
89.739184
 20
115.022941
 30
0.0
 40
2.77815
  0
ARC
  5
2E6
100
AcDbEntity
  8
0
100
AcDbCircle
 10
86.377277
 20
113.122931
 30
0.0
 40
0.2
100
AcDbArc
 50
90.0
 51
159.991645
  0
LINE
  5
2E7
100
AcDbEntity
  8
0
100
AcDbLine
 10
85.372184
 20
115.822931
 30
0.0
 11
85.372184
 21
113.122931
 31
0.0
  0
LINE
  5
2E8
100
AcDbEntity
  8
0
100
AcDbLine
 10
85.172184
 20
115.905921
 30
0.0
 11
85.172184
 21
113.122921
 31
0.0
  0
ARC
  5
2E9
100
AcDbEntity
  8
0
100
AcDbCircle
 10
85.739184
 20
111.022941
 30
0.0
 40
1.0
100
AcDbArc
 50
180.0
 51
270.0
  0
LINE
  5
2EA
100
AcDbEntity
  8
0
100
AcDbLine
 10
85.239204
 20
112.722891
 30
0.0
 11
85.514805
 21
112.394387
 31
0.0
  0
ARC
  5
2EB
100
AcDbEntity
  8
0
100
AcDbCircle
 10
85.668025
 20
112.522931
 30
0.0
 40
0.2
100
AcDbArc
 50
219.995196
 51
270.0
  0
LINE
  5
2EC
100
AcDbEntity
  8
0
100
AcDbLine
 10
85.668025
 20
112.322931
 30
0.0
 11
85.733103
 21
112.322931
 31
0.0
  0
LINE
  5
2ED
100
AcDbEntity
  8
0
100
AcDbLine
 10
85.372184
 20
112.922921
 30
0.0
 11
85.822184
 21
112.922921
 31
0.0
  0
LINE
  5
2EE
100
AcDbEntity
  8
0
100
AcDbLine
 10
85.822184
 20
113.122931
 30
0.0
 11
85.372184
 21
113.122931
 31
0.0
  0
LINE
  5
2EF
100
AcDbEntity
  8
0
100
AcDbLine
 10
85.822184
 20
112.922921
 30
0.0
 11
85.822184
 21
113.122931
 31
0.0
  0
LINE
  5
2F0
100
AcDbEntity
  8
0
100
AcDbLine
 10
84.939184
 20
112.722921
 30
0.0
 11
85.239184
 21
112.722921
 31
0.0
  0
ARC
  5
2F1
100
AcDbEntity
  8
0
100
AcDbCircle
 10
84.939184
 20
112.522921
 30
0.0
 40
0.2
100
AcDbArc
 50
90.0
 51
180.0
  0
ARC
  5
2F2
100
AcDbEntity
  8
0
100
AcDbCircle
 10
85.372184
 20
113.122921
 30
0.0
 40
0.2
100
AcDbArc
 50
180.0
 51
270.0
  0
LINE
  5
2F3
100
AcDbEntity
  8
0
100
AcDbLine
 10
85.921031
 20
112.4545
 30
0.0
 11
86.189349
 21
113.191363
 31
0.0
  0
ARC
  5
2F4
100
AcDbEntity
  8
0
100
AcDbCircle
 10
85.733103
 20
112.522931
 30
0.0
 40
0.2
100
AcDbArc
 50
270.0
 51
339.991645
  0
LINE
  5
2F5
100
AcDbEntity
  8
0
100
AcDbLine
 10
83.439184
 20
117.372941
 30
0.0
 11
84.739184
 21
117.372941
 31
0.0
  0
ARC
  5
2F6
100
AcDbEntity
  8
0
100
AcDbCircle
 10
85.739184
 20
119.022941
 30
0.0
 40
1.0
100
AcDbArc
 50
90.0
 51
180.0
  0
LINE
  5
2F7
100
AcDbEntity
  8
0
100
AcDbLine
 10
83.439184
 20
120.872941
 30
0.0
 11
84.739184
 21
120.872941
 31
0.0
  0
LINE
  5
2F8
100
AcDbEntity
  8
0
100
AcDbLine
 10
83.439184
 20
120.022941
 30
0.0
 11
81.889184
 21
120.022941
 31
0.0
  0
LINE
  5
2F9
100
AcDbEntity
  8
0
100
AcDbLine
 10
85.452194
 20
117.293911
 30
0.0
 11
85.702513
 21
117.592233
 31
0.0
  0
LINE
  5
2FA
100
AcDbEntity
  8
0
100
AcDbLine
 10
85.878997
 20
117.532874
 30
0.0
 11
85.922194
 21
116.655861
 31
0.0
  0
LINE
  5
2FB
100
AcDbEntity
  8
0
100
AcDbLine
 10
86.077506
 20
117.553736
 30
0.0
 11
86.142165
 21
116.814211
 31
0.0
  0
ARC
  5
2FC
100
AcDbEntity
  8
0
100
AcDbCircle
 10
85.452412
 20
117.294374
 30
0.0
 40
0.2
100
AcDbArc
 50
140.001187
 51
230.087027
  0
LINE
  5
2FD
100
AcDbEntity
  8
0
100
AcDbLine
 10
85.605184
 20
117.165911
 30
0.0
 11
85.452194
 21
117.293911
 31
0.0
  0
LINE
  5
2FE
100
AcDbEntity
  8
0
100
AcDbLine
 10
85.477204
 20
117.012881
 30
0.0
 11
85.605194
 21
117.165881
 31
0.0
  0
LINE
  5
2FF
100
AcDbEntity
  8
0
100
AcDbLine
 10
85.477174
 20
117.012911
 30
0.0
 11
85.324087
 21
117.14097
 31
0.0
  0
LINE
  5
300
100
AcDbEntity
  8
0
100
AcDbLine
 10
86.122184
 20
117.042931
 30
0.0
 11
86.122184
 21
116.572931
 31
0.0
  0
ARC
  5
301
100
AcDbEntity
  8
0
100
AcDbCircle
 10
86.241785
 20
116.822921
 30
0.0
 40
0.1
100
AcDbArc
 50
184.996829
 51
270.0
  0
LINE
  5
302
100
AcDbEntity
  8
0
100
AcDbLine
 10
85.922174
 20
116.655891
 30
0.0
 11
85.172164
 21
115.905871
 31
0.0
  0
LINE
  5
303
100
AcDbEntity
  8
0
100
AcDbLine
 10
86.122174
 20
116.572911
 30
0.0
 11
85.372164
 21
115.822901
 31
0.0
  0
LINE
  5
304
100
AcDbEntity
  8
0
100
AcDbLine
 10
86.241785
 20
116.722921
 30
0.0
 11
87.541884
 21
116.722921
 31
0.0
  0
LINE
  5
305
100
AcDbEntity
  8
0
100
AcDbLine
 10
86.377277
 20
113.322931
 30
0.0
 11
87.541884
 21
113.322931
 31
0.0
  0
LINE
  5
306
100
AcDbEntity
  8
0
100
AcDbLine
 10
85.2992
 20
117.422929
 30
0.0
 11
85.548829
 21
117.720437
 31
0.0
  0
LINE
  5
307
100
AcDbEntity
  8
0
100
AcDbLine
 10
84.839184
 20
117.422921
 30
0.0
 11
85.299194
 21
117.422921
 31
0.0
  0
ARC
  5
308
100
AcDbEntity
  8
0
100
AcDbCircle
 10
84.839184
 20
117.522921
 30
0.0
 40
0.1
100
AcDbArc
 50
180.0
 51
270.0
  0
ARC
  5
309
100
AcDbEntity
  8
0
100
AcDbCircle
 10
85.778646
 20
117.527606
 30
0.0
 40
0.3
100
AcDbArc
 50
4.996829
 51
140.001187
  0
ARC
  5
30A
100
AcDbEntity
  8
0
100
AcDbCircle
 10
85.779118
 20
117.527955
 30
0.0
 40
0.1
100
AcDbArc
 50
2.819785
 51
140.000221
  0
LINE
  5
30B
100
AcDbEntity
  8
0
100
AcDbLine
 10
94.306184
 20
115.905921
 30
0.0
 11
94.306184
 21
113.122921
 31
0.0
  0
LINE
  5
30C
100
AcDbEntity
  8
0
100
AcDbLine
 10
94.106184
 20
115.822931
 30
0.0
 11
94.106184
 21
113.122931
 31
0.0
  0
ARC
  5
30D
100
AcDbEntity
  8
0
100
AcDbCircle
 10
93.10109
 20
113.122931
 30
0.0
 40
0.2
100
AcDbArc
 50
20.008355
 51
90.0
  0
LINE
  5
30E
100
AcDbEntity
  8
0
100
AcDbLine
 10
93.557336
 20
112.4545
 30
0.0
 11
93.289018
 21
113.191363
 31
0.0
  0
LINE
  5
30F
100
AcDbEntity
  8
0
100
AcDbLine
 10
94.239164
 20
112.722891
 30
0.0
 11
93.963562
 21
112.394387
 31
0.0
  0
ARC
  5
310
100
AcDbEntity
  8
0
100
AcDbCircle
 10
93.745265
 20
112.522931
 30
0.0
 40
0.2
100
AcDbArc
 50
200.008355
 51
270.0
  0
LINE
  5
311
100
AcDbEntity
  8
0
100
AcDbLine
 10
93.810343
 20
112.322931
 30
0.0
 11
93.745265
 21
112.322931
 31
0.0
  0
ARC
  5
312
100
AcDbEntity
  8
0
100
AcDbCircle
 10
93.810343
 20
112.522931
 30
0.0
 40
0.2
100
AcDbArc
 50
270.0
 51
320.004804
  0
LINE
  5
313
100
AcDbEntity
  8
0
100
AcDbLine
 10
94.106184
 20
112.922921
 30
0.0
 11
93.656184
 21
112.922921
 31
0.0
  0
LINE
  5
314
100
AcDbEntity
  8
0
100
AcDbLine
 10
93.656184
 20
113.122931
 30
0.0
 11
94.106184
 21
113.122931
 31
0.0
  0
ARC
  5
315
100
AcDbEntity
  8
0
100
AcDbCircle
 10
94.106184
 20
113.122921
 30
0.0
 40
0.2
100
AcDbArc
 50
270.0
 51
0.0
  0
LINE
  5
316
100
AcDbEntity
  8
0
100
AcDbLine
 10
93.656184
 20
112.922921
 30
0.0
 11
93.656184
 21
113.122931
 31
0.0
  0
ARC
  5
317
100
AcDbEntity
  8
0
100
AcDbCircle
 10
94.539184
 20
112.522921
 30
0.0
 40
0.2
100
AcDbArc
 50
0.0
 51
90.0
  0
ARC
  5
318
100
AcDbEntity
  8
0
100
AcDbCircle
 10
93.739184
 20
111.022941
 30
0.0
 40
1.0
100
AcDbArc
 50
270.0
 51
0.0
  0
LINE
  5
319
100
AcDbEntity
  8
0
100
AcDbLine
 10
94.539184
 20
112.722921
 30
0.0
 11
94.239184
 21
112.722921
 31
0.0
  0
LINE
  5
31A
100
AcDbEntity
  8
0
100
AcDbLine
 10
94.026174
 20
117.293911
 30
0.0
 11
93.775854
 21
117.592233
 31
0.0
  0
ARC
  5
31B
100
AcDbEntity
  8
0
100
AcDbCircle
 10
94.025956
 20
117.294374
 30
0.0
 40
0.2
100
AcDbArc
 50
309.912973
 51
39.998813
  0
LINE
  5
31C
100
AcDbEntity
  8
0
100
AcDbLine
 10
93.400861
 20
117.553736
 30
0.0
 11
93.336202
 21
116.814211
 31
0.0
  0
LINE
  5
31D
100
AcDbEntity
  8
0
100
AcDbLine
 10
93.59937
 20
117.532874
 30
0.0
 11
93.556174
 21
116.655861
 31
0.0
  0
LINE
  5
31E
100
AcDbEntity
  8
0
100
AcDbLine
 10
93.356194
 20
116.572911
 30
0.0
 11
94.106204
 21
115.822901
 31
0.0
  0
ARC
  5
31F
100
AcDbEntity
  8
0
100
AcDbCircle
 10
93.236583
 20
116.822921
 30
0.0
 40
0.1
100
AcDbArc
 50
270.0
 51
355.003171
  0
LINE
  5
320
100
AcDbEntity
  8
0
100
AcDbLine
 10
93.356184
 20
117.042931
 30
0.0
 11
93.356184
 21
116.572931
 31
0.0
  0
LINE
  5
321
100
AcDbEntity
  8
0
100
AcDbLine
 10
93.10109
 20
113.322931
 30
0.0
 11
91.936484
 21
113.322931
 31
0.0
  0
LINE
  5
322
100
AcDbEntity
  8
0
100
AcDbLine
 10
93.236583
 20
116.722921
 30
0.0
 11
91.936484
 21
116.722921
 31
0.0
  0
LINE
  5
323
100
AcDbEntity
  8
0
100
AcDbLine
 10
93.556194
 20
116.655891
 30
0.0
 11
94.306204
 21
115.905871
 31
0.0
  0
LINE
  5
324
100
AcDbEntity
  8
0
100
AcDbLine
 10
94.001194
 20
117.012911
 30
0.0
 11
94.15428
 21
117.14097
 31
0.0
  0
LINE
  5
325
100
AcDbEntity
  8
0
100
AcDbLine
 10
94.001164
 20
117.012881
 30
0.0
 11
93.873174
 21
117.165881
 31
0.0
  0
LINE
  5
326
100
AcDbEntity
  8
0
100
AcDbLine
 10
93.873184
 20
117.165911
 30
0.0
 11
94.026174
 21
117.293911
 31
0.0
  0
ARC
  5
327
100
AcDbEntity
  8
0
100
AcDbCircle
 10
93.699721
 20
117.527606
 30
0.0
 40
0.3
100
AcDbArc
 50
39.998813
 51
175.003171
  0
ARC
  5
328
100
AcDbEntity
  8
0
100
AcDbCircle
 10
93.699249
 20
117.527955
 30
0.0
 40
0.1
100
AcDbArc
 50
39.999779
 51
177.180215
  0
LINE
  5
329
100
AcDbEntity
  8
0
100
AcDbLine
 10
94.179167
 20
117.422929
 30
0.0
 11
93.929538
 21
117.720437
 31
0.0
  0
ARC
  5
32A
100
AcDbEntity
  8
0
100
AcDbCircle
 10
94.639184
 20
117.522921
 30
0.0
 40
0.1
100
AcDbArc
 50
270.0
 51
0.0
  0
ARC
  5
32B
100
AcDbEntity
  8
0
100
AcDbCircle
 10
93.739184
 20
119.022941
 30
0.0
 40
1.0
100
AcDbArc
 50
0.0
 51
90.0
  0
LINE
  5
32C
100
AcDbEntity
  8
0
100
AcDbLine
 10
94.639184
 20
117.422921
 30
0.0
 11
94.179174
 21
117.422921
 31
0.0
  0
LINE
  5
32D
100
AcDbEntity
  8
0
100
AcDbLine
 10
96.889184
 20
123.022941
 30
0.0
 11
81.889184
 21
123.022941
 31
0.0
  0
LINE
  5
32E
100
AcDbEntity
  8
0
100
AcDbLine
 10
100.789184
 20
132.022941
 30
0.0
 11
100.789184
 21
124.022941
 31
0.0
  0
LINE
  5
32F
100
AcDbEntity
  8
0
100
AcDbLine
 10
96.889184
 20
133.022941
 30
0.0
 11
96.889184
 21
123.022941
 31
0.0
  0
LINE
  5
330
100
AcDbEntity
  8
0
100
AcDbLine
 10
100.789184
 20
125.772941
 30
0.0
 11
96.889184
 21
125.772941
 31
0.0
  0
LINE
  5
331
100
AcDbEntity
  8
0
100
AcDbLine
 10
100.789184
 20
130.272941
 30
0.0
 11
96.889184
 21
130.272941
 31
0.0
  0
LINE
  5
332
100
AcDbEntity
  8
0
100
AcDbLine
 10
100.889184
 20
133.022941
 30
0.0
 11
100.889284
 21
133.022941
 31
0.0
  0
LINE
  5
333
100
AcDbEntity
  8
0
100
AcDbLine
 10
125.339184
 20
117.372941
 30
0.0
 11
124.039184
 21
117.372941
 31
0.0
  0
LINE
  5
334
100
AcDbEntity
  8
0
100
AcDbLine
 10
125.339184
 20
120.872941
 30
0.0
 11
124.039184
 21
120.872941
 31
0.0
  0
LINE
  5
335
100
AcDbEntity
  8
0
100
AcDbLine
 10
126.889184
 20
123.022941
 30
0.0
 11
104.889184
 21
123.022941
 31
0.0
  0
ARC
  5
336
100
AcDbEntity
  8
0
100
AcDbCircle
 10
122.40109
 20
113.122931
 30
0.0
 40
0.2
100
AcDbArc
 50
20.008355
 51
90.0
  0
ARC
  5
337
100
AcDbEntity
  8
0
100
AcDbCircle
 10
115.677277
 20
113.122931
 30
0.0
 40
0.2
100
AcDbArc
 50
90.0
 51
159.991645
  0
CIRCLE
  5
338
100
AcDbEntity
  8
0
100
AcDbCircle
 10
119.039184
 20
115.022941
 30
0.0
 40
2.77815
  0
CIRCLE
  5
339
100
AcDbEntity
  8
0
100
AcDbCircle
 10
119.039184
 20
115.022941
 30
0.0
 40
2.77815
  0
LINE
  5
33A
100
AcDbEntity
  8
0
100
AcDbLine
 10
114.672184
 20
115.822931
 30
0.0
 11
114.672184
 21
113.122931
 31
0.0
  0
LINE
  5
33B
100
AcDbEntity
  8
0
100
AcDbLine
 10
114.472184
 20
115.905921
 30
0.0
 11
114.472184
 21
113.122921
 31
0.0
  0
LINE
  5
33C
100
AcDbEntity
  8
0
100
AcDbLine
 10
123.606184
 20
115.905921
 30
0.0
 11
123.606184
 21
113.122921
 31
0.0
  0
LINE
  5
33D
100
AcDbEntity
  8
0
100
AcDbLine
 10
123.406184
 20
115.822931
 30
0.0
 11
123.406184
 21
113.122931
 31
0.0
  0
LINE
  5
33E
100
AcDbEntity
  8
0
100
AcDbLine
 10
115.039184
 20
110.022941
 30
0.0
 11
123.039184
 21
110.022941
 31
0.0
  0
LINE
  5
33F
100
AcDbEntity
  8
0
100
AcDbLine
 10
115.122184
 20
112.922921
 30
0.0
 11
115.122184
 21
113.122931
 31
0.0
  0
LINE
  5
340
100
AcDbEntity
  8
0
100
AcDbLine
 10
115.221031
 20
112.4545
 30
0.0
 11
115.489349
 21
113.191363
 31
0.0
  0
ARC
  5
341
100
AcDbEntity
  8
0
100
AcDbCircle
 10
114.672184
 20
113.122921
 30
0.0
 40
0.2
100
AcDbArc
 50
180.0
 51
270.0
  0
LINE
  5
342
100
AcDbEntity
  8
0
100
AcDbLine
 10
114.239184
 20
112.722921
 30
0.0
 11
114.539184
 21
112.722921
 31
0.0
  0
LINE
  5
343
100
AcDbEntity
  8
0
100
AcDbLine
 10
115.122184
 20
113.122931
 30
0.0
 11
114.672184
 21
113.122931
 31
0.0
  0
LINE
  5
344
100
AcDbEntity
  8
0
100
AcDbLine
 10
114.672184
 20
112.922921
 30
0.0
 11
115.122184
 21
112.922921
 31
0.0
  0
ARC
  5
345
100
AcDbEntity
  8
0
100
AcDbCircle
 10
114.968025
 20
112.522931
 30
0.0
 40
0.2
100
AcDbArc
 50
219.995196
 51
270.0
  0
LINE
  5
346
100
AcDbEntity
  8
0
100
AcDbLine
 10
114.968025
 20
112.322931
 30
0.0
 11
115.033103
 21
112.322931
 31
0.0
  0
ARC
  5
347
100
AcDbEntity
  8
0
100
AcDbCircle
 10
115.033103
 20
112.522931
 30
0.0
 40
0.2
100
AcDbArc
 50
270.0
 51
339.991645
  0
LINE
  5
348
100
AcDbEntity
  8
0
100
AcDbLine
 10
114.539204
 20
112.722891
 30
0.0
 11
114.814805
 21
112.394387
 31
0.0
  0
ARC
  5
349
100
AcDbEntity
  8
0
100
AcDbCircle
 10
115.039184
 20
111.022941
 30
0.0
 40
1.0
100
AcDbArc
 50
180.0
 51
270.0
  0
ARC
  5
34A
100
AcDbEntity
  8
0
100
AcDbCircle
 10
114.239184
 20
112.522921
 30
0.0
 40
0.2
100
AcDbArc
 50
90.0
 51
180.0
  0
ARC
  5
34B
100
AcDbEntity
  8
0
100
AcDbCircle
 10
123.406184
 20
113.122921
 30
0.0
 40
0.2
100
AcDbArc
 50
270.0
 51
0.0
  0
ARC
  5
34C
100
AcDbEntity
  8
0
100
AcDbCircle
 10
123.839184
 20
112.522921
 30
0.0
 40
0.2
100
AcDbArc
 50
0.0
 51
90.0
  0
LINE
  5
34D
100
AcDbEntity
  8
0
100
AcDbLine
 10
123.839184
 20
112.722921
 30
0.0
 11
123.539184
 21
112.722921
 31
0.0
  0
LINE
  5
34E
100
AcDbEntity
  8
0
100
AcDbLine
 10
122.857336
 20
112.4545
 30
0.0
 11
122.589018
 21
113.191363
 31
0.0
  0
LINE
  5
34F
100
AcDbEntity
  8
0
100
AcDbLine
 10
122.956184
 20
112.922921
 30
0.0
 11
122.956184
 21
113.122931
 31
0.0
  0
LINE
  5
350
100
AcDbEntity
  8
0
100
AcDbLine
 10
122.956184
 20
113.122931
 30
0.0
 11
123.406184
 21
113.122931
 31
0.0
  0
LINE
  5
351
100
AcDbEntity
  8
0
100
AcDbLine
 10
123.406184
 20
112.922921
 30
0.0
 11
122.956184
 21
112.922921
 31
0.0
  0
LINE
  5
352
100
AcDbEntity
  8
0
100
AcDbLine
 10
123.110343
 20
112.322931
 30
0.0
 11
123.045265
 21
112.322931
 31
0.0
  0
ARC
  5
353
100
AcDbEntity
  8
0
100
AcDbCircle
 10
123.039184
 20
111.022941
 30
0.0
 40
1.0
100
AcDbArc
 50
270.0
 51
0.0
  0
ARC
  5
354
100
AcDbEntity
  8
0
100
AcDbCircle
 10
123.110343
 20
112.522931
 30
0.0
 40
0.2
100
AcDbArc
 50
270.0
 51
320.004804
  0
ARC
  5
355
100
AcDbEntity
  8
0
100
AcDbCircle
 10
123.045265
 20
112.522931
 30
0.0
 40
0.2
100
AcDbArc
 50
200.008355
 51
270.0
  0
LINE
  5
356
100
AcDbEntity
  8
0
100
AcDbLine
 10
123.539164
 20
112.722891
 30
0.0
 11
123.263562
 21
112.394387
 31
0.0
  0
LINE
  5
357
100
AcDbEntity
  8
0
100
AcDbLine
 10
115.039184
 20
120.022941
 30
0.0
 11
124.039184
 21
120.022941
 31
0.0
  0
LINE
  5
358
100
AcDbEntity
  8
0
100
AcDbLine
 10
115.178997
 20
117.532874
 30
0.0
 11
115.222194
 21
116.655861
 31
0.0
  0
LINE
  5
359
100
AcDbEntity
  8
0
100
AcDbLine
 10
115.377506
 20
117.553736
 30
0.0
 11
115.442165
 21
116.814211
 31
0.0
  0
ARC
  5
35A
100
AcDbEntity
  8
0
100
AcDbCircle
 10
114.752412
 20
117.294374
 30
0.0
 40
0.2
100
AcDbArc
 50
140.001187
 51
230.087027
  0
LINE
  5
35B
100
AcDbEntity
  8
0
100
AcDbLine
 10
114.752194
 20
117.293911
 30
0.0
 11
115.002513
 21
117.592233
 31
0.0
  0
LINE
  5
35C
100
AcDbEntity
  8
0
100
AcDbLine
 10
115.541785
 20
116.722921
 30
0.0
 11
116.841884
 21
116.722921
 31
0.0
  0
LINE
  5
35D
100
AcDbEntity
  8
0
100
AcDbLine
 10
115.677277
 20
113.322931
 30
0.0
 11
116.841884
 21
113.322931
 31
0.0
  0
LINE
  5
35E
100
AcDbEntity
  8
0
100
AcDbLine
 10
115.422184
 20
117.042931
 30
0.0
 11
115.422184
 21
116.572931
 31
0.0
  0
ARC
  5
35F
100
AcDbEntity
  8
0
100
AcDbCircle
 10
115.541785
 20
116.822921
 30
0.0
 40
0.1
100
AcDbArc
 50
184.996829
 51
270.0
  0
LINE
  5
360
100
AcDbEntity
  8
0
100
AcDbLine
 10
114.905184
 20
117.165911
 30
0.0
 11
114.752194
 21
117.293911
 31
0.0
  0
LINE
  5
361
100
AcDbEntity
  8
0
100
AcDbLine
 10
114.777204
 20
117.012881
 30
0.0
 11
114.905194
 21
117.165881
 31
0.0
  0
LINE
  5
362
100
AcDbEntity
  8
0
100
AcDbLine
 10
114.777174
 20
117.012911
 30
0.0
 11
114.624087
 21
117.14097
 31
0.0
  0
LINE
  5
363
100
AcDbEntity
  8
0
100
AcDbLine
 10
115.222174
 20
116.655891
 30
0.0
 11
114.472164
 21
115.905871
 31
0.0
  0
LINE
  5
364
100
AcDbEntity
  8
0
100
AcDbLine
 10
115.422174
 20
116.572911
 30
0.0
 11
114.672164
 21
115.822901
 31
0.0
  0
LINE
  5
365
100
AcDbEntity
  8
0
100
AcDbLine
 10
114.5992
 20
117.422929
 30
0.0
 11
114.848829
 21
117.720437
 31
0.0
  0
LINE
  5
366
100
AcDbEntity
  8
0
100
AcDbLine
 10
114.139184
 20
117.422921
 30
0.0
 11
114.599194
 21
117.422921
 31
0.0
  0
ARC
  5
367
100
AcDbEntity
  8
0
100
AcDbCircle
 10
115.078646
 20
117.527606
 30
0.0
 40
0.3
100
AcDbArc
 50
4.996829
 51
140.001187
  0
ARC
  5
368
100
AcDbEntity
  8
0
100
AcDbCircle
 10
115.079118
 20
117.527955
 30
0.0
 40
0.1
100
AcDbArc
 50
2.819785
 51
140.000221
  0
ARC
  5
369
100
AcDbEntity
  8
0
100
AcDbCircle
 10
115.039184
 20
119.022941
 30
0.0
 40
1.0
100
AcDbArc
 50
90.0
 51
180.0
  0
ARC
  5
36A
100
AcDbEntity
  8
0
100
AcDbCircle
 10
114.139184
 20
117.522921
 30
0.0
 40
0.1
100
AcDbArc
 50
180.0
 51
270.0
  0
ARC
  5
36B
100
AcDbEntity
  8
0
100
AcDbCircle
 10
123.325956
 20
117.294374
 30
0.0
 40
0.2
100
AcDbArc
 50
309.912973
 51
39.998813
  0
LINE
  5
36C
100
AcDbEntity
  8
0
100
AcDbLine
 10
122.700861
 20
117.553736
 30
0.0
 11
122.636202
 21
116.814211
 31
0.0
  0
LINE
  5
36D
100
AcDbEntity
  8
0
100
AcDbLine
 10
122.89937
 20
117.532874
 30
0.0
 11
122.856174
 21
116.655861
 31
0.0
  0
LINE
  5
36E
100
AcDbEntity
  8
0
100
AcDbLine
 10
123.326174
 20
117.293911
 30
0.0
 11
123.075854
 21
117.592233
 31
0.0
  0
LINE
  5
36F
100
AcDbEntity
  8
0
100
AcDbLine
 10
122.536583
 20
116.722921
 30
0.0
 11
121.236484
 21
116.722921
 31
0.0
  0
LINE
  5
370
100
AcDbEntity
  8
0
100
AcDbLine
 10
122.40109
 20
113.322931
 30
0.0
 11
121.236484
 21
113.322931
 31
0.0
  0
LINE
  5
371
100
AcDbEntity
  8
0
100
AcDbLine
 10
123.301194
 20
117.012911
 30
0.0
 11
123.45428
 21
117.14097
 31
0.0
  0
ARC
  5
372
100
AcDbEntity
  8
0
100
AcDbCircle
 10
122.536583
 20
116.822921
 30
0.0
 40
0.1
100
AcDbArc
 50
270.0
 51
355.003171
  0
LINE
  5
373
100
AcDbEntity
  8
0
100
AcDbLine
 10
122.656184
 20
117.042931
 30
0.0
 11
122.656184
 21
116.572931
 31
0.0
  0
LINE
  5
374
100
AcDbEntity
  8
0
100
AcDbLine
 10
122.656194
 20
116.572911
 30
0.0
 11
123.406204
 21
115.822901
 31
0.0
  0
LINE
  5
375
100
AcDbEntity
  8
0
100
AcDbLine
 10
122.856194
 20
116.655891
 30
0.0
 11
123.606204
 21
115.905871
 31
0.0
  0
LINE
  5
376
100
AcDbEntity
  8
0
100
AcDbLine
 10
123.301164
 20
117.012881
 30
0.0
 11
123.173174
 21
117.165881
 31
0.0
  0
LINE
  5
377
100
AcDbEntity
  8
0
100
AcDbLine
 10
123.173184
 20
117.165911
 30
0.0
 11
123.326174
 21
117.293911
 31
0.0
  0
ARC
  5
378
100
AcDbEntity
  8
0
100
AcDbCircle
 10
123.039184
 20
119.022941
 30
0.0
 40
1.0
100
AcDbArc
 50
0.0
 51
90.0
  0
ARC
  5
379
100
AcDbEntity
  8
0
100
AcDbCircle
 10
123.939184
 20
117.522921
 30
0.0
 40
0.1
100
AcDbArc
 50
270.0
 51
0.0
  0
LINE
  5
37A
100
AcDbEntity
  8
0
100
AcDbLine
 10
123.939184
 20
117.422921
 30
0.0
 11
123.479174
 21
117.422921
 31
0.0
  0
ARC
  5
37B
100
AcDbEntity
  8
0
100
AcDbCircle
 10
122.999249
 20
117.527955
 30
0.0
 40
0.1
100
AcDbArc
 50
39.999779
 51
177.180215
  0
ARC
  5
37C
100
AcDbEntity
  8
0
100
AcDbCircle
 10
122.999721
 20
117.527606
 30
0.0
 40
0.3
100
AcDbArc
 50
39.998813
 51
175.003171
  0
LINE
  5
37D
100
AcDbEntity
  8
0
100
AcDbLine
 10
123.479167
 20
117.422929
 30
0.0
 11
123.229538
 21
117.720437
 31
0.0
  0
LINE
  5
37E
100
AcDbEntity
  8
0
100
AcDbLine
 10
104.889184
 20
133.022941
 30
0.0
 11
104.889184
 21
123.022941
 31
0.0
  0
LINE
  5
37F
100
AcDbEntity
  8
0
100
AcDbLine
 10
102.889184
 20
133.022941
 30
0.0
 11
102.889184
 21
133.023041
 31
0.0
  0
LINE
  5
380
100
AcDbEntity
  8
0
100
AcDbLine
 10
125.339184
 20
120.022941
 30
0.0
 11
126.889184
 21
120.022941
 31
0.0
  0
CIRCLE
  5
381
100
AcDbEntity
  8
CENTER
  6
CENTER
 62
     1
100
AcDbCircle
 10
207.47835
 20
104.022941
 30
0.0
 40
24.0
  0
LINE
  5
382
100
AcDbEntity
  8
CENTER
  6
CENTER
 62
     1
100
AcDbLine
 10
207.47835
 20
72.385937
 30
0.0
 11
207.47835
 21
135.659946
 31
0.0
  0
ARC
  5
383
100
AcDbEntity
  8
0
100
AcDbCircle
 10
207.47835
 20
104.022941
 30
0.0
 40
29.0
100
AcDbArc
 50
357.150955
 51
2.849045
  0
ARC
  5
384
100
AcDbEntity
  8
0
100
AcDbCircle
 10
207.47835
 20
104.022941
 30
0.0
 40
29.0
100
AcDbArc
 50
177.150955
 51
182.849045
  0
CIRCLE
  5
385
100
AcDbEntity
  8
0
100
AcDbCircle
 10
231.47835
 20
104.022941
 30
0.0
 40
2.15
  0
CIRCLE
  5
386
100
AcDbEntity
  8
0
100
AcDbCircle
 10
231.47835
 20
104.022941
 30
0.0
 40
4.0
  0
CIRCLE
  5
387
100
AcDbEntity
  8
0
100
AcDbCircle
 10
183.47835
 20
104.022941
 30
0.0
 40
2.15
  0
CIRCLE
  5
388
100
AcDbEntity
  8
0
100
AcDbCircle
 10
183.47835
 20
104.022941
 30
0.0
 40
4.0
  0
CIRCLE
  5
389
100
AcDbEntity
  8
0
100
AcDbCircle
 10
207.47835
 20
104.022941
 30
0.0
 40
6.0
  0
CIRCLE
  5
38A
100
AcDbEntity
  8
0
100
AcDbCircle
 10
207.47835
 20
104.022941
 30
0.0
 40
16.0
  0
LINE
  5
38B
100
AcDbEntity
  8
CENTER
  6
CENTER
 62
     1
100
AcDbLine
 10
175.841346
 20
104.022941
 30
0.0
 11
239.115355
 21
104.022941
 31
0.0
  0
LINE
  5
38C
100
AcDbEntity
  8
0
100
AcDbLine
 10
178.514195
 20
102.581504
 30
0.0
 11
206.036913
 21
75.058786
 31
0.0
  0
LINE
  5
38D
100
AcDbEntity
  8
0
100
AcDbLine
 10
208.919787
 20
75.058786
 30
0.0
 11
236.442505
 21
102.581504
 31
0.0
  0
ARC
  5
38E
100
AcDbEntity
  8
0
100
AcDbCircle
 10
207.47835
 20
104.022941
 30
0.0
 40
29.0
100
AcDbArc
 50
267.150955
 51
272.849045
  0
CIRCLE
  5
38F
100
AcDbEntity
  8
0
100
AcDbCircle
 10
207.47835
 20
80.022941
 30
0.0
 40
2.15
  0
CIRCLE
  5
390
100
AcDbEntity
  8
0
100
AcDbCircle
 10
207.47835
 20
80.022941
 30
0.0
 40
4.0
  0
LINE
  5
391
100
AcDbEntity
  8
0
100
AcDbLine
 10
178.514195
 20
105.464378
 30
0.0
 11
206.036913
 21
132.987096
 31
0.0
  0
LINE
  5
392
100
AcDbEntity
  8
0
100
AcDbLine
 10
208.919787
 20
132.987096
 30
0.0
 11
236.442505
 21
105.464378
 31
0.0
  0
ARC
  5
393
100
AcDbEntity
  8
0
100
AcDbCircle
 10
207.47835
 20
104.022941
 30
0.0
 40
29.0
100
AcDbArc
 50
87.150955
 51
92.849045
  0
CIRCLE
  5
394
100
AcDbEntity
  8
0
100
AcDbCircle
 10
207.47835
 20
128.022941
 30
0.0
 40
4.0
  0
CIRCLE
  5
395
100
AcDbEntity
  8
0
100
AcDbCircle
 10
207.47835
 20
128.022941
 30
0.0
 40
2.15
  0
CIRCLE
  5
396
100
AcDbEntity
  8
0
100
AcDbCircle
 10
207.47835
 20
104.022941
 30
0.0
 40
19.0
  0
ENDSEC
  0
SECTION
  2
OBJECTS
  0
DICTIONARY
  5
208
100
AcDbDictionary
  3
ACAD_GROUP
350
209
  3
ACAD_LAYOUT
350
215
  3
ACAD_MLINESTYLE
350
212
  3
ACAD_PLOTSETTINGS
350
214
  3
ACAD_PLOTSTYLENAME
350
20A
  3
ACDBHEADERROUNDTRIPXREC
350
3A3
  3
AcDbVariableDictionary
350
3CC
  0
DICTIONARY
  5
3A1
100
AcDbDictionary
280
     1
  3
ACAD_XREC_ROUNDTRIP
360
3A2
  0
DICTIONARY
  5
39D
100
AcDbDictionary
280
     1
  3
ACAD_XREC_ROUNDTRIP
360
39E
  0
DICTIONARY
  5
39F
100
AcDbDictionary
280
     1
  3
ACAD_XREC_ROUNDTRIP
360
3A0
  0
DICTIONARY
  5
3CA
100
AcDbDictionary
280
     1
  3
ACAD_XREC_ROUNDTRIP
360
3CB
  0
DICTIONARY
  5
399
100
AcDbDictionary
280
     1
  3
ACAD_LAYOUTSELFREF
360
3C9
  3
ACAD_XREC_ROUNDTRIP
360
39A
  0
DICTIONARY
  5
39B
100
AcDbDictionary
280
     1
  3
ACAD_LAYOUTSELFREF
360
3C8
  3
ACAD_XREC_ROUNDTRIP
360
39C
  0
DICTIONARY
  5
209
102
{ACAD_REACTORS
330
208
102
}
100
AcDbDictionary
  0
DICTIONARY
  5
215
102
{ACAD_XDICTIONARY
360
3C6
102
}
102
{ACAD_REACTORS
330
208
102
}
100
AcDbDictionary
  3
MODEL
350
21D
  3
ﾚｲｱｳﾄ1
350
219
  0
DICTIONARY
  5
212
102
{ACAD_XDICTIONARY
360
3C4
102
}
102
{ACAD_REACTORS
330
208
102
}
100
AcDbDictionary
  3
STANDARD
350
213
  0
DICTIONARY
  5
214
102
{ACAD_REACTORS
330
208
102
}
100
AcDbDictionary
  0
ACAD_PROXY_OBJECT
  5
20A
102
{ACAD_REACTORS
330
208
102
}
100
AcDbProxyObject
 90
      499
 91
      500
 93
       86
310
405010041939BDC9B585B0
350
20B
340
20B
 94
        0
  0
DICTIONARY
  5
3A3
102
{ACAD_REACTORS
330
208
102
}
100
AcDbDictionary
  3
CEPSNTYPE
350
3AD
  3
DIMSTYLEDATA
350
3B1
  3
FINGERPRINTGUID
350
3AE
  3
HYPERLINKBASE
350
3A6
  3
INSUNITS
350
3AC
  3
LAYOUTDICT
350
3A8
  3
LWETCUNION
350
3AB
  3
PLOTSETDICT
350
3A9
  3
PLOTSTYLNAMDICT
350
3AA
  3
PSVPSCALE
350
3B0
  3
PUCSBASE
350
3B4
  3
PUCSORGBACK
350
3BA
  3
PUCSORGBOTTOM
350
3B6
  3
PUCSORGFRONT
350
3B9
  3
PUCSORGLEFT
350
3B7
  3
PUCSORGRIGHT
350
3B8
  3
PUCSORGTOP
350
3B5
  3
PUCSORTHOREF
350
3B2
  3
PUCSORTHOVIEW
350
3B3
  3
STYLESHEET
350
3A7
  3
TSTACKALIGN
350
3A4
  3
TSTACKSIZE
350
3A5
  3
UCSBASE
350
3BD
  3
UCSORGBACK
350
3C3
  3
UCSORGBOTTOM
350
3BF
  3
UCSORGFRONT
350
3C2
  3
UCSORGLEFT
350
3C0
  3
UCSORGRIGHT
350
3C1
  3
UCSORGTOP
350
3BE
  3
UCSORTHOREF
350
3BB
  3
UCSORTHOVIEW
350
3BC
  3
VERSIONGUID
350
3AF
  0
DICTIONARY
  5
3CC
102
{ACAD_REACTORS
330
208
102
}
100
AcDbDictionary
  3
DIMASSOC
350
3CD
  0
XRECORD
  5
3A2
102
{ACAD_REACTORS
330
3A1
102
}
100
AcDbXrecord
102
EXTNAMES
  1
*ACTIVE
  2
*Active
102
UCS
 74
     0
 71
     0
 10
0.0
 20
0.0
 30
0.0
 10
1.0
 20
0.0
 30
0.0
 10
0.0
 20
1.0
 30
0.0
146
0.0
 79
     0
102
VIEW
281
     0
  0
XRECORD
  5
39E
102
{ACAD_REACTORS
330
39D
102
}
100
AcDbXrecord
102
EXTNAMES
  1
BYBLOCK
  2
ByBlock
  0
XRECORD
  5
3A0
102
{ACAD_REACTORS
330
39F
102
}
100
AcDbXrecord
102
EXTNAMES
  1
BYLAYER
  2
ByLayer
  0
XRECORD
  5
3CB
102
{ACAD_REACTORS
330
3CA
102
}
100
AcDbXrecord
102
ACADR14ROUNDTRIP
1000
DSTYLE
1002
{
1070
   279
 70
     2
1002
}
  0
XRECORD
  5
3C9
102
{ACAD_REACTORS
330
399
102
}
100
AcDbXrecord
340
21A
  0
XRECORD
  5
39A
102
{ACAD_REACTORS
330
399
102
}
100
AcDbXrecord
102
EXTNAMES
  1
*MODEL_SPACE
  2
*Model_Space
  0
XRECORD
  5
3C8
102
{ACAD_REACTORS
330
39B
102
}
100
AcDbXrecord
340
216
  0
XRECORD
  5
39C
102
{ACAD_REACTORS
330
39B
102
}
100
AcDbXrecord
102
EXTNAMES
  1
*PAPER_SPACE
  2
*Paper_Space
  0
DICTIONARY
  5
3C6
100
AcDbDictionary
280
     1
  3
ACAD_XREC_ROUNDTRIP
360
3C7
  0
ACAD_PROXY_OBJECT
  5
21D
102
{ACAD_REACTORS
330
215
102
}
100
AcDbProxyObject
 90
      499
 91
      502
 93
      836
310
932433A5C50524F4752414D2046494C45535C4D4454365C706C6F74746572735C526F6C616E64204458592D313235302E7063332C01AAAAAAAAA5A69054D6F64656C901A800000000000000000000000000000000000000000000A1000000000000008902A6A6AAAA4
330
21A
330
0
340
0
340
0
 94
        0
  0
ACAD_PROXY_OBJECT
  5
219
102
{ACAD_REACTORS
330
215
102
}
100
AcDbProxyObject
 90
      499
 91
      502
 93
     1244
310
932433A5C50524F4752414D2046494C45535C4D4454365C706C6F74746572735C526F6C616E64204458592D313235302E7063332C00AAAAAA416AA59106906DAB2B1B3C431406A800000000000000000000000000000000000000000101E900000000000241C902A6A6A10232D5E076BC5510408CB5781DAF154410232D5E0
310
76BC5510408CB5781DAF15C410232D5E076BC5710408CB5781DAF15C40
330
216
330
0
340
0
340
0
 94
        0
  0
DICTIONARY
  5
3C4
100
AcDbDictionary
280
     1
  3
ACAD_XREC_ROUNDTRIP
360
3C5
  0
MLINESTYLE
  5
213
102
{ACAD_REACTORS
330
212
102
}
100
AcDbMlineStyle
  2
STANDARD
 70
     0
  3

 62
   256
 51
90.0
 52
90.0
 71
     2
 49
0.5
 62
   256
  6
BYLAYER
 49
-0.5
 62
   256
  6
BYLAYER
  0
ACAD_PROXY_OBJECT
  5
20B
102
{ACAD_REACTORS
330
20A
102
}
100
AcDbProxyObject
 90
      499
 91
      501
 93
        0
 94
        0
  0
XRECORD
  5
3AD
102
{ACAD_REACTORS
330
3A3
102
}
100
AcDbXrecord
 90
        0
  0
XRECORD
  5
3B1
102
{ACAD_REACTORS
330
3A3
102
}
100
AcDbXrecord
1000
DSTYLE
1002
{
1070
   341
340
22A
1070
   342
340
22A
1002
}
  0
XRECORD
  5
3AE
102
{ACAD_REACTORS
330
3A3
102
}
100
AcDbXrecord
  1
{D052CF06-FBD9-4FBC-903A-C730ECB59186}
  0
XRECORD
  5
3A6
102
{ACAD_REACTORS
330
3A3
102
}
100
AcDbXrecord
  1

  0
XRECORD
  5
3AC
102
{ACAD_REACTORS
330
3A3
102
}
100
AcDbXrecord
 90
        0
  0
XRECORD
  5
3A8
102
{ACAD_REACTORS
330
3A3
102
}
100
AcDbXrecord
340
215
  0
XRECORD
  5
3AB
102
{ACAD_REACTORS
330
3A3
102
}
100
AcDbXrecord
 90
    10781
  0
XRECORD
  5
3A9
102
{ACAD_REACTORS
330
3A3
102
}
100
AcDbXrecord
340
214
  0
XRECORD
  5
3AA
102
{ACAD_REACTORS
330
3A3
102
}
100
AcDbXrecord
340
20A
  0
XRECORD
  5
3B0
102
{ACAD_REACTORS
330
3A3
102
}
100
AcDbXrecord
 40
0.0
  0
XRECORD
  5
3B4
102
{ACAD_REACTORS
330
3A3
102
}
100
AcDbXrecord
340
0
  0
XRECORD
  5
3BA
102
{ACAD_REACTORS
330
3A3
102
}
100
AcDbXrecord
 10
0.0
 20
0.0
 30
0.0
  0
XRECORD
  5
3B6
102
{ACAD_REACTORS
330
3A3
102
}
100
AcDbXrecord
 10
0.0
 20
0.0
 30
0.0
  0
XRECORD
  5
3B9
102
{ACAD_REACTORS
330
3A3
102
}
100
AcDbXrecord
 10
0.0
 20
0.0
 30
0.0
  0
XRECORD
  5
3B7
102
{ACAD_REACTORS
330
3A3
102
}
100
AcDbXrecord
 10
0.0
 20
0.0
 30
0.0
  0
XRECORD
  5
3B8
102
{ACAD_REACTORS
330
3A3
102
}
100
AcDbXrecord
 10
0.0
 20
0.0
 30
0.0
  0
XRECORD
  5
3B5
102
{ACAD_REACTORS
330
3A3
102
}
100
AcDbXrecord
 10
0.0
 20
0.0
 30
0.0
  0
XRECORD
  5
3B2
102
{ACAD_REACTORS
330
3A3
102
}
100
AcDbXrecord
340
0
  0
XRECORD
  5
3B3
102
{ACAD_REACTORS
330
3A3
102
}
100
AcDbXrecord
 70
     0
  0
XRECORD
  5
3A7
102
{ACAD_REACTORS
330
3A3
102
}
100
AcDbXrecord
  1

  0
XRECORD
  5
3A4
102
{ACAD_REACTORS
330
3A3
102
}
100
AcDbXrecord
 90
        1
  0
XRECORD
  5
3A5
102
{ACAD_REACTORS
330
3A3
102
}
100
AcDbXrecord
 90
       70
  0
XRECORD
  5
3BD
102
{ACAD_REACTORS
330
3A3
102
}
100
AcDbXrecord
340
0
  0
XRECORD
  5
3C3
102
{ACAD_REACTORS
330
3A3
102
}
100
AcDbXrecord
 10
0.0
 20
0.0
 30
0.0
  0
XRECORD
  5
3BF
102
{ACAD_REACTORS
330
3A3
102
}
100
AcDbXrecord
 10
0.0
 20
0.0
 30
0.0
  0
XRECORD
  5
3C2
102
{ACAD_REACTORS
330
3A3
102
}
100
AcDbXrecord
 10
0.0
 20
0.0
 30
0.0
  0
XRECORD
  5
3C0
102
{ACAD_REACTORS
330
3A3
102
}
100
AcDbXrecord
 10
0.0
 20
0.0
 30
0.0
  0
XRECORD
  5
3C1
102
{ACAD_REACTORS
330
3A3
102
}
100
AcDbXrecord
 10
0.0
 20
0.0
 30
0.0
  0
XRECORD
  5
3BE
102
{ACAD_REACTORS
330
3A3
102
}
100
AcDbXrecord
 10
0.0
 20
0.0
 30
0.0
  0
XRECORD
  5
3BB
102
{ACAD_REACTORS
330
3A3
102
}
100
AcDbXrecord
340
0
  0
XRECORD
  5
3BC
102
{ACAD_REACTORS
330
3A3
102
}
100
AcDbXrecord
 70
     0
  0
XRECORD
  5
3AF
102
{ACAD_REACTORS
330
3A3
102
}
100
AcDbXrecord
  1
{71732BE8-2CAB-4290-A77E-B0AA3B5EC725}
  0
DICTIONARYVAR
  5
3CD
102
{ACAD_REACTORS
330
3CC
102
}
100
DictionaryVariables
280
     0
  1
1
  0
XRECORD
  5
3C7
102
{ACAD_REACTORS
330
3C6
102
}
100
AcDbXrecord
102
EXTNAMES
  1
MODEL
  2
Model
  0
XRECORD
  5
3C5
102
{ACAD_REACTORS
330
3C4
102
}
100
AcDbXrecord
102
EXTNAMES
  1
STANDARD
  2
Standard
  0
ENDSEC
  0
EOF
