  0
SECTION
  2
HEADER
  9
$ACADVER
  1
AC1014
  9
$ACADMAINTVER
 70
     0
  9
$DWGCODEPAGE
  3
ANSI_932
  9
$INSBASE
 10
0.0
 20
0.0
 30
0.0
  9
$EXTMIN
 10
185.568199
 20
144.351779
 30
0.0
  9
$EXTMAX
 10
461.014902
 20
246.280141
 30
0.0
  9
$LIMMIN
 10
0.0
 20
0.0
  9
$LIMMAX
 10
594.0
 20
420.0
  9
$ORTHOMODE
 70
     1
  9
$REGENMODE
 70
     1
  9
$FILLMODE
 70
     1
  9
$QTEXTMODE
 70
     0
  9
$MIRRTEXT
 70
     1
  9
$DRAGMODE
 70
     2
  9
$LTSCALE
 40
0.25
  9
$OSMODE
 70
    37
  9
$ATTMODE
 70
     1
  9
$TEXTSIZE
 40
4.0
  9
$TRACEWID
 40
1.0
  9
$TEXTSTYLE
  7
STANDARD
  9
$CLAYER
  8
0
  9
$CELTYPE
  6
BYLAYER
  9
$CECOLOR
 62
   256
  9
$CELTSCALE
 40
1.0
  9
$DELOBJ
 70
     1
  9
$DISPSILH
 70
     0
  9
$DIMSCALE
 40
2.0
  9
$DIMASZ
 40
3.0
  9
$DIMEXO
 40
1.0
  9
$DIMDLI
 40
0.0
  9
$DIMRND
 40
0.0
  9
$DIMDLE
 40
0.0
  9
$DIMEXE
 40
1.0
  9
$DIMTP
 40
0.1
  9
$DIMTM
 40
0.0
  9
$DIMTXT
 40
3.2
  9
$DIMCEN
 40
0.0
  9
$DIMTSZ
 40
0.0
  9
$DIMTOL
 70
     1
  9
$DIMLIM
 70
     0
  9
$DIMTIH
 70
     0
  9
$DIMTOH
 70
     0
  9
$DIMSE1
 70
     0
  9
$DIMSE2
 70
     0
  9
$DIMTAD
 70
     0
  9
$DIMZIN
 70
     8
  9
$DIMBLK
  1

  9
$DIMASO
 70
     1
  9
$DIMSHO
 70
     1
  9
$DIMPOST
  1

  9
$DIMAPOST
  1

  9
$DIMALT
 70
     0
  9
$DIMALTD
 70
     2
  9
$DIMALTF
 40
0.04
  9
$DIMLFAC
 40
1.0
  9
$DIMTOFL
 70
     1
  9
$DIMTVP
 40
1.0
  9
$DIMTIX
 70
     1
  9
$DIMSOXD
 70
     0
  9
$DIMSAH
 70
     1
  9
$DIMBLK1
  1
DOT
  9
$DIMBLK2
  1
ARROW
  9
$DIMSTYLE
  2
DA1
  9
$DIMCLRD
 70
     0
  9
$DIMCLRE
 70
     0
  9
$DIMCLRT
 70
     0
  9
$DIMTFAC
 40
0.6
  9
$DIMGAP
 40
0.0
  9
$DIMJUST
 70
     0
  9
$DIMSD1
 70
     0
  9
$DIMSD2
 70
     0
  9
$DIMTOLJ
 70
     1
  9
$DIMTZIN
 70
     0
  9
$DIMALTZ
 70
     0
  9
$DIMALTTZ
 70
     0
  9
$DIMFIT
 70
     3
  9
$DIMUPT
 70
     0
  9
$DIMUNIT
 70
     2
  9
$DIMDEC
 70
     4
  9
$DIMTDEC
 70
     4
  9
$DIMALTU
 70
     2
  9
$DIMALTTD
 70
     2
  9
$DIMTXSTY
  7
STANDARD
  9
$DIMAUNIT
 70
     0
  9
$LUNITS
 70
     2
  9
$LUPREC
 70
     2
  9
$SKETCHINC
 40
1.0
  9
$FILLETRAD
 40
10.0
  9
$AUNITS
 70
     0
  9
$AUPREC
 70
     0
  9
$MENU
  1
acad
  9
$ELEVATION
 40
0.0
  9
$PELEVATION
 40
0.0
  9
$THICKNESS
 40
0.0
  9
$LIMCHECK
 70
     0
  9
$BLIPMODE
 70
     0
  9
$CHAMFERA
 40
0.0
  9
$CHAMFERB
 40
0.0
  9
$CHAMFERC
 40
0.0
  9
$CHAMFERD
 40
0.0
  9
$SKPOLY
 70
     0
  9
$TDCREATE
 40
2451466.565331366
  9
$TDUPDATE
 40
2452821.800029745
  9
$TDINDWG
 40
0.0002499074
  9
$TDUSRTIMER
 40
0.0002499074
  9
$USRTIMER
 70
     1
  9
$ANGBASE
 50
0.0
  9
$ANGDIR
 70
     0
  9
$PDMODE
 70
     1
  9
$PDSIZE
 40
0.0
  9
$PLINEWID
 40
0.0
  9
$COORDS
 70
     1
  9
$SPLFRAME
 70
     0
  9
$SPLINETYPE
 70
     6
  9
$SPLINESEGS
 70
     8
  9
$ATTDIA
 70
     0
  9
$ATTREQ
 70
     1
  9
$HANDLING
 70
     1
  9
$HANDSEED
  5
3A8
  9
$SURFTAB1
 70
     6
  9
$SURFTAB2
 70
     6
  9
$SURFTYPE
 70
     6
  9
$SURFU
 70
     6
  9
$SURFV
 70
     6
  9
$UCSNAME
  2

  9
$UCSORG
 10
0.0
 20
0.0
 30
0.0
  9
$UCSXDIR
 10
1.0
 20
0.0
 30
0.0
  9
$UCSYDIR
 10
0.0
 20
1.0
 30
0.0
  9
$PUCSNAME
  2

  9
$PUCSORG
 10
0.0
 20
0.0
 30
0.0
  9
$PUCSXDIR
 10
1.0
 20
0.0
 30
0.0
  9
$PUCSYDIR
 10
0.0
 20
1.0
 30
0.0
  9
$USERI1
 70
     0
  9
$USERI2
 70
     0
  9
$USERI3
 70
     0
  9
$USERI4
 70
     0
  9
$USERI5
 70
     0
  9
$USERR1
 40
0.0
  9
$USERR2
 40
0.0
  9
$USERR3
 40
0.0
  9
$USERR4
 40
0.0
  9
$USERR5
 40
0.0
  9
$WORLDVIEW
 70
     1
  9
$SHADEDGE
 70
     3
  9
$SHADEDIF
 70
    70
  9
$TILEMODE
 70
     1
  9
$MAXACTVP
 70
    16
  9
$PINSBASE
 10
0.0
 20
0.0
 30
0.0
  9
$PLIMCHECK
 70
     0
  9
$PEXTMIN
 10
1.000000E+20
 20
1.000000E+20
 30
1.000000E+20
  9
$PEXTMAX
 10
-1.000000E+20
 20
-1.000000E+20
 30
-1.000000E+20
  9
$PLIMMIN
 10
0.0
 20
0.0
  9
$PLIMMAX
 10
420.0
 20
297.0
  9
$UNITMODE
 70
     0
  9
$VISRETAIN
 70
     0
  9
$PLINEGEN
 70
     0
  9
$PSLTSCALE
 70
     0
  9
$TREEDEPTH
 70
  3020
  9
$PICKSTYLE
 70
     1
  9
$CMLSTYLE
  2
STANDARD
  9
$CMLJUST
 70
     0
  9
$CMLSCALE
 40
1.0
  9
$PROXYGRAPHICS
 70
     1
  9
$MEASUREMENT
 70
     0
  0
ENDSEC
  0
SECTION
  2
CLASSES
  0
CLASS
  1
ACDBDICTIONARYWDFLT
  2
AcDbDictionaryWithDefault
  3
AutoCAD 2000
 90
        0
280
     0
281
     0
  0
CLASS
  1
ACDBPLACEHOLDER
  2
AcDbPlaceHolder
  3
AutoCAD 2000
 90
        0
280
     0
281
     0
  0
CLASS
  1
LAYOUT
  2
AcDbLayout
  3
AutoCAD 2000
 90
        0
280
     0
281
     0
  0
CLASS
  1
DICTIONARYVAR
  2
AcDbDictionaryVar
  3
"AutoCAD"
 90
        0
280
     0
281
     0
  0
CLASS
  1
LONG_TRANSACTION
  2
AcDbLongTransaction
  3
AutoCAD 2000
 90
        0
280
     0
281
     0
  0
CLASS
  1
LWPOLYLINE
  2
AcDbPolyline
  3
"AutoCAD"
 90
        0
280
     0
281
     1
  0
CLASS
  1
HATCH
  2
AcDbHatch
  3
"ACAD_SEDONA"
 90
        0
280
     0
281
     1
  0
CLASS
  1
XRECORD
  2
AcDbXrecord
  3
"<Built In>"
 90
        0
280
     0
281
     0
  0
ENDSEC
  0
SECTION
  2
TABLES
  0
TABLE
  2
VPORT
  5
1D7
100
AcDbSymbolTable
 70
     1
  0
VPORT
  5
36F
102
{ACAD_XDICTIONARY
360
378
102
}
100
AcDbSymbolTableRecord
100
AcDbViewportTableRecord
  2
*ACTIVE
 70
     0
 10
0.0
 20
0.0
 11
1.0
 21
1.0
 12
240.506916
 22
142.243344
 13
0.0
 23
0.0
 14
10.0
 24
10.0
 15
0.0
 25
0.0
 16
0.0
 26
0.0
 36
1.0
 17
0.0
 27
0.0
 37
0.0
 40
282.142248
 41
1.570997
 42
50.0
 43
0.0
 44
0.0
 50
0.0
 51
0.0
 71
     0
 72
   100
 73
     1
 74
     0
 75
     0
 76
     0
 77
     0
 78
     1
  0
ENDTAB
  0
TABLE
  2
LTYPE
  5
1D4
100
AcDbSymbolTable
 70
     2
  0
LTYPE
  5
1E2
102
{ACAD_XDICTIONARY
360
374
102
}
100
AcDbSymbolTableRecord
100
AcDbLinetypeTableRecord
  2
BYBLOCK
 70
     0
  3

 72
    65
 73
     0
 40
0.0
  0
LTYPE
  5
1E3
102
{ACAD_XDICTIONARY
360
376
102
}
100
AcDbSymbolTableRecord
100
AcDbLinetypeTableRecord
  2
BYLAYER
 70
     0
  3

 72
    65
 73
     0
 40
0.0
  0
LTYPE
  5
1E4
100
AcDbSymbolTableRecord
100
AcDbLinetypeTableRecord
  2
CONTINUOUS
 70
     0
  3
Solid line
 72
    65
 73
     0
 40
0.0
  0
LTYPE
  5
1F2
100
AcDbSymbolTableRecord
100
AcDbLinetypeTableRecord
  2
CENTER
 70
     0
  3
____ _ ____ _ ____ _ ____ _ ____ _ ____ _ ____ 
 72
    65
 73
     4
 40
50.8
 49
31.75
 74
     0
 49
-6.35
 74
     0
 49
6.35
 74
     0
 49
-6.35
 74
     0
  0
ENDTAB
  0
TABLE
  2
LAYER
  5
1D1
100
AcDbSymbolTable
 70
     3
  0
LAYER
  5
1DF
100
AcDbSymbolTableRecord
100
AcDbLayerTableRecord
  2
0
 70
     0
 62
     7
  6
CONTINUOUS
  0
LAYER
  5
1F3
100
AcDbSymbolTableRecord
100
AcDbLayerTableRecord
  2
DIMENSION
 70
     0
 62
    -4
  6
CONTINUOUS
  0
LAYER
  5
1F4
100
AcDbSymbolTableRecord
100
AcDbLayerTableRecord
  2
CENTER
 70
     0
 62
     1
  6
CENTER
  0
ENDTAB
  0
TABLE
  2
STYLE
  5
1D2
100
AcDbSymbolTable
 70
     1
  0
STYLE
  5
1E0
100
AcDbSymbolTableRecord
100
AcDbTextStyleTableRecord
  2
STANDARD
 70
     0
 40
0.0
 41
1.0
 50
0.0
 71
     0
 42
4.0
  3
txt
  4

  0
ENDTAB
  0
TABLE
  2
VIEW
  5
1D5
100
AcDbSymbolTable
 70
     0
  0
ENDTAB
  0
TABLE
  2
UCS
  5
1D6
100
AcDbSymbolTable
 70
     0
  0
ENDTAB
  0
TABLE
  2
APPID
  5
1D8
100
AcDbSymbolTable
 70
     1
  0
APPID
  5
1E1
100
AcDbSymbolTableRecord
100
AcDbRegAppTableRecord
  2
ACAD
 70
     0
  0
ENDTAB
  0
TABLE
  2
DIMSTYLE
  5
1D9
100
AcDbSymbolTable
 70
     1
  0
DIMSTYLE
105
1F5
102
{ACAD_XDICTIONARY
360
3A1
102
}
100
AcDbSymbolTableRecord
100
AcDbDimStyleTableRecord
  2
DA1
 70
     0
  3

  4

  5

  6

  7

 40
1.0
 41
3.0
 42
1.0
 43
0.0
 44
1.0
 45
0.0
 46
0.0
 47
0.0
 48
0.0
140
3.2
141
0.0
142
0.0
143
0.04
144
1.0
145
1.0
146
0.6
147
0.0
 71
     0
 72
     0
 73
     0
 74
     0
 75
     0
 76
     0
 77
     0
 78
     8
170
     0
171
     2
172
     1
173
     1
174
     1
175
     0
176
     0
177
     0
178
     0
270
     2
271
     2
272
     2
273
     2
274
     2
340
1E0
275
     0
280
     0
281
     0
282
     0
283
     1
284
     8
285
     8
286
     8
287
     5
288
     0
  0
ENDTAB
  0
TABLE
  2
BLOCK_RECORD
  5
1D0
100
AcDbSymbolTable
 70
     4
  0
BLOCK_RECORD
  5
1ED
102
{ACAD_XDICTIONARY
360
370
102
}
100
AcDbSymbolTableRecord
100
AcDbBlockTableRecord
  2
*MODEL_SPACE
  0
BLOCK_RECORD
  5
1E9
102
{ACAD_XDICTIONARY
360
372
102
}
100
AcDbSymbolTableRecord
100
AcDbBlockTableRecord
  2
*PAPER_SPACE
  0
BLOCK_RECORD
  5
1F7
100
AcDbSymbolTableRecord
100
AcDbBlockTableRecord
  2
$MODEL_SPACE
  0
BLOCK_RECORD
  5
1FA
100
AcDbSymbolTableRecord
100
AcDbBlockTableRecord
  2
$PAPER_SPACE
  0
BLOCK_RECORD
  5
1FD
100
AcDbSymbolTableRecord
100
AcDbBlockTableRecord
  2
ARROW
  0
BLOCK_RECORD
  5
203
100
AcDbSymbolTableRecord
100
AcDbBlockTableRecord
  2
DOT
  0
ENDTAB
  0
ENDSEC
  0
SECTION
  2
BLOCKS
  0
BLOCK
  5
1EE
100
AcDbEntity
  8
0
100
AcDbBlockBegin
  2
*MODEL_SPACE
 70
     0
 10
0.0
 20
0.0
 30
0.0
  3
*MODEL_SPACE
  1

  0
ENDBLK
  5
1EF
100
AcDbEntity
  8
0
100
AcDbBlockEnd
  0
BLOCK
  5
1EA
100
AcDbEntity
 67
     1
  8
0
100
AcDbBlockBegin
  2
*PAPER_SPACE
 70
     0
 10
0.0
 20
0.0
 30
0.0
  3
*PAPER_SPACE
  1

  0
ENDBLK
  5
1EB
100
AcDbEntity
 67
     1
  8
0
100
AcDbBlockEnd
  0
BLOCK
  5
1F8
100
AcDbEntity
  8
0
100
AcDbBlockBegin
  2
$MODEL_SPACE
 70
     0
 10
0.0
 20
0.0
 30
0.0
  3
$MODEL_SPACE
  1

  0
ENDBLK
  5
1F9
100
AcDbEntity
  8
0
100
AcDbBlockEnd
  0
BLOCK
  5
1FB
100
AcDbEntity
  8
0
100
AcDbBlockBegin
  2
$PAPER_SPACE
 70
     0
 10
0.0
 20
0.0
 30
0.0
  3
$PAPER_SPACE
  1

  0
ENDBLK
  5
1FC
100
AcDbEntity
  8
0
100
AcDbBlockEnd
  0
BLOCK
  5
1FE
100
AcDbEntity
  8
0
100
AcDbBlockBegin
  2
ARROW
 70
     0
 10
0.0
 20
0.0
 30
0.0
  3
ARROW
  1

  0
LINE
  5
1FF
100
AcDbEntity
  8
DIMENSION
100
AcDbLine
 10
0.0
 20
0.0
 30
0.0
 11
-1.0
 21
0.176327
 31
0.0
  0
LINE
  5
200
100
AcDbEntity
  8
DIMENSION
100
AcDbLine
 10
0.0
 20
0.0
 30
0.0
 11
-1.0
 21
-0.176327
 31
0.0
  0
LINE
  5
201
100
AcDbEntity
  8
DIMENSION
100
AcDbLine
 10
-1.0
 20
0.0
 30
0.0
 11
0.0
 21
0.0
 31
0.0
  0
ENDBLK
  5
202
100
AcDbEntity
  8
0
100
AcDbBlockEnd
  0
BLOCK
  5
204
100
AcDbEntity
  8
0
100
AcDbBlockBegin
  2
DOT
 70
     0
 10
0.0
 20
0.0
 30
0.0
  3
DOT
  1
DOT2
  0
LWPOLYLINE
  5
205
100
AcDbEntity
  8
DIMENSION
100
AcDbPolyline
 90
        2
 70
     1
 43
0.165
 10
-0.082512
 20
0.000018
 42
1.0
 10
0.082488
 20
0.000018
 42
1.0
  0
LINE
  5
209
100
AcDbEntity
  8
DIMENSION
100
AcDbLine
 10
-0.000012
 20
0.000018
 30
0.0
 11
-1.000012
 21
0.000018
 31
0.0
  0
ENDBLK
  5
20A
100
AcDbEntity
  8
0
100
AcDbBlockEnd
  0
ENDSEC
  0
SECTION
  2
ENTITIES
  0
LINE
  5
20B
100
AcDbEntity
  8
0
100
AcDbLine
 10
207.131118
 20
172.81596
 30
0.0
 11
207.131118
 21
217.81596
 31
0.0
  0
LINE
  5
20C
100
AcDbEntity
  8
0
100
AcDbLine
 10
193.181118
 20
220.06596
 30
0.0
 11
193.181118
 21
170.56596
 31
0.0
  0
LINE
  5
20D
100
AcDbEntity
  8
0
100
AcDbLine
 10
195.131118
 20
220.06596
 30
0.0
 11
195.131118
 21
170.56596
 31
0.0
  0
LINE
  5
20E
100
AcDbEntity
  8
0
100
AcDbLine
 10
249.181118
 20
220.06596
 30
0.0
 11
249.181118
 21
170.56596
 31
0.0
  0
LINE
  5
20F
100
AcDbEntity
  8
0
100
AcDbLine
 10
247.231118
 20
220.06596
 30
0.0
 11
247.231118
 21
170.56596
 31
0.0
  0
LINE
  5
210
100
AcDbEntity
  8
0
100
AcDbLine
 10
251.181118
 20
168.31596
 30
0.0
 11
251.181118
 21
222.31596
 31
0.0
  0
LINE
  5
211
100
AcDbEntity
  8
0
100
AcDbLine
 10
235.231118
 20
172.81596
 30
0.0
 11
235.231118
 21
217.81596
 31
0.0
  0
LINE
  5
212
100
AcDbEntity
  8
0
100
AcDbLine
 10
191.181118
 20
168.31596
 30
0.0
 11
191.181118
 21
222.31596
 31
0.0
  0
LINE
  5
215
100
AcDbEntity
  8
CENTER
  6
CENTER
 62
     1
100
AcDbLine
 10
260.462085
 20
195.31596
 30
0.0
 11
185.568199
 21
195.31596
 31
0.0
  0
LINE
  5
216
100
AcDbEntity
  8
0
100
AcDbLine
 10
206.131118
 20
207.81596
 30
0.0
 11
196.131118
 21
207.81596
 31
0.0
  0
LINE
  5
217
100
AcDbEntity
  8
0
100
AcDbLine
 10
205.493015
 20
179.26597
 30
0.0
 11
203.636729
 21
179.26597
 31
0.0
  0
LINE
  5
218
100
AcDbEntity
  8
0
100
AcDbLine
 10
206.131118
 20
182.81596
 30
0.0
 11
196.131118
 21
182.81596
 31
0.0
  0
LINE
  5
219
100
AcDbEntity
  8
0
100
AcDbLine
 10
205.62852
 20
175.36596
 30
0.0
 11
203.636736
 21
175.36596
 31
0.0
  0
LINE
  5
21A
100
AcDbEntity
  8
0
100
AcDbLine
 10
206.131118
 20
171.81596
 30
0.0
 11
195.131118
 21
171.81596
 31
0.0
  0
CIRCLE
  5
21B
100
AcDbEntity
  8
0
100
AcDbCircle
 10
201.131118
 20
177.31596
 30
0.0
 40
3.175
  0
LINE
  5
21C
100
AcDbEntity
  8
0
100
AcDbLine
 10
211.181118
 20
168.31596
 30
0.0
 11
191.181118
 21
168.31596
 31
0.0
  0
LINE
  5
21D
100
AcDbEntity
  8
0
100
AcDbLine
 10
195.764118
 20
176.2658
 30
0.0
 11
195.764118
 21
179.46597
 31
0.0
  0
LINE
  5
21E
100
AcDbEntity
  8
0
100
AcDbLine
 10
195.564118
 20
176.18295
 30
0.0
 11
195.564118
 21
179.46598
 31
0.0
  0
LINE
  5
21F
100
AcDbEntity
  8
0
100
AcDbLine
 10
193.181118
 20
171.81596
 30
0.0
 11
191.181118
 21
171.81596
 31
0.0
  0
LINE
  5
220
100
AcDbEntity
  8
0
100
AcDbLine
 10
196.633715
 20
175.36596
 30
0.0
 11
198.625499
 21
175.36596
 31
0.0
  0
LINE
  5
221
100
AcDbEntity
  8
0
100
AcDbLine
 10
193.181118
 20
175.06596
 30
0.0
 11
195.131118
 21
175.06596
 31
0.0
  0
ARC
  5
222
100
AcDbEntity
  8
0
100
AcDbCircle
 10
196.131118
 20
172.81596
 30
0.0
 40
1.0
100
AcDbArc
 50
180.0
 51
270.0
  0
LINE
  5
223
100
AcDbEntity
  8
0
100
AcDbLine
 10
195.691145
 20
174.666002
 30
0.0
 11
195.940766
 21
174.368502
 31
0.0
  0
LINE
  5
224
100
AcDbEntity
  8
0
100
AcDbLine
 10
195.869107
 20
175.076013
 30
0.0
 11
195.71603
 21
174.947958
 31
0.0
  0
LINE
  5
225
100
AcDbEntity
  8
0
100
AcDbLine
 10
196.31412
 20
175.432908
 30
0.0
 11
195.564118
 21
176.18295
 31
0.0
  0
LINE
  5
226
100
AcDbEntity
  8
0
100
AcDbLine
 10
195.844128
 20
174.795028
 30
0.0
 11
196.094445
 21
174.496687
 31
0.0
  0
LINE
  5
227
100
AcDbEntity
  8
0
100
AcDbLine
 10
195.997097
 20
174.923013
 30
0.0
 11
195.844128
 21
174.795028
 31
0.0
  0
LINE
  5
228
100
AcDbEntity
  8
0
100
AcDbLine
 10
195.869107
 20
175.076013
 30
0.0
 11
195.997097
 21
174.923013
 31
0.0
  0
ARC
  5
229
100
AcDbEntity
  8
0
100
AcDbCircle
 10
196.633715
 20
175.26596
 30
0.0
 40
0.1
100
AcDbArc
 50
90.0
 51
175.003307
  0
LINE
  5
22A
100
AcDbEntity
  8
0
100
AcDbLine
 10
196.469443
 20
174.535204
 30
0.0
 11
196.534095
 21
175.27467
 31
0.0
  0
LINE
  5
22B
100
AcDbEntity
  8
0
100
AcDbLine
 10
196.270931
 20
174.556043
 30
0.0
 11
196.31412
 21
175.432908
 31
0.0
  0
LINE
  5
22C
100
AcDbEntity
  8
0
100
AcDbLine
 10
196.514118
 20
175.04597
 30
0.0
 11
196.514118
 21
175.51582
 31
0.0
  0
ARC
  5
22D
100
AcDbEntity
  8
0
100
AcDbCircle
 10
196.171052
 20
174.560963
 30
0.0
 40
0.1
100
AcDbArc
 50
219.997661
 51
357.180247
  0
ARC
  5
22E
100
AcDbEntity
  8
0
100
AcDbCircle
 10
196.170583
 20
174.561333
 30
0.0
 40
0.3
100
AcDbArc
 50
219.998813
 51
355.003307
  0
LINE
  5
22F
100
AcDbEntity
  8
0
100
AcDbLine
 10
196.514118
 20
175.51582
 30
0.0
 11
195.764118
 21
176.2658
 31
0.0
  0
LINE
  5
230
100
AcDbEntity
  8
0
100
AcDbLine
 10
195.231118
 20
174.66597
 30
0.0
 11
195.691171
 21
174.66597
 31
0.0
  0
ARC
  5
231
100
AcDbEntity
  8
0
100
AcDbCircle
 10
195.844356
 20
174.794556
 30
0.0
 40
0.2
100
AcDbArc
 50
129.913694
 51
219.998813
  0
ARC
  5
232
100
AcDbEntity
  8
0
100
AcDbCircle
 10
195.231118
 20
174.56597
 30
0.0
 40
0.1
100
AcDbArc
 50
90.0
 51
180.0
  0
LINE
  5
233
100
AcDbEntity
  8
0
100
AcDbLine
 10
193.181118
 20
170.56596
 30
0.0
 11
195.131118
 21
170.56596
 31
0.0
  0
LINE
  5
234
100
AcDbEntity
  8
0
100
AcDbLine
 10
196.769221
 20
179.26597
 30
0.0
 11
198.625507
 21
179.26597
 31
0.0
  0
ARC
  5
235
100
AcDbEntity
  8
0
100
AcDbCircle
 10
196.131118
 20
181.81596
 30
0.0
 40
1.0
100
AcDbArc
 50
90.0
 51
180.0
  0
ARC
  5
236
100
AcDbEntity
  8
0
100
AcDbCircle
 10
195.764118
 20
179.46598
 30
0.0
 40
0.2
100
AcDbArc
 50
90.0
 51
180.0
  0
LINE
  5
237
100
AcDbEntity
  8
0
100
AcDbLine
 10
195.631109
 20
179.86598
 30
0.0
 11
195.906727
 21
180.194513
 31
0.0
  0
ARC
  5
238
100
AcDbEntity
  8
0
100
AcDbCircle
 10
196.769221
 20
179.46597
 30
0.0
 40
0.2
100
AcDbArc
 50
200.007854
 51
270.0
  0
LINE
  5
239
100
AcDbEntity
  8
0
100
AcDbLine
 10
196.059949
 20
180.26597
 30
0.0
 11
196.125053
 21
180.26597
 31
0.0
  0
ARC
  5
23A
100
AcDbEntity
  8
0
100
AcDbCircle
 10
196.059949
 20
180.06597
 30
0.0
 40
0.2
100
AcDbArc
 50
90.0
 51
140.005496
  0
ARC
  5
23B
100
AcDbEntity
  8
0
100
AcDbCircle
 10
196.125053
 20
180.06597
 30
0.0
 40
0.2
100
AcDbArc
 50
20.007854
 51
90.0
  0
LINE
  5
23C
100
AcDbEntity
  8
0
100
AcDbLine
 10
196.312982
 20
180.1344
 30
0.0
 11
196.581291
 21
179.39754
 31
0.0
  0
LINE
  5
23D
100
AcDbEntity
  8
0
100
AcDbLine
 10
196.214118
 20
179.66598
 30
0.0
 11
196.214118
 21
179.46597
 31
0.0
  0
LINE
  5
23E
100
AcDbEntity
  8
0
100
AcDbLine
 10
196.214118
 20
179.46597
 30
0.0
 11
195.764118
 21
179.46597
 31
0.0
  0
LINE
  5
23F
100
AcDbEntity
  8
0
100
AcDbLine
 10
195.764118
 20
179.66598
 30
0.0
 11
196.214118
 21
179.66598
 31
0.0
  0
LINE
  5
240
100
AcDbEntity
  8
0
100
AcDbLine
 10
195.331118
 20
179.86598
 30
0.0
 11
195.631109
 21
179.86598
 31
0.0
  0
ARC
  5
241
100
AcDbEntity
  8
0
100
AcDbCircle
 10
195.331118
 20
180.06598
 30
0.0
 40
0.2
100
AcDbArc
 50
180.0
 51
270.0
  0
ARC
  5
242
100
AcDbEntity
  8
0
100
AcDbCircle
 10
196.131118
 20
208.81596
 30
0.0
 40
1.0
100
AcDbArc
 50
180.0
 51
270.0
  0
LINE
  5
243
100
AcDbEntity
  8
0
100
AcDbLine
 10
249.181118
 20
171.81596
 30
0.0
 11
251.181118
 21
171.81596
 31
0.0
  0
LINE
  5
244
100
AcDbEntity
  8
0
100
AcDbLine
 10
251.181118
 20
168.31596
 30
0.0
 11
224.181118
 21
168.31596
 31
0.0
  0
LINE
  5
245
100
AcDbEntity
  8
0
100
AcDbLine
 10
206.498118
 20
176.2658
 30
0.0
 11
206.498118
 21
179.46597
 31
0.0
  0
LINE
  5
246
100
AcDbEntity
  8
0
100
AcDbLine
 10
206.698118
 20
176.18295
 30
0.0
 11
206.698118
 21
179.46598
 31
0.0
  0
LINE
  5
247
100
AcDbEntity
  8
0
100
AcDbLine
 10
246.598118
 20
176.2658
 30
0.0
 11
246.598118
 21
179.46597
 31
0.0
  0
LINE
  5
248
100
AcDbEntity
  8
0
100
AcDbLine
 10
246.798118
 20
176.18295
 30
0.0
 11
246.798118
 21
179.46598
 31
0.0
  0
CIRCLE
  5
249
100
AcDbEntity
  8
0
100
AcDbCircle
 10
241.231118
 20
177.31596
 30
0.0
 40
3.175
  0
LINE
  5
24A
100
AcDbEntity
  8
0
100
AcDbLine
 10
235.664118
 20
176.18295
 30
0.0
 11
235.664118
 21
179.46598
 31
0.0
  0
LINE
  5
24B
100
AcDbEntity
  8
0
100
AcDbLine
 10
235.864118
 20
176.2658
 30
0.0
 11
235.864118
 21
179.46597
 31
0.0
  0
LINE
  5
24C
100
AcDbEntity
  8
0
100
AcDbLine
 10
235.231118
 20
174.81596
 30
0.0
 11
207.131118
 21
174.81596
 31
0.0
  0
LINE
  5
24D
100
AcDbEntity
  8
0
100
AcDbLine
 10
211.181118
 20
151.31596
 30
0.0
 11
211.181118
 21
168.31596
 31
0.0
  0
LINE
  5
24E
100
AcDbEntity
  8
0
100
AcDbLine
 10
216.081118
 20
152.31596
 30
0.0
 11
216.081118
 21
166.31596
 31
0.0
  0
LINE
  5
24F
100
AcDbEntity
  8
0
100
AcDbLine
 10
224.181118
 20
151.31596
 30
0.0
 11
224.181118
 21
168.31596
 31
0.0
  0
LINE
  5
250
100
AcDbEntity
  8
CENTER
  6
CENTER
 62
     1
100
AcDbLine
 10
226.181118
 20
159.31596
 30
0.0
 11
209.181118
 21
159.31596
 31
0.0
  0
LINE
  5
251
100
AcDbEntity
  8
0
100
AcDbLine
 10
224.181118
 20
151.31596
 30
0.0
 11
211.181118
 21
151.31596
 31
0.0
  0
LINE
  5
252
100
AcDbEntity
  8
0
100
AcDbLine
 10
216.081118
 20
154.81596
 30
0.0
 11
211.181118
 21
154.81596
 31
0.0
  0
LINE
  5
253
100
AcDbEntity
  8
0
100
AcDbLine
 10
224.181118
 20
152.31596
 30
0.0
 11
216.081118
 21
152.31596
 31
0.0
  0
LINE
  5
254
100
AcDbEntity
  8
0
100
AcDbLine
 10
216.081118
 20
163.81596
 30
0.0
 11
211.181118
 21
163.81596
 31
0.0
  0
ARC
  5
255
100
AcDbEntity
  8
0
100
AcDbCircle
 10
206.131118
 20
172.81596
 30
0.0
 40
1.0
100
AcDbArc
 50
270.0
 51
360.0
  0
LINE
  5
256
100
AcDbEntity
  8
0
100
AcDbLine
 10
206.418108
 20
174.795028
 30
0.0
 11
206.16779
 21
174.496687
 31
0.0
  0
LINE
  5
257
100
AcDbEntity
  8
0
100
AcDbLine
 10
206.393128
 20
175.076013
 30
0.0
 11
206.265138
 21
174.923013
 31
0.0
  0
LINE
  5
258
100
AcDbEntity
  8
0
100
AcDbLine
 10
206.265138
 20
174.923013
 30
0.0
 11
206.418108
 21
174.795028
 31
0.0
  0
LINE
  5
259
100
AcDbEntity
  8
0
100
AcDbLine
 10
206.57109
 20
174.666002
 30
0.0
 11
206.321469
 21
174.368502
 31
0.0
  0
LINE
  5
25A
100
AcDbEntity
  8
0
100
AcDbLine
 10
205.748118
 20
175.51582
 30
0.0
 11
206.498118
 21
176.2658
 31
0.0
  0
LINE
  5
25B
100
AcDbEntity
  8
0
100
AcDbLine
 10
205.948116
 20
175.432908
 30
0.0
 11
206.698118
 21
176.18295
 31
0.0
  0
ARC
  5
25C
100
AcDbEntity
  8
0
100
AcDbCircle
 10
206.417879
 20
174.794556
 30
0.0
 40
0.2
100
AcDbArc
 50
320.001187
 51
50.086306
  0
LINE
  5
25D
100
AcDbEntity
  8
0
100
AcDbLine
 10
206.393128
 20
175.076013
 30
0.0
 11
206.546205
 21
174.947958
 31
0.0
  0
ARC
  5
25E
100
AcDbEntity
  8
0
100
AcDbCircle
 10
207.031118
 20
174.56597
 30
0.0
 40
0.1
100
AcDbArc
 50
360.0
 51
90.0
  0
LINE
  5
25F
100
AcDbEntity
  8
0
100
AcDbLine
 10
207.031118
 20
174.66597
 30
0.0
 11
206.571064
 21
174.66597
 31
0.0
  0
ARC
  5
260
100
AcDbEntity
  8
0
100
AcDbCircle
 10
206.091652
 20
174.561333
 30
0.0
 40
0.3
100
AcDbArc
 50
184.996693
 51
320.001187
  0
ARC
  5
261
100
AcDbEntity
  8
0
100
AcDbCircle
 10
206.091183
 20
174.560963
 30
0.0
 40
0.1
100
AcDbArc
 50
182.819753
 51
320.002339
  0
LINE
  5
262
100
AcDbEntity
  8
0
100
AcDbLine
 10
205.748118
 20
175.04597
 30
0.0
 11
205.748118
 21
175.51582
 31
0.0
  0
LINE
  5
263
100
AcDbEntity
  8
0
100
AcDbLine
 10
205.991304
 20
174.556043
 30
0.0
 11
205.948116
 21
175.432908
 31
0.0
  0
LINE
  5
264
100
AcDbEntity
  8
0
100
AcDbLine
 10
205.792792
 20
174.535204
 30
0.0
 11
205.72814
 21
175.27467
 31
0.0
  0
ARC
  5
265
100
AcDbEntity
  8
0
100
AcDbCircle
 10
205.62852
 20
175.26596
 30
0.0
 40
0.1
100
AcDbArc
 50
4.996693
 51
90.0
  0
LINE
  5
266
100
AcDbEntity
  8
0
100
AcDbLine
 10
224.181118
 20
166.31596
 30
0.0
 11
216.081118
 21
166.31596
 31
0.0
  0
LINE
  5
267
100
AcDbEntity
  8
0
100
AcDbLine
 10
236.231118
 20
171.81596
 30
0.0
 11
247.231118
 21
171.81596
 31
0.0
  0
ARC
  5
268
100
AcDbEntity
  8
0
100
AcDbCircle
 10
236.733715
 20
175.26596
 30
0.0
 40
0.1
100
AcDbArc
 50
90.0
 51
175.003307
  0
LINE
  5
269
100
AcDbEntity
  8
0
100
AcDbLine
 10
236.569443
 20
174.535204
 30
0.0
 11
236.634095
 21
175.27467
 31
0.0
  0
LINE
  5
26A
100
AcDbEntity
  8
0
100
AcDbLine
 10
236.370931
 20
174.556043
 30
0.0
 11
236.41412
 21
175.432908
 31
0.0
  0
LINE
  5
26B
100
AcDbEntity
  8
0
100
AcDbLine
 10
236.614118
 20
175.04597
 30
0.0
 11
236.614118
 21
175.51582
 31
0.0
  0
ARC
  5
26C
100
AcDbEntity
  8
0
100
AcDbCircle
 10
236.271052
 20
174.560963
 30
0.0
 40
0.1
100
AcDbArc
 50
219.997661
 51
357.180247
  0
ARC
  5
26D
100
AcDbEntity
  8
0
100
AcDbCircle
 10
236.270583
 20
174.561333
 30
0.0
 40
0.3
100
AcDbArc
 50
219.998813
 51
355.003307
  0
LINE
  5
26E
100
AcDbEntity
  8
0
100
AcDbLine
 10
236.733715
 20
175.36596
 30
0.0
 11
238.725499
 21
175.36596
 31
0.0
  0
LINE
  5
26F
100
AcDbEntity
  8
0
100
AcDbLine
 10
235.331118
 20
174.66597
 30
0.0
 11
235.791171
 21
174.66597
 31
0.0
  0
ARC
  5
270
100
AcDbEntity
  8
0
100
AcDbCircle
 10
235.331118
 20
174.56597
 30
0.0
 40
0.1
100
AcDbArc
 50
90.0
 51
180.0
  0
LINE
  5
271
100
AcDbEntity
  8
0
100
AcDbLine
 10
235.969107
 20
175.076013
 30
0.0
 11
235.81603
 21
174.947958
 31
0.0
  0
ARC
  5
272
100
AcDbEntity
  8
0
100
AcDbCircle
 10
235.944356
 20
174.794556
 30
0.0
 40
0.2
100
AcDbArc
 50
129.913694
 51
219.998813
  0
ARC
  5
273
100
AcDbEntity
  8
0
100
AcDbCircle
 10
236.231118
 20
172.81596
 30
0.0
 40
1.0
100
AcDbArc
 50
180.0
 51
270.0
  0
LINE
  5
274
100
AcDbEntity
  8
0
100
AcDbLine
 10
236.41412
 20
175.432908
 30
0.0
 11
235.664118
 21
176.18295
 31
0.0
  0
LINE
  5
275
100
AcDbEntity
  8
0
100
AcDbLine
 10
236.614118
 20
175.51582
 30
0.0
 11
235.864118
 21
176.2658
 31
0.0
  0
LINE
  5
276
100
AcDbEntity
  8
0
100
AcDbLine
 10
235.791145
 20
174.666002
 30
0.0
 11
236.040766
 21
174.368502
 31
0.0
  0
LINE
  5
277
100
AcDbEntity
  8
0
100
AcDbLine
 10
236.097097
 20
174.923013
 30
0.0
 11
235.944128
 21
174.795028
 31
0.0
  0
LINE
  5
278
100
AcDbEntity
  8
0
100
AcDbLine
 10
235.969107
 20
175.076013
 30
0.0
 11
236.097097
 21
174.923013
 31
0.0
  0
LINE
  5
279
100
AcDbEntity
  8
0
100
AcDbLine
 10
235.944128
 20
174.795028
 30
0.0
 11
236.194445
 21
174.496687
 31
0.0
  0
LINE
  5
27A
100
AcDbEntity
  8
0
100
AcDbLine
 10
245.72852
 20
175.36596
 30
0.0
 11
243.736736
 21
175.36596
 31
0.0
  0
LINE
  5
27B
100
AcDbEntity
  8
0
100
AcDbLine
 10
249.181118
 20
175.06596
 30
0.0
 11
247.231118
 21
175.06596
 31
0.0
  0
LINE
  5
27C
100
AcDbEntity
  8
0
100
AcDbLine
 10
249.181118
 20
170.56596
 30
0.0
 11
247.231118
 21
170.56596
 31
0.0
  0
ARC
  5
27D
100
AcDbEntity
  8
0
100
AcDbCircle
 10
247.131118
 20
174.56597
 30
0.0
 40
0.1
100
AcDbArc
 50
0.0
 51
90.0
  0
LINE
  5
27E
100
AcDbEntity
  8
0
100
AcDbLine
 10
245.848118
 20
175.51582
 30
0.0
 11
246.598118
 21
176.2658
 31
0.0
  0
LINE
  5
27F
100
AcDbEntity
  8
0
100
AcDbLine
 10
246.048116
 20
175.432908
 30
0.0
 11
246.798118
 21
176.18295
 31
0.0
  0
LINE
  5
280
100
AcDbEntity
  8
0
100
AcDbLine
 10
246.493128
 20
175.076013
 30
0.0
 11
246.646205
 21
174.947958
 31
0.0
  0
LINE
  5
281
100
AcDbEntity
  8
0
100
AcDbLine
 10
246.67109
 20
174.666002
 30
0.0
 11
246.421469
 21
174.368502
 31
0.0
  0
ARC
  5
282
100
AcDbEntity
  8
0
100
AcDbCircle
 10
246.191652
 20
174.561333
 30
0.0
 40
0.3
100
AcDbArc
 50
184.996693
 51
320.001187
  0
ARC
  5
283
100
AcDbEntity
  8
0
100
AcDbCircle
 10
246.191183
 20
174.560963
 30
0.0
 40
0.1
100
AcDbArc
 50
182.819753
 51
320.002339
  0
LINE
  5
284
100
AcDbEntity
  8
0
100
AcDbLine
 10
245.848118
 20
175.04597
 30
0.0
 11
245.848118
 21
175.51582
 31
0.0
  0
LINE
  5
285
100
AcDbEntity
  8
0
100
AcDbLine
 10
246.091304
 20
174.556043
 30
0.0
 11
246.048116
 21
175.432908
 31
0.0
  0
LINE
  5
286
100
AcDbEntity
  8
0
100
AcDbLine
 10
245.892792
 20
174.535204
 30
0.0
 11
245.82814
 21
175.27467
 31
0.0
  0
ARC
  5
287
100
AcDbEntity
  8
0
100
AcDbCircle
 10
245.72852
 20
175.26596
 30
0.0
 40
0.1
100
AcDbArc
 50
4.996693
 51
90.0
  0
LINE
  5
288
100
AcDbEntity
  8
0
100
AcDbLine
 10
246.493128
 20
175.076013
 30
0.0
 11
246.365138
 21
174.923013
 31
0.0
  0
LINE
  5
289
100
AcDbEntity
  8
0
100
AcDbLine
 10
246.365138
 20
174.923013
 30
0.0
 11
246.518108
 21
174.795028
 31
0.0
  0
LINE
  5
28A
100
AcDbEntity
  8
0
100
AcDbLine
 10
246.518108
 20
174.795028
 30
0.0
 11
246.26779
 21
174.496687
 31
0.0
  0
ARC
  5
28B
100
AcDbEntity
  8
0
100
AcDbCircle
 10
246.517879
 20
174.794556
 30
0.0
 40
0.2
100
AcDbArc
 50
320.001187
 51
50.086306
  0
LINE
  5
28C
100
AcDbEntity
  8
0
100
AcDbLine
 10
247.131118
 20
174.66597
 30
0.0
 11
246.671064
 21
174.66597
 31
0.0
  0
ARC
  5
28D
100
AcDbEntity
  8
0
100
AcDbCircle
 10
246.231118
 20
172.81596
 30
0.0
 40
1.0
100
AcDbArc
 50
270.0
 51
0.0
  0
ARC
  5
28E
100
AcDbEntity
  8
0
100
AcDbCircle
 10
206.131118
 20
181.81596
 30
0.0
 40
1.0
100
AcDbArc
 50
360.0
 51
90.0
  0
ARC
  5
28F
100
AcDbEntity
  8
0
100
AcDbCircle
 10
206.202287
 20
180.06597
 30
0.0
 40
0.2
100
AcDbArc
 50
39.994504
 51
90.0
  0
LINE
  5
290
100
AcDbEntity
  8
0
100
AcDbLine
 10
206.048118
 20
179.46597
 30
0.0
 11
206.498118
 21
179.46597
 31
0.0
  0
LINE
  5
291
100
AcDbEntity
  8
0
100
AcDbLine
 10
206.498118
 20
179.66598
 30
0.0
 11
206.048118
 21
179.66598
 31
0.0
  0
LINE
  5
292
100
AcDbEntity
  8
0
100
AcDbLine
 10
206.631126
 20
179.86598
 30
0.0
 11
206.355508
 21
180.194513
 31
0.0
  0
ARC
  5
293
100
AcDbEntity
  8
0
100
AcDbCircle
 10
206.931118
 20
180.06598
 30
0.0
 40
0.2
100
AcDbArc
 50
270.0
 51
360.0
  0
LINE
  5
294
100
AcDbEntity
  8
0
100
AcDbLine
 10
206.931118
 20
179.86598
 30
0.0
 11
206.631126
 21
179.86598
 31
0.0
  0
ARC
  5
295
100
AcDbEntity
  8
0
100
AcDbCircle
 10
206.498118
 20
179.46598
 30
0.0
 40
0.2
100
AcDbArc
 50
360.0
 51
90.0
  0
ARC
  5
296
100
AcDbEntity
  8
0
100
AcDbCircle
 10
205.493015
 20
179.46597
 30
0.0
 40
0.2
100
AcDbArc
 50
270.0
 51
339.992146
  0
LINE
  5
297
100
AcDbEntity
  8
0
100
AcDbLine
 10
206.202287
 20
180.26597
 30
0.0
 11
206.137182
 21
180.26597
 31
0.0
  0
ARC
  5
298
100
AcDbEntity
  8
0
100
AcDbCircle
 10
206.137182
 20
180.06597
 30
0.0
 40
0.2
100
AcDbArc
 50
90.0
 51
159.992146
  0
LINE
  5
299
100
AcDbEntity
  8
0
100
AcDbLine
 10
206.048118
 20
179.66598
 30
0.0
 11
206.048118
 21
179.46597
 31
0.0
  0
LINE
  5
29A
100
AcDbEntity
  8
0
100
AcDbLine
 10
205.949253
 20
180.1344
 30
0.0
 11
205.680944
 21
179.39754
 31
0.0
  0
ARC
  5
29B
100
AcDbEntity
  8
0
100
AcDbCircle
 10
206.131118
 20
208.81596
 30
0.0
 40
1.0
100
AcDbArc
 50
270.0
 51
0.0
  0
LINE
  5
29C
100
AcDbEntity
  8
0
100
AcDbLine
 10
236.231118
 20
182.81596
 30
0.0
 11
246.231118
 21
182.81596
 31
0.0
  0
LINE
  5
29D
100
AcDbEntity
  8
0
100
AcDbLine
 10
236.412982
 20
180.1344
 30
0.0
 11
236.681291
 21
179.39754
 31
0.0
  0
LINE
  5
29E
100
AcDbEntity
  8
0
100
AcDbLine
 10
236.314118
 20
179.66598
 30
0.0
 11
236.314118
 21
179.46597
 31
0.0
  0
ARC
  5
29F
100
AcDbEntity
  8
0
100
AcDbCircle
 10
236.225053
 20
180.06597
 30
0.0
 40
0.2
100
AcDbArc
 50
20.007854
 51
90.0
  0
LINE
  5
2A0
100
AcDbEntity
  8
0
100
AcDbLine
 10
236.159949
 20
180.26597
 30
0.0
 11
236.225053
 21
180.26597
 31
0.0
  0
ARC
  5
2A1
100
AcDbEntity
  8
0
100
AcDbCircle
 10
236.869221
 20
179.46597
 30
0.0
 40
0.2
100
AcDbArc
 50
200.007854
 51
270.0
  0
LINE
  5
2A2
100
AcDbEntity
  8
0
100
AcDbLine
 10
236.869221
 20
179.26597
 30
0.0
 11
238.725507
 21
179.26597
 31
0.0
  0
ARC
  5
2A3
100
AcDbEntity
  8
0
100
AcDbCircle
 10
235.864118
 20
179.46598
 30
0.0
 40
0.2
100
AcDbArc
 50
90.0
 51
180.0
  0
LINE
  5
2A4
100
AcDbEntity
  8
0
100
AcDbLine
 10
235.431118
 20
179.86598
 30
0.0
 11
235.731109
 21
179.86598
 31
0.0
  0
ARC
  5
2A5
100
AcDbEntity
  8
0
100
AcDbCircle
 10
235.431118
 20
180.06598
 30
0.0
 40
0.2
100
AcDbArc
 50
180.0
 51
270.0
  0
LINE
  5
2A6
100
AcDbEntity
  8
0
100
AcDbLine
 10
235.731109
 20
179.86598
 30
0.0
 11
236.006727
 21
180.194513
 31
0.0
  0
ARC
  5
2A7
100
AcDbEntity
  8
0
100
AcDbCircle
 10
236.231118
 20
181.81596
 30
0.0
 40
1.0
100
AcDbArc
 50
90.0
 51
180.0
  0
LINE
  5
2A8
100
AcDbEntity
  8
0
100
AcDbLine
 10
235.864118
 20
179.66598
 30
0.0
 11
236.314118
 21
179.66598
 31
0.0
  0
LINE
  5
2A9
100
AcDbEntity
  8
0
100
AcDbLine
 10
236.314118
 20
179.46597
 30
0.0
 11
235.864118
 21
179.46597
 31
0.0
  0
ARC
  5
2AA
100
AcDbEntity
  8
0
100
AcDbCircle
 10
236.159949
 20
180.06597
 30
0.0
 40
0.2
100
AcDbArc
 50
90.0
 51
140.005496
  0
LINE
  5
2AB
100
AcDbEntity
  8
0
100
AcDbLine
 10
245.593015
 20
179.26597
 30
0.0
 11
243.736729
 21
179.26597
 31
0.0
  0
ARC
  5
2AC
100
AcDbEntity
  8
0
100
AcDbCircle
 10
247.031118
 20
180.06598
 30
0.0
 40
0.2
100
AcDbArc
 50
270.0
 51
0.0
  0
LINE
  5
2AD
100
AcDbEntity
  8
0
100
AcDbLine
 10
246.598118
 20
179.66598
 30
0.0
 11
246.148118
 21
179.66598
 31
0.0
  0
LINE
  5
2AE
100
AcDbEntity
  8
0
100
AcDbLine
 10
246.731126
 20
179.86598
 30
0.0
 11
246.455508
 21
180.194513
 31
0.0
  0
LINE
  5
2AF
100
AcDbEntity
  8
0
100
AcDbLine
 10
246.148118
 20
179.46597
 30
0.0
 11
246.598118
 21
179.46597
 31
0.0
  0
LINE
  5
2B0
100
AcDbEntity
  8
0
100
AcDbLine
 10
246.148118
 20
179.66598
 30
0.0
 11
246.148118
 21
179.46597
 31
0.0
  0
LINE
  5
2B1
100
AcDbEntity
  8
0
100
AcDbLine
 10
246.049253
 20
180.1344
 30
0.0
 11
245.780944
 21
179.39754
 31
0.0
  0
ARC
  5
2B2
100
AcDbEntity
  8
0
100
AcDbCircle
 10
246.237182
 20
180.06597
 30
0.0
 40
0.2
100
AcDbArc
 50
90.0
 51
159.992146
  0
ARC
  5
2B3
100
AcDbEntity
  8
0
100
AcDbCircle
 10
246.302287
 20
180.06597
 30
0.0
 40
0.2
100
AcDbArc
 50
39.994504
 51
90.0
  0
LINE
  5
2B4
100
AcDbEntity
  8
0
100
AcDbLine
 10
246.302287
 20
180.26597
 30
0.0
 11
246.237182
 21
180.26597
 31
0.0
  0
ARC
  5
2B5
100
AcDbEntity
  8
0
100
AcDbCircle
 10
245.593015
 20
179.46597
 30
0.0
 40
0.2
100
AcDbArc
 50
270.0
 51
339.992146
  0
ARC
  5
2B6
100
AcDbEntity
  8
0
100
AcDbCircle
 10
246.598118
 20
179.46598
 30
0.0
 40
0.2
100
AcDbArc
 50
0.0
 51
90.0
  0
ARC
  5
2B7
100
AcDbEntity
  8
0
100
AcDbCircle
 10
246.231118
 20
181.81596
 30
0.0
 40
1.0
100
AcDbArc
 50
0.0
 51
90.0
  0
LINE
  5
2B8
100
AcDbEntity
  8
0
100
AcDbLine
 10
247.031118
 20
179.86598
 30
0.0
 11
246.731126
 21
179.86598
 31
0.0
  0
LINE
  5
2B9
100
AcDbEntity
  8
0
100
AcDbLine
 10
236.231118
 20
207.81596
 30
0.0
 11
246.231118
 21
207.81596
 31
0.0
  0
ARC
  5
2BA
100
AcDbEntity
  8
0
100
AcDbCircle
 10
236.231118
 20
208.81596
 30
0.0
 40
1.0
100
AcDbArc
 50
180.0
 51
270.0
  0
ARC
  5
2BB
100
AcDbEntity
  8
0
100
AcDbCircle
 10
246.231118
 20
208.81596
 30
0.0
 40
1.0
100
AcDbArc
 50
270.0
 51
360.0
  0
LINE
  5
2BC
100
AcDbEntity
  8
0
100
AcDbLine
 10
205.62852
 20
215.26596
 30
0.0
 11
203.636736
 21
215.26596
 31
0.0
  0
LINE
  5
2BD
100
AcDbEntity
  8
0
100
AcDbLine
 10
205.493015
 20
211.36595
 30
0.0
 11
203.636729
 21
211.36595
 31
0.0
  0
LINE
  5
2BE
100
AcDbEntity
  8
0
100
AcDbLine
 10
206.131118
 20
218.81596
 30
0.0
 11
195.131118
 21
218.81596
 31
0.0
  0
CIRCLE
  5
2BF
100
AcDbEntity
  8
0
100
AcDbCircle
 10
201.131118
 20
213.31596
 30
0.0
 40
3.175
  0
LINE
  5
2C0
100
AcDbEntity
  8
0
100
AcDbLine
 10
211.181118
 20
222.31596
 30
0.0
 11
191.181118
 21
222.31596
 31
0.0
  0
LINE
  5
2C1
100
AcDbEntity
  8
0
100
AcDbLine
 10
193.181118
 20
218.81596
 30
0.0
 11
191.181118
 21
218.81596
 31
0.0
  0
ARC
  5
2C2
100
AcDbEntity
  8
0
100
AcDbCircle
 10
196.131118
 20
217.81596
 30
0.0
 40
1.0
100
AcDbArc
 50
90.0
 51
180.0
  0
LINE
  5
2C3
100
AcDbEntity
  8
0
100
AcDbLine
 10
196.633715
 20
215.26596
 30
0.0
 11
198.625499
 21
215.26596
 31
0.0
  0
LINE
  5
2C4
100
AcDbEntity
  8
0
100
AcDbLine
 10
196.769221
 20
211.36595
 30
0.0
 11
198.625507
 21
211.36595
 31
0.0
  0
LINE
  5
2C5
100
AcDbEntity
  8
0
100
AcDbLine
 10
193.181118
 20
215.56596
 30
0.0
 11
195.131118
 21
215.56596
 31
0.0
  0
ARC
  5
2C6
100
AcDbEntity
  8
0
100
AcDbCircle
 10
195.764118
 20
211.16594
 30
0.0
 40
0.2
100
AcDbArc
 50
180.0
 51
270.0
  0
LINE
  5
2C7
100
AcDbEntity
  8
0
100
AcDbLine
 10
195.631109
 20
210.76594
 30
0.0
 11
195.906727
 21
210.437407
 31
0.0
  0
LINE
  5
2C8
100
AcDbEntity
  8
0
100
AcDbLine
 10
196.31412
 20
215.199012
 30
0.0
 11
195.564118
 21
214.44897
 31
0.0
  0
LINE
  5
2C9
100
AcDbEntity
  8
0
100
AcDbLine
 10
195.869107
 20
215.555907
 30
0.0
 11
195.71603
 21
215.683962
 31
0.0
  0
LINE
  5
2CA
100
AcDbEntity
  8
0
100
AcDbLine
 10
195.691145
 20
215.965919
 30
0.0
 11
195.940766
 21
216.263418
 31
0.0
  0
LINE
  5
2CB
100
AcDbEntity
  8
0
100
AcDbLine
 10
196.214118
 20
210.96594
 30
0.0
 11
196.214118
 21
211.16595
 31
0.0
  0
LINE
  5
2CC
100
AcDbEntity
  8
0
100
AcDbLine
 10
196.312982
 20
210.49752
 30
0.0
 11
196.581291
 21
211.23438
 31
0.0
  0
LINE
  5
2CD
100
AcDbEntity
  8
0
100
AcDbLine
 10
195.764118
 20
210.96594
 30
0.0
 11
196.214118
 21
210.96594
 31
0.0
  0
ARC
  5
2CE
100
AcDbEntity
  8
0
100
AcDbCircle
 10
196.125053
 20
210.56595
 30
0.0
 40
0.2
100
AcDbArc
 50
270.0
 51
339.992146
  0
ARC
  5
2CF
100
AcDbEntity
  8
0
100
AcDbCircle
 10
196.059949
 20
210.56595
 30
0.0
 40
0.2
100
AcDbArc
 50
219.994504
 51
270.0
  0
LINE
  5
2D0
100
AcDbEntity
  8
0
100
AcDbLine
 10
196.059949
 20
210.36595
 30
0.0
 11
196.125053
 21
210.36595
 31
0.0
  0
LINE
  5
2D1
100
AcDbEntity
  8
0
100
AcDbLine
 10
196.514118
 20
215.1161
 30
0.0
 11
195.764118
 21
214.36612
 31
0.0
  0
LINE
  5
2D2
100
AcDbEntity
  8
0
100
AcDbLine
 10
196.214118
 20
211.16595
 30
0.0
 11
195.764118
 21
211.16595
 31
0.0
  0
ARC
  5
2D3
100
AcDbEntity
  8
0
100
AcDbCircle
 10
196.170583
 20
216.070587
 30
0.0
 40
0.3
100
AcDbArc
 50
4.996693
 51
140.001187
  0
ARC
  5
2D4
100
AcDbEntity
  8
0
100
AcDbCircle
 10
196.171052
 20
216.070958
 30
0.0
 40
0.1
100
AcDbArc
 50
2.819753
 51
140.002339
  0
ARC
  5
2D5
100
AcDbEntity
  8
0
100
AcDbCircle
 10
196.769221
 20
211.16595
 30
0.0
 40
0.2
100
AcDbArc
 50
90.0
 51
159.992146
  0
LINE
  5
2D6
100
AcDbEntity
  8
0
100
AcDbLine
 10
196.514118
 20
215.58595
 30
0.0
 11
196.514118
 21
215.1161
 31
0.0
  0
LINE
  5
2D7
100
AcDbEntity
  8
0
100
AcDbLine
 10
196.270931
 20
216.075877
 30
0.0
 11
196.31412
 21
215.199012
 31
0.0
  0
LINE
  5
2D8
100
AcDbEntity
  8
0
100
AcDbLine
 10
196.469443
 20
216.096716
 30
0.0
 11
196.534095
 21
215.35725
 31
0.0
  0
ARC
  5
2D9
100
AcDbEntity
  8
0
100
AcDbCircle
 10
196.633715
 20
215.36596
 30
0.0
 40
0.1
100
AcDbArc
 50
184.996693
 51
270.0
  0
LINE
  5
2DA
100
AcDbEntity
  8
0
100
AcDbLine
 10
195.764118
 20
214.36612
 30
0.0
 11
195.764118
 21
211.16595
 31
0.0
  0
LINE
  5
2DB
100
AcDbEntity
  8
0
100
AcDbLine
 10
195.869107
 20
215.555907
 30
0.0
 11
195.997097
 21
215.708907
 31
0.0
  0
LINE
  5
2DC
100
AcDbEntity
  8
0
100
AcDbLine
 10
195.997097
 20
215.708907
 30
0.0
 11
195.844128
 21
215.836892
 31
0.0
  0
LINE
  5
2DD
100
AcDbEntity
  8
0
100
AcDbLine
 10
195.844128
 20
215.836892
 30
0.0
 11
196.094445
 21
216.135233
 31
0.0
  0
ARC
  5
2DE
100
AcDbEntity
  8
0
100
AcDbCircle
 10
195.331118
 20
210.56594
 30
0.0
 40
0.2
100
AcDbArc
 50
90.0
 51
180.0
  0
LINE
  5
2DF
100
AcDbEntity
  8
0
100
AcDbLine
 10
195.331118
 20
210.76594
 30
0.0
 11
195.631109
 21
210.76594
 31
0.0
  0
LINE
  5
2E0
100
AcDbEntity
  8
0
100
AcDbLine
 10
195.564118
 20
214.44897
 30
0.0
 11
195.564118
 21
211.16594
 31
0.0
  0
ARC
  5
2E1
100
AcDbEntity
  8
0
100
AcDbCircle
 10
195.231118
 20
216.06595
 30
0.0
 40
0.1
100
AcDbArc
 50
180.0
 51
270.0
  0
LINE
  5
2E2
100
AcDbEntity
  8
0
100
AcDbLine
 10
195.231118
 20
215.96595
 30
0.0
 11
195.691171
 21
215.96595
 31
0.0
  0
ARC
  5
2E3
100
AcDbEntity
  8
0
100
AcDbCircle
 10
195.844356
 20
215.837364
 30
0.0
 40
0.2
100
AcDbArc
 50
140.001187
 51
230.086306
  0
LINE
  5
2E4
100
AcDbEntity
  8
0
100
AcDbLine
 10
193.181118
 20
220.06596
 30
0.0
 11
195.131118
 21
220.06596
 31
0.0
  0
LINE
  5
2E5
100
AcDbEntity
  8
0
100
AcDbLine
 10
249.181118
 20
218.81596
 30
0.0
 11
251.181118
 21
218.81596
 31
0.0
  0
LINE
  5
2E6
100
AcDbEntity
  8
0
100
AcDbLine
 10
251.181118
 20
222.31596
 30
0.0
 11
224.181118
 21
222.31596
 31
0.0
  0
LINE
  5
2E7
100
AcDbEntity
  8
0
100
AcDbLine
 10
235.231118
 20
215.81596
 30
0.0
 11
207.131118
 21
215.81596
 31
0.0
  0
LINE
  5
2E8
100
AcDbEntity
  8
0
100
AcDbLine
 10
224.181118
 20
239.31596
 30
0.0
 11
224.181118
 21
222.31596
 31
0.0
  0
LINE
  5
2E9
100
AcDbEntity
  8
0
100
AcDbLine
 10
211.181118
 20
239.31596
 30
0.0
 11
211.181118
 21
222.31596
 31
0.0
  0
LINE
  5
2EA
100
AcDbEntity
  8
0
100
AcDbLine
 10
216.081118
 20
238.31596
 30
0.0
 11
216.081118
 21
224.31596
 31
0.0
  0
ARC
  5
2EB
100
AcDbEntity
  8
0
100
AcDbCircle
 10
206.131118
 20
217.81596
 30
0.0
 40
1.0
100
AcDbArc
 50
0.0
 51
90.0
  0
LINE
  5
2EC
100
AcDbEntity
  8
0
100
AcDbLine
 10
205.948116
 20
215.199012
 30
0.0
 11
206.698118
 21
214.44897
 31
0.0
  0
LINE
  5
2ED
100
AcDbEntity
  8
0
100
AcDbLine
 10
205.748118
 20
215.1161
 30
0.0
 11
206.498118
 21
214.36612
 31
0.0
  0
LINE
  5
2EE
100
AcDbEntity
  8
0
100
AcDbLine
 10
206.393128
 20
215.555907
 30
0.0
 11
206.546205
 21
215.683962
 31
0.0
  0
LINE
  5
2EF
100
AcDbEntity
  8
0
100
AcDbLine
 10
206.631126
 20
210.76594
 30
0.0
 11
206.355508
 21
210.437407
 31
0.0
  0
LINE
  5
2F0
100
AcDbEntity
  8
0
100
AcDbLine
 10
206.498118
 20
210.96594
 30
0.0
 11
206.048118
 21
210.96594
 31
0.0
  0
LINE
  5
2F1
100
AcDbEntity
  8
0
100
AcDbLine
 10
206.048118
 20
211.16595
 30
0.0
 11
206.498118
 21
211.16595
 31
0.0
  0
LINE
  5
2F2
100
AcDbEntity
  8
0
100
AcDbLine
 10
206.57109
 20
215.965919
 30
0.0
 11
206.321469
 21
216.263418
 31
0.0
  0
ARC
  5
2F3
100
AcDbEntity
  8
0
100
AcDbCircle
 10
206.498118
 20
211.16594
 30
0.0
 40
0.2
100
AcDbArc
 50
270.0
 51
0.0
  0
ARC
  5
2F4
100
AcDbEntity
  8
0
100
AcDbCircle
 10
206.931118
 20
210.56594
 30
0.0
 40
0.2
100
AcDbArc
 50
0.0
 51
90.0
  0
LINE
  5
2F5
100
AcDbEntity
  8
0
100
AcDbLine
 10
206.931118
 20
210.76594
 30
0.0
 11
206.631126
 21
210.76594
 31
0.0
  0
LINE
  5
2F6
100
AcDbEntity
  8
0
100
AcDbLine
 10
206.698118
 20
214.44897
 30
0.0
 11
206.698118
 21
211.16594
 31
0.0
  0
LINE
  5
2F7
100
AcDbEntity
  8
0
100
AcDbLine
 10
206.498118
 20
214.36612
 30
0.0
 11
206.498118
 21
211.16595
 31
0.0
  0
ARC
  5
2F8
100
AcDbEntity
  8
0
100
AcDbCircle
 10
207.031118
 20
216.06595
 30
0.0
 40
0.1
100
AcDbArc
 50
270.0
 51
0.0
  0
ARC
  5
2F9
100
AcDbEntity
  8
0
100
AcDbCircle
 10
206.417879
 20
215.837364
 30
0.0
 40
0.2
100
AcDbArc
 50
309.913694
 51
39.998813
  0
LINE
  5
2FA
100
AcDbEntity
  8
0
100
AcDbLine
 10
207.031118
 20
215.96595
 30
0.0
 11
206.571064
 21
215.96595
 31
0.0
  0
LINE
  5
2FB
100
AcDbEntity
  8
0
100
AcDbLine
 10
205.949253
 20
210.49752
 30
0.0
 11
205.680944
 21
211.23438
 31
0.0
  0
LINE
  5
2FC
100
AcDbEntity
  8
0
100
AcDbLine
 10
206.048118
 20
210.96594
 30
0.0
 11
206.048118
 21
211.16595
 31
0.0
  0
ARC
  5
2FD
100
AcDbEntity
  8
0
100
AcDbCircle
 10
206.137182
 20
210.56595
 30
0.0
 40
0.2
100
AcDbArc
 50
200.007854
 51
270.0
  0
LINE
  5
2FE
100
AcDbEntity
  8
0
100
AcDbLine
 10
206.202287
 20
210.36595
 30
0.0
 11
206.137182
 21
210.36595
 31
0.0
  0
ARC
  5
2FF
100
AcDbEntity
  8
0
100
AcDbCircle
 10
206.202287
 20
210.56595
 30
0.0
 40
0.2
100
AcDbArc
 50
270.0
 51
320.005496
  0
ARC
  5
300
100
AcDbEntity
  8
0
100
AcDbCircle
 10
205.493015
 20
211.16595
 30
0.0
 40
0.2
100
AcDbArc
 50
20.007854
 51
90.0
  0
ARC
  5
301
100
AcDbEntity
  8
0
100
AcDbCircle
 10
205.62852
 20
215.36596
 30
0.0
 40
0.1
100
AcDbArc
 50
270.0
 51
355.003307
  0
LINE
  5
302
100
AcDbEntity
  8
0
100
AcDbLine
 10
205.792792
 20
216.096716
 30
0.0
 11
205.72814
 21
215.35725
 31
0.0
  0
LINE
  5
303
100
AcDbEntity
  8
0
100
AcDbLine
 10
205.991304
 20
216.075877
 30
0.0
 11
205.948116
 21
215.199012
 31
0.0
  0
LINE
  5
304
100
AcDbEntity
  8
0
100
AcDbLine
 10
205.748118
 20
215.58595
 30
0.0
 11
205.748118
 21
215.1161
 31
0.0
  0
LINE
  5
305
100
AcDbEntity
  8
0
100
AcDbLine
 10
206.265138
 20
215.708907
 30
0.0
 11
206.418108
 21
215.836892
 31
0.0
  0
LINE
  5
306
100
AcDbEntity
  8
0
100
AcDbLine
 10
206.393128
 20
215.555907
 30
0.0
 11
206.265138
 21
215.708907
 31
0.0
  0
ARC
  5
307
100
AcDbEntity
  8
0
100
AcDbCircle
 10
206.091183
 20
216.070958
 30
0.0
 40
0.1
100
AcDbArc
 50
39.997661
 51
177.180247
  0
LINE
  5
308
100
AcDbEntity
  8
0
100
AcDbLine
 10
206.418108
 20
215.836892
 30
0.0
 11
206.16779
 21
216.135233
 31
0.0
  0
ARC
  5
309
100
AcDbEntity
  8
0
100
AcDbCircle
 10
206.091652
 20
216.070587
 30
0.0
 40
0.3
100
AcDbArc
 50
39.998813
 51
175.003307
  0
LINE
  5
30A
100
AcDbEntity
  8
0
100
AcDbLine
 10
224.181118
 20
224.31596
 30
0.0
 11
216.081118
 21
224.31596
 31
0.0
  0
LINE
  5
30B
100
AcDbEntity
  8
CENTER
  6
CENTER
 62
     1
100
AcDbLine
 10
226.181118
 20
231.31596
 30
0.0
 11
209.181118
 21
231.31596
 31
0.0
  0
LINE
  5
30C
100
AcDbEntity
  8
0
100
AcDbLine
 10
216.081118
 20
235.81596
 30
0.0
 11
211.181118
 21
235.81596
 31
0.0
  0
LINE
  5
30D
100
AcDbEntity
  8
0
100
AcDbLine
 10
216.081118
 20
226.81596
 30
0.0
 11
211.181118
 21
226.81596
 31
0.0
  0
LINE
  5
30E
100
AcDbEntity
  8
0
100
AcDbLine
 10
224.181118
 20
239.31596
 30
0.0
 11
211.181118
 21
239.31596
 31
0.0
  0
LINE
  5
30F
100
AcDbEntity
  8
0
100
AcDbLine
 10
224.181118
 20
238.31596
 30
0.0
 11
216.081118
 21
238.31596
 31
0.0
  0
LINE
  5
310
100
AcDbEntity
  8
0
100
AcDbLine
 10
220.931118
 20
239.31596
 30
0.0
 11
220.931118
 21
239.31606
 31
0.0
  0
LINE
  5
311
100
AcDbEntity
  8
0
100
AcDbLine
 10
217.681118
 20
239.31596
 30
0.0
 11
217.681218
 21
239.31596
 31
0.0
  0
CIRCLE
  5
312
100
AcDbEntity
  8
0
100
AcDbCircle
 10
241.231118
 20
213.31596
 30
0.0
 40
3.175
  0
LINE
  5
313
100
AcDbEntity
  8
0
100
AcDbLine
 10
236.231118
 20
218.81596
 30
0.0
 11
247.231118
 21
218.81596
 31
0.0
  0
ARC
  5
314
100
AcDbEntity
  8
0
100
AcDbCircle
 10
236.231118
 20
217.81596
 30
0.0
 40
1.0
100
AcDbArc
 50
90.0
 51
180.0
  0
ARC
  5
315
100
AcDbEntity
  8
0
100
AcDbCircle
 10
236.270583
 20
216.070587
 30
0.0
 40
0.3
100
AcDbArc
 50
4.996693
 51
140.001187
  0
LINE
  5
316
100
AcDbEntity
  8
0
100
AcDbLine
 10
235.944128
 20
215.836892
 30
0.0
 11
236.194445
 21
216.135233
 31
0.0
  0
ARC
  5
317
100
AcDbEntity
  8
0
100
AcDbCircle
 10
236.271052
 20
216.070958
 30
0.0
 40
0.1
100
AcDbArc
 50
2.819753
 51
140.002339
  0
LINE
  5
318
100
AcDbEntity
  8
0
100
AcDbLine
 10
235.969107
 20
215.555907
 30
0.0
 11
236.097097
 21
215.708907
 31
0.0
  0
LINE
  5
319
100
AcDbEntity
  8
0
100
AcDbLine
 10
236.097097
 20
215.708907
 30
0.0
 11
235.944128
 21
215.836892
 31
0.0
  0
LINE
  5
31A
100
AcDbEntity
  8
0
100
AcDbLine
 10
236.614118
 20
215.58595
 30
0.0
 11
236.614118
 21
215.1161
 31
0.0
  0
LINE
  5
31B
100
AcDbEntity
  8
0
100
AcDbLine
 10
236.370931
 20
216.075877
 30
0.0
 11
236.41412
 21
215.199012
 31
0.0
  0
LINE
  5
31C
100
AcDbEntity
  8
0
100
AcDbLine
 10
236.569443
 20
216.096716
 30
0.0
 11
236.634095
 21
215.35725
 31
0.0
  0
ARC
  5
31D
100
AcDbEntity
  8
0
100
AcDbCircle
 10
236.733715
 20
215.36596
 30
0.0
 40
0.1
100
AcDbArc
 50
184.996693
 51
270.0
  0
ARC
  5
31E
100
AcDbEntity
  8
0
100
AcDbCircle
 10
236.869221
 20
211.16595
 30
0.0
 40
0.2
100
AcDbArc
 50
90.0
 51
159.992146
  0
LINE
  5
31F
100
AcDbEntity
  8
0
100
AcDbLine
 10
236.869221
 20
211.36595
 30
0.0
 11
238.725507
 21
211.36595
 31
0.0
  0
LINE
  5
320
100
AcDbEntity
  8
0
100
AcDbLine
 10
236.733715
 20
215.26596
 30
0.0
 11
238.725499
 21
215.26596
 31
0.0
  0
ARC
  5
321
100
AcDbEntity
  8
0
100
AcDbCircle
 10
236.159949
 20
210.56595
 30
0.0
 40
0.2
100
AcDbArc
 50
219.994504
 51
270.0
  0
LINE
  5
322
100
AcDbEntity
  8
0
100
AcDbLine
 10
236.159949
 20
210.36595
 30
0.0
 11
236.225053
 21
210.36595
 31
0.0
  0
ARC
  5
323
100
AcDbEntity
  8
0
100
AcDbCircle
 10
236.225053
 20
210.56595
 30
0.0
 40
0.2
100
AcDbArc
 50
270.0
 51
339.992146
  0
LINE
  5
324
100
AcDbEntity
  8
0
100
AcDbLine
 10
236.314118
 20
210.96594
 30
0.0
 11
236.314118
 21
211.16595
 31
0.0
  0
LINE
  5
325
100
AcDbEntity
  8
0
100
AcDbLine
 10
236.412982
 20
210.49752
 30
0.0
 11
236.681291
 21
211.23438
 31
0.0
  0
LINE
  5
326
100
AcDbEntity
  8
0
100
AcDbLine
 10
235.331118
 20
215.96595
 30
0.0
 11
235.791171
 21
215.96595
 31
0.0
  0
ARC
  5
327
100
AcDbEntity
  8
0
100
AcDbCircle
 10
235.944356
 20
215.837364
 30
0.0
 40
0.2
100
AcDbArc
 50
140.001187
 51
230.086306
  0
ARC
  5
328
100
AcDbEntity
  8
0
100
AcDbCircle
 10
235.331118
 20
216.06595
 30
0.0
 40
0.1
100
AcDbArc
 50
180.0
 51
270.0
  0
LINE
  5
329
100
AcDbEntity
  8
0
100
AcDbLine
 10
235.864118
 20
214.36612
 30
0.0
 11
235.864118
 21
211.16595
 31
0.0
  0
LINE
  5
32A
100
AcDbEntity
  8
0
100
AcDbLine
 10
235.664118
 20
214.44897
 30
0.0
 11
235.664118
 21
211.16594
 31
0.0
  0
LINE
  5
32B
100
AcDbEntity
  8
0
100
AcDbLine
 10
235.431118
 20
210.76594
 30
0.0
 11
235.731109
 21
210.76594
 31
0.0
  0
ARC
  5
32C
100
AcDbEntity
  8
0
100
AcDbCircle
 10
235.431118
 20
210.56594
 30
0.0
 40
0.2
100
AcDbArc
 50
90.0
 51
180.0
  0
ARC
  5
32D
100
AcDbEntity
  8
0
100
AcDbCircle
 10
235.864118
 20
211.16594
 30
0.0
 40
0.2
100
AcDbArc
 50
180.0
 51
270.0
  0
LINE
  5
32E
100
AcDbEntity
  8
0
100
AcDbLine
 10
235.791145
 20
215.965919
 30
0.0
 11
236.040766
 21
216.263418
 31
0.0
  0
LINE
  5
32F
100
AcDbEntity
  8
0
100
AcDbLine
 10
236.314118
 20
211.16595
 30
0.0
 11
235.864118
 21
211.16595
 31
0.0
  0
LINE
  5
330
100
AcDbEntity
  8
0
100
AcDbLine
 10
235.864118
 20
210.96594
 30
0.0
 11
236.314118
 21
210.96594
 31
0.0
  0
LINE
  5
331
100
AcDbEntity
  8
0
100
AcDbLine
 10
235.731109
 20
210.76594
 30
0.0
 11
236.006727
 21
210.437407
 31
0.0
  0
LINE
  5
332
100
AcDbEntity
  8
0
100
AcDbLine
 10
235.969107
 20
215.555907
 30
0.0
 11
235.81603
 21
215.683962
 31
0.0
  0
LINE
  5
333
100
AcDbEntity
  8
0
100
AcDbLine
 10
236.614118
 20
215.1161
 30
0.0
 11
235.864118
 21
214.36612
 31
0.0
  0
LINE
  5
334
100
AcDbEntity
  8
0
100
AcDbLine
 10
236.41412
 20
215.199012
 30
0.0
 11
235.664118
 21
214.44897
 31
0.0
  0
ARC
  5
335
100
AcDbEntity
  8
0
100
AcDbCircle
 10
246.231118
 20
217.81596
 30
0.0
 40
1.0
100
AcDbArc
 50
360.0
 51
90.0
  0
LINE
  5
336
100
AcDbEntity
  8
0
100
AcDbLine
 10
245.593015
 20
211.36595
 30
0.0
 11
243.736729
 21
211.36595
 31
0.0
  0
LINE
  5
337
100
AcDbEntity
  8
0
100
AcDbLine
 10
245.72852
 20
215.26596
 30
0.0
 11
243.736736
 21
215.26596
 31
0.0
  0
LINE
  5
338
100
AcDbEntity
  8
0
100
AcDbLine
 10
249.181118
 20
215.56596
 30
0.0
 11
247.231118
 21
215.56596
 31
0.0
  0
LINE
  5
339
100
AcDbEntity
  8
0
100
AcDbLine
 10
246.518108
 20
215.836892
 30
0.0
 11
246.26779
 21
216.135233
 31
0.0
  0
LINE
  5
33A
100
AcDbEntity
  8
0
100
AcDbLine
 10
246.67109
 20
215.965919
 30
0.0
 11
246.421469
 21
216.263418
 31
0.0
  0
ARC
  5
33B
100
AcDbEntity
  8
0
100
AcDbCircle
 10
246.517879
 20
215.837364
 30
0.0
 40
0.2
100
AcDbArc
 50
309.913694
 51
39.998813
  0
LINE
  5
33C
100
AcDbEntity
  8
0
100
AcDbLine
 10
246.493128
 20
215.555907
 30
0.0
 11
246.646205
 21
215.683962
 31
0.0
  0
LINE
  5
33D
100
AcDbEntity
  8
0
100
AcDbLine
 10
247.131118
 20
215.96595
 30
0.0
 11
246.671064
 21
215.96595
 31
0.0
  0
LINE
  5
33E
100
AcDbEntity
  8
0
100
AcDbLine
 10
246.365138
 20
215.708907
 30
0.0
 11
246.518108
 21
215.836892
 31
0.0
  0
LINE
  5
33F
100
AcDbEntity
  8
0
100
AcDbLine
 10
246.493128
 20
215.555907
 30
0.0
 11
246.365138
 21
215.708907
 31
0.0
  0
ARC
  5
340
100
AcDbEntity
  8
0
100
AcDbCircle
 10
247.131118
 20
216.06595
 30
0.0
 40
0.1
100
AcDbArc
 50
270.0
 51
360.0
  0
LINE
  5
341
100
AcDbEntity
  8
0
100
AcDbLine
 10
246.798118
 20
214.44897
 30
0.0
 11
246.798118
 21
211.16594
 31
0.0
  0
LINE
  5
342
100
AcDbEntity
  8
0
100
AcDbLine
 10
246.598118
 20
214.36612
 30
0.0
 11
246.598118
 21
211.16595
 31
0.0
  0
ARC
  5
343
100
AcDbEntity
  8
0
100
AcDbCircle
 10
245.72852
 20
215.36596
 30
0.0
 40
0.1
100
AcDbArc
 50
270.0
 51
355.003307
  0
LINE
  5
344
100
AcDbEntity
  8
0
100
AcDbLine
 10
245.892792
 20
216.096716
 30
0.0
 11
245.82814
 21
215.35725
 31
0.0
  0
LINE
  5
345
100
AcDbEntity
  8
0
100
AcDbLine
 10
246.091304
 20
216.075877
 30
0.0
 11
246.048116
 21
215.199012
 31
0.0
  0
LINE
  5
346
100
AcDbEntity
  8
0
100
AcDbLine
 10
245.848118
 20
215.58595
 30
0.0
 11
245.848118
 21
215.1161
 31
0.0
  0
ARC
  5
347
100
AcDbEntity
  8
0
100
AcDbCircle
 10
245.593015
 20
211.16595
 30
0.0
 40
0.2
100
AcDbArc
 50
20.007854
 51
90.0
  0
ARC
  5
348
100
AcDbEntity
  8
0
100
AcDbCircle
 10
246.191183
 20
216.070958
 30
0.0
 40
0.1
100
AcDbArc
 50
39.997661
 51
177.180247
  0
ARC
  5
349
100
AcDbEntity
  8
0
100
AcDbCircle
 10
246.191652
 20
216.070587
 30
0.0
 40
0.3
100
AcDbArc
 50
39.998813
 51
175.003307
  0
LINE
  5
34A
100
AcDbEntity
  8
0
100
AcDbLine
 10
246.148118
 20
211.16595
 30
0.0
 11
246.598118
 21
211.16595
 31
0.0
  0
LINE
  5
34B
100
AcDbEntity
  8
0
100
AcDbLine
 10
246.048116
 20
215.199012
 30
0.0
 11
246.798118
 21
214.44897
 31
0.0
  0
LINE
  5
34C
100
AcDbEntity
  8
0
100
AcDbLine
 10
245.848118
 20
215.1161
 30
0.0
 11
246.598118
 21
214.36612
 31
0.0
  0
LINE
  5
34D
100
AcDbEntity
  8
0
100
AcDbLine
 10
246.302287
 20
210.36595
 30
0.0
 11
246.237182
 21
210.36595
 31
0.0
  0
ARC
  5
34E
100
AcDbEntity
  8
0
100
AcDbCircle
 10
246.302287
 20
210.56595
 30
0.0
 40
0.2
100
AcDbArc
 50
270.0
 51
320.005496
  0
LINE
  5
34F
100
AcDbEntity
  8
0
100
AcDbLine
 10
246.731126
 20
210.76594
 30
0.0
 11
246.455508
 21
210.437407
 31
0.0
  0
LINE
  5
350
100
AcDbEntity
  8
0
100
AcDbLine
 10
247.031118
 20
210.76594
 30
0.0
 11
246.731126
 21
210.76594
 31
0.0
  0
ARC
  5
351
100
AcDbEntity
  8
0
100
AcDbCircle
 10
247.031118
 20
210.56594
 30
0.0
 40
0.2
100
AcDbArc
 50
360.0
 51
90.0
  0
ARC
  5
352
100
AcDbEntity
  8
0
100
AcDbCircle
 10
246.237182
 20
210.56595
 30
0.0
 40
0.2
100
AcDbArc
 50
200.007854
 51
270.0
  0
LINE
  5
353
100
AcDbEntity
  8
0
100
AcDbLine
 10
246.598118
 20
210.96594
 30
0.0
 11
246.148118
 21
210.96594
 31
0.0
  0
LINE
  5
354
100
AcDbEntity
  8
0
100
AcDbLine
 10
246.049253
 20
210.49752
 30
0.0
 11
245.780944
 21
211.23438
 31
0.0
  0
ARC
  5
355
100
AcDbEntity
  8
0
100
AcDbCircle
 10
246.598118
 20
211.16594
 30
0.0
 40
0.2
100
AcDbArc
 50
270.0
 51
360.0
  0
LINE
  5
356
100
AcDbEntity
  8
0
100
AcDbLine
 10
246.148118
 20
210.96594
 30
0.0
 11
246.148118
 21
211.16595
 31
0.0
  0
LINE
  5
357
100
AcDbEntity
  8
0
100
AcDbLine
 10
249.181118
 20
220.06596
 30
0.0
 11
247.231118
 21
220.06596
 31
0.0
  0
CIRCLE
  5
358
100
AcDbEntity
  8
CENTER
  6
CENTER
 62
     1
100
AcDbCircle
 10
410.05072
 20
195.31596
 30
0.0
 40
36.0
  0
LINE
  5
359
100
AcDbEntity
  8
CENTER
  6
CENTER
 62
     1
100
AcDbLine
 10
410.05072
 20
144.351779
 30
0.0
 11
410.05072
 21
246.280141
 31
0.0
  0
CIRCLE
  5
35A
100
AcDbEntity
  8
0
100
AcDbCircle
 10
410.05072
 20
195.31596
 30
0.0
 40
27.0
  0
CIRCLE
  5
35B
100
AcDbEntity
  8
0
100
AcDbCircle
 10
410.05072
 20
195.31596
 30
0.0
 40
23.5
  0
LINE
  5
35C
100
AcDbEntity
  8
0
100
AcDbLine
 10
366.1915
 20
198.832895
 30
0.0
 11
406.533786
 21
239.17518
 31
0.0
  0
LINE
  5
35D
100
AcDbEntity
  8
0
100
AcDbLine
 10
413.567655
 20
239.17518
 30
0.0
 11
453.90994
 21
198.832895
 31
0.0
  0
LINE
  5
35E
100
AcDbEntity
  8
CENTER
  6
CENTER
 62
     1
100
AcDbLine
 10
359.086539
 20
195.31596
 30
0.0
 11
461.014902
 21
195.31596
 31
0.0
  0
LINE
  5
35F
100
AcDbEntity
  8
0
100
AcDbLine
 10
366.1915
 20
191.799026
 30
0.0
 11
406.533786
 21
151.45674
 31
0.0
  0
ARC
  5
360
100
AcDbEntity
  8
0
100
AcDbCircle
 10
410.05072
 20
195.31596
 30
0.0
 40
44.0
100
AcDbArc
 50
175.415439
 51
184.584561
  0
CIRCLE
  5
361
100
AcDbEntity
  8
0
100
AcDbCircle
 10
374.05072
 20
195.31596
 30
0.0
 40
4.5
  0
CIRCLE
  5
362
100
AcDbEntity
  8
0
100
AcDbCircle
 10
374.05072
 20
195.31596
 30
0.0
 40
7.0
  0
LINE
  5
363
100
AcDbEntity
  8
0
100
AcDbLine
 10
413.567655
 20
151.45674
 30
0.0
 11
453.90994
 21
191.799026
 31
0.0
  0
CIRCLE
  5
364
100
AcDbEntity
  8
0
100
AcDbCircle
 10
410.05072
 20
159.31596
 30
0.0
 40
4.5
  0
ARC
  5
365
100
AcDbEntity
  8
0
100
AcDbCircle
 10
410.05072
 20
195.31596
 30
0.0
 40
44.0
100
AcDbArc
 50
265.415439
 51
274.584561
  0
CIRCLE
  5
366
100
AcDbEntity
  8
0
100
AcDbCircle
 10
410.05072
 20
159.31596
 30
0.0
 40
7.0
  0
CIRCLE
  5
367
100
AcDbEntity
  8
0
100
AcDbCircle
 10
410.05072
 20
195.31596
 30
0.0
 40
12.5
  0
CIRCLE
  5
368
100
AcDbEntity
  8
0
100
AcDbCircle
 10
446.05072
 20
195.31596
 30
0.0
 40
4.5
  0
ARC
  5
369
100
AcDbEntity
  8
0
100
AcDbCircle
 10
410.05072
 20
195.31596
 30
0.0
 40
44.0
100
AcDbArc
 50
355.415439
 51
4.584561
  0
CIRCLE
  5
36A
100
AcDbEntity
  8
0
100
AcDbCircle
 10
446.05072
 20
195.31596
 30
0.0
 40
7.0
  0
CIRCLE
  5
36B
100
AcDbEntity
  8
0
100
AcDbCircle
 10
410.05072
 20
231.31596
 30
0.0
 40
4.5
  0
CIRCLE
  5
36C
100
AcDbEntity
  8
0
100
AcDbCircle
 10
410.05072
 20
231.31596
 30
0.0
 40
7.0
  0
ARC
  5
36D
100
AcDbEntity
  8
0
100
AcDbCircle
 10
410.05072
 20
195.31596
 30
0.0
 40
44.0
100
AcDbArc
 50
85.415439
 51
94.584561
  0
ENDSEC
  0
SECTION
  2
OBJECTS
  0
DICTIONARY
  5
1DB
100
AcDbDictionary
  3
ACAD_GROUP
350
1DC
  3
ACAD_LAYOUT
350
1E8
  3
ACAD_MLINESTYLE
350
1E5
  3
ACAD_PLOTSETTINGS
350
1E7
  3
ACAD_PLOTSTYLENAME
350
1DD
  3
ACDBHEADERROUNDTRIPXREC
350
37A
  3
AcDbVariableDictionary
350
3A3
  0
DICTIONARY
  5
378
100
AcDbDictionary
280
     1
  3
ACAD_XREC_ROUNDTRIP
360
379
  0
DICTIONARY
  5
374
100
AcDbDictionary
280
     1
  3
ACAD_XREC_ROUNDTRIP
360
375
  0
DICTIONARY
  5
376
100
AcDbDictionary
280
     1
  3
ACAD_XREC_ROUNDTRIP
360
377
  0
DICTIONARY
  5
3A1
100
AcDbDictionary
280
     1
  3
ACAD_XREC_ROUNDTRIP
360
3A2
  0
DICTIONARY
  5
370
100
AcDbDictionary
280
     1
  3
ACAD_LAYOUTSELFREF
360
3A0
  3
ACAD_XREC_ROUNDTRIP
360
371
  0
DICTIONARY
  5
372
100
AcDbDictionary
280
     1
  3
ACAD_LAYOUTSELFREF
360
39F
  3
ACAD_XREC_ROUNDTRIP
360
373
  0
DICTIONARY
  5
1DC
102
{ACAD_REACTORS
330
1DB
102
}
100
AcDbDictionary
  0
DICTIONARY
  5
1E8
102
{ACAD_XDICTIONARY
360
39D
102
}
102
{ACAD_REACTORS
330
1DB
102
}
100
AcDbDictionary
  3
MODEL
350
1F0
  3
ﾚｲｱｳﾄ1
350
1EC
  0
DICTIONARY
  5
1E5
102
{ACAD_XDICTIONARY
360
39B
102
}
102
{ACAD_REACTORS
330
1DB
102
}
100
AcDbDictionary
  3
STANDARD
350
1E6
  0
DICTIONARY
  5
1E7
102
{ACAD_REACTORS
330
1DB
102
}
100
AcDbDictionary
  0
ACAD_PROXY_OBJECT
  5
1DD
102
{ACAD_REACTORS
330
1DB
102
}
100
AcDbProxyObject
 90
      499
 91
      500
 93
       86
310
405010041939BDC9B585B0
350
1DE
340
1DE
 94
        0
  0
DICTIONARY
  5
37A
102
{ACAD_REACTORS
330
1DB
102
}
100
AcDbDictionary
  3
CEPSNTYPE
350
384
  3
DIMSTYLEDATA
350
388
  3
FINGERPRINTGUID
350
385
  3
HYPERLINKBASE
350
37D
  3
INSUNITS
350
383
  3
LAYOUTDICT
350
37F
  3
LWETCUNION
350
382
  3
PLOTSETDICT
350
380
  3
PLOTSTYLNAMDICT
350
381
  3
PSVPSCALE
350
387
  3
PUCSBASE
350
38B
  3
PUCSORGBACK
350
391
  3
PUCSORGBOTTOM
350
38D
  3
PUCSORGFRONT
350
390
  3
PUCSORGLEFT
350
38E
  3
PUCSORGRIGHT
350
38F
  3
PUCSORGTOP
350
38C
  3
PUCSORTHOREF
350
389
  3
PUCSORTHOVIEW
350
38A
  3
STYLESHEET
350
37E
  3
TSTACKALIGN
350
37B
  3
TSTACKSIZE
350
37C
  3
UCSBASE
350
394
  3
UCSORGBACK
350
39A
  3
UCSORGBOTTOM
350
396
  3
UCSORGFRONT
350
399
  3
UCSORGLEFT
350
397
  3
UCSORGRIGHT
350
398
  3
UCSORGTOP
350
395
  3
UCSORTHOREF
350
392
  3
UCSORTHOVIEW
350
393
  3
VERSIONGUID
350
386
  0
DICTIONARY
  5
3A3
102
{ACAD_REACTORS
330
1DB
102
}
100
AcDbDictionary
  3
DIMASSOC
350
3A4
  0
XRECORD
  5
379
102
{ACAD_REACTORS
330
378
102
}
100
AcDbXrecord
102
EXTNAMES
  1
*ACTIVE
  2
*Active
102
UCS
 74
     0
 71
     0
 10
0.0
 20
0.0
 30
0.0
 10
1.0
 20
0.0
 30
0.0
 10
0.0
 20
1.0
 30
0.0
146
0.0
 79
     0
102
VIEW
281
     0
  0
XRECORD
  5
375
102
{ACAD_REACTORS
330
374
102
}
100
AcDbXrecord
102
EXTNAMES
  1
BYBLOCK
  2
ByBlock
  0
XRECORD
  5
377
102
{ACAD_REACTORS
330
376
102
}
100
AcDbXrecord
102
EXTNAMES
  1
BYLAYER
  2
ByLayer
  0
XRECORD
  5
3A2
102
{ACAD_REACTORS
330
3A1
102
}
100
AcDbXrecord
102
ACADR14ROUNDTRIP
1000
DSTYLE
1002
{
1070
   279
 70
     2
1002
}
  0
XRECORD
  5
3A0
102
{ACAD_REACTORS
330
370
102
}
100
AcDbXrecord
340
1ED
  0
XRECORD
  5
371
102
{ACAD_REACTORS
330
370
102
}
100
AcDbXrecord
102
EXTNAMES
  1
*MODEL_SPACE
  2
*Model_Space
  0
XRECORD
  5
39F
102
{ACAD_REACTORS
330
372
102
}
100
AcDbXrecord
340
1E9
  0
XRECORD
  5
373
102
{ACAD_REACTORS
330
372
102
}
100
AcDbXrecord
102
EXTNAMES
  1
*PAPER_SPACE
  2
*Paper_Space
  0
DICTIONARY
  5
39D
100
AcDbDictionary
280
     1
  3
ACAD_XREC_ROUNDTRIP
360
39E
  0
ACAD_PROXY_OBJECT
  5
1F0
102
{ACAD_REACTORS
330
1E8
102
}
100
AcDbProxyObject
 90
      499
 91
      502
 93
      836
310
932433A5C50524F4752414D2046494C45535C4D4454365C706C6F74746572735C526F6C616E64204458592D313235302E7063332C01AAAAAAAAA5A69054D6F64656C901A800000000000000000000000000000000000000000000A1000000000000008902A6A6AAAA0
330
1ED
330
0
340
0
340
0
 94
        0
  0
ACAD_PROXY_OBJECT
  5
1EC
102
{ACAD_REACTORS
330
1E8
102
}
100
AcDbProxyObject
 90
      499
 91
      502
 93
     1244
310
932433A5C50524F4752414D2046494C45535C4D4454365C706C6F74746572735C526F6C616E64204458592D313235302E7063332C00AAAAAA416AA59106906DAB2B1B3C431406A800000000000000000000000000000000000000000101E900000000000241C902A6A6A10232D5E076BC5510408CB5781DAF154410232D5E0
310
76BC5510408CB5781DAF15C410232D5E076BC5710408CB5781DAF15C40
330
1E9
330
0
340
0
340
0
 94
        0
  0
DICTIONARY
  5
39B
100
AcDbDictionary
280
     1
  3
ACAD_XREC_ROUNDTRIP
360
39C
  0
MLINESTYLE
  5
1E6
102
{ACAD_REACTORS
330
1E5
102
}
100
AcDbMlineStyle
  2
STANDARD
 70
     0
  3

 62
   256
 51
90.0
 52
90.0
 71
     2
 49
0.5
 62
   256
  6
BYLAYER
 49
-0.5
 62
   256
  6
BYLAYER
  0
ACAD_PROXY_OBJECT
  5
1DE
102
{ACAD_REACTORS
330
1DD
102
}
100
AcDbProxyObject
 90
      499
 91
      501
 93
        0
 94
        0
  0
XRECORD
  5
384
102
{ACAD_REACTORS
330
37A
102
}
100
AcDbXrecord
 90
        0
  0
XRECORD
  5
388
102
{ACAD_REACTORS
330
37A
102
}
100
AcDbXrecord
1000
DSTYLE
1002
{
1070
   341
340
203
1070
   343
340
203
1070
   344
340
1FD
1002
}
  0
XRECORD
  5
385
102
{ACAD_REACTORS
330
37A
102
}
100
AcDbXrecord
  1
{7C87F33E-97B7-48A6-87B1-8A4DB06B59A9}
  0
XRECORD
  5
37D
102
{ACAD_REACTORS
330
37A
102
}
100
AcDbXrecord
  1

  0
XRECORD
  5
383
102
{ACAD_REACTORS
330
37A
102
}
100
AcDbXrecord
 90
        0
  0
XRECORD
  5
37F
102
{ACAD_REACTORS
330
37A
102
}
100
AcDbXrecord
340
1E8
  0
XRECORD
  5
382
102
{ACAD_REACTORS
330
37A
102
}
100
AcDbXrecord
 90
    10781
  0
XRECORD
  5
380
102
{ACAD_REACTORS
330
37A
102
}
100
AcDbXrecord
340
1E7
  0
XRECORD
  5
381
102
{ACAD_REACTORS
330
37A
102
}
100
AcDbXrecord
340
1DD
  0
XRECORD
  5
387
102
{ACAD_REACTORS
330
37A
102
}
100
AcDbXrecord
 40
0.0
  0
XRECORD
  5
38B
102
{ACAD_REACTORS
330
37A
102
}
100
AcDbXrecord
340
0
  0
XRECORD
  5
391
102
{ACAD_REACTORS
330
37A
102
}
100
AcDbXrecord
 10
0.0
 20
0.0
 30
0.0
  0
XRECORD
  5
38D
102
{ACAD_REACTORS
330
37A
102
}
100
AcDbXrecord
 10
0.0
 20
0.0
 30
0.0
  0
XRECORD
  5
390
102
{ACAD_REACTORS
330
37A
102
}
100
AcDbXrecord
 10
0.0
 20
0.0
 30
0.0
  0
XRECORD
  5
38E
102
{ACAD_REACTORS
330
37A
102
}
100
AcDbXrecord
 10
0.0
 20
0.0
 30
0.0
  0
XRECORD
  5
38F
102
{ACAD_REACTORS
330
37A
102
}
100
AcDbXrecord
 10
0.0
 20
0.0
 30
0.0
  0
XRECORD
  5
38C
102
{ACAD_REACTORS
330
37A
102
}
100
AcDbXrecord
 10
0.0
 20
0.0
 30
0.0
  0
XRECORD
  5
389
102
{ACAD_REACTORS
330
37A
102
}
100
AcDbXrecord
340
0
  0
XRECORD
  5
38A
102
{ACAD_REACTORS
330
37A
102
}
100
AcDbXrecord
 70
     0
  0
XRECORD
  5
37E
102
{ACAD_REACTORS
330
37A
102
}
100
AcDbXrecord
  1

  0
XRECORD
  5
37B
102
{ACAD_REACTORS
330
37A
102
}
100
AcDbXrecord
 90
        1
  0
XRECORD
  5
37C
102
{ACAD_REACTORS
330
37A
102
}
100
AcDbXrecord
 90
       70
  0
XRECORD
  5
394
102
{ACAD_REACTORS
330
37A
102
}
100
AcDbXrecord
340
0
  0
XRECORD
  5
39A
102
{ACAD_REACTORS
330
37A
102
}
100
AcDbXrecord
 10
0.0
 20
0.0
 30
0.0
  0
XRECORD
  5
396
102
{ACAD_REACTORS
330
37A
102
}
100
AcDbXrecord
 10
0.0
 20
0.0
 30
0.0
  0
XRECORD
  5
399
102
{ACAD_REACTORS
330
37A
102
}
100
AcDbXrecord
 10
0.0
 20
0.0
 30
0.0
  0
XRECORD
  5
397
102
{ACAD_REACTORS
330
37A
102
}
100
AcDbXrecord
 10
0.0
 20
0.0
 30
0.0
  0
XRECORD
  5
398
102
{ACAD_REACTORS
330
37A
102
}
100
AcDbXrecord
 10
0.0
 20
0.0
 30
0.0
  0
XRECORD
  5
395
102
{ACAD_REACTORS
330
37A
102
}
100
AcDbXrecord
 10
0.0
 20
0.0
 30
0.0
  0
XRECORD
  5
392
102
{ACAD_REACTORS
330
37A
102
}
100
AcDbXrecord
340
0
  0
XRECORD
  5
393
102
{ACAD_REACTORS
330
37A
102
}
100
AcDbXrecord
 70
     0
  0
XRECORD
  5
386
102
{ACAD_REACTORS
330
37A
102
}
100
AcDbXrecord
  1
{E81A7425-8995-4E8D-B4F1-4F0853720D6A}
  0
DICTIONARYVAR
  5
3A4
102
{ACAD_REACTORS
330
3A3
102
}
100
DictionaryVariables
280
     0
  1
1
  0
XRECORD
  5
39E
102
{ACAD_REACTORS
330
39D
102
}
100
AcDbXrecord
102
EXTNAMES
  1
MODEL
  2
Model
  0
XRECORD
  5
39C
102
{ACAD_REACTORS
330
39B
102
}
100
AcDbXrecord
102
EXTNAMES
  1
STANDARD
  2
Standard
  0
ENDSEC
  0
EOF
