  0
SECTION
  2
HEADER
  9
$ACADVER
  1
AC1014
  9
$ACADMAINTVER
 70
     0
  9
$DWGCODEPAGE
  3
ANSI_932
  9
$INSBASE
 10
0.0
 20
0.0
 30
0.0
  9
$EXTMIN
 10
87.502628
 20
69.620763
 30
0.0
  9
$EXTMAX
 10
232.127239
 20
127.96328
 30
0.0
  9
$LIMMIN
 10
0.0
 20
0.0
  9
$LIMMAX
 10
297.0
 20
210.0
  9
$ORTHOMODE
 70
     0
  9
$REGENMODE
 70
     1
  9
$FILLMODE
 70
     1
  9
$QTEXTMODE
 70
     0
  9
$MIRRTEXT
 70
     1
  9
$DRAGMODE
 70
     2
  9
$LTSCALE
 40
0.25
  9
$OSMODE
 70
    37
  9
$ATTMODE
 70
     1
  9
$TEXTSIZE
 40
4.0
  9
$TRACEWID
 40
1.0
  9
$TEXTSTYLE
  7
STANDARD
  9
$CLAYER
  8
0
  9
$CELTYPE
  6
BYLAYER
  9
$CECOLOR
 62
   256
  9
$CELTSCALE
 40
1.0
  9
$DELOBJ
 70
     1
  9
$DISPSILH
 70
     0
  9
$DIMSCALE
 40
1.0
  9
$DIMASZ
 40
3.0
  9
$DIMEXO
 40
1.0
  9
$DIMDLI
 40
10.0
  9
$DIMRND
 40
0.0
  9
$DIMDLE
 40
0.0
  9
$DIMEXE
 40
1.0
  9
$DIMTP
 40
0.0
  9
$DIMTM
 40
0.0
  9
$DIMTXT
 40
3.2
  9
$DIMCEN
 40
0.0
  9
$DIMTSZ
 40
0.0
  9
$DIMTOL
 70
     0
  9
$DIMLIM
 70
     0
  9
$DIMTIH
 70
     0
  9
$DIMTOH
 70
     0
  9
$DIMSE1
 70
     0
  9
$DIMSE2
 70
     0
  9
$DIMTAD
 70
     3
  9
$DIMZIN
 70
     8
  9
$DIMBLK
  1
ARROW
  9
$DIMASO
 70
     1
  9
$DIMSHO
 70
     1
  9
$DIMPOST
  1

  9
$DIMAPOST
  1

  9
$DIMALT
 70
     0
  9
$DIMALTD
 70
     2
  9
$DIMALTF
 40
0.04
  9
$DIMLFAC
 40
1.0
  9
$DIMTOFL
 70
     1
  9
$DIMTVP
 40
1.0
  9
$DIMTIX
 70
     0
  9
$DIMSOXD
 70
     0
  9
$DIMSAH
 70
     0
  9
$DIMBLK1
  1

  9
$DIMBLK2
  1

  9
$DIMSTYLE
  2
AA1
  9
$DIMCLRD
 70
     0
  9
$DIMCLRE
 70
     0
  9
$DIMCLRT
 70
     0
  9
$DIMTFAC
 40
0.6
  9
$DIMGAP
 40
1.0
  9
$DIMJUST
 70
     0
  9
$DIMSD1
 70
     0
  9
$DIMSD2
 70
     0
  9
$DIMTOLJ
 70
     1
  9
$DIMTZIN
 70
     0
  9
$DIMALTZ
 70
     0
  9
$DIMALTTZ
 70
     0
  9
$DIMFIT
 70
     3
  9
$DIMUPT
 70
     0
  9
$DIMUNIT
 70
     2
  9
$DIMDEC
 70
     4
  9
$DIMTDEC
 70
     4
  9
$DIMALTU
 70
     2
  9
$DIMALTTD
 70
     2
  9
$DIMTXSTY
  7
STANDARD
  9
$DIMAUNIT
 70
     0
  9
$LUNITS
 70
     2
  9
$LUPREC
 70
     2
  9
$SKETCHINC
 40
1.0
  9
$FILLETRAD
 40
10.0
  9
$AUNITS
 70
     0
  9
$AUPREC
 70
     0
  9
$MENU
  1
acad
  9
$ELEVATION
 40
0.0
  9
$PELEVATION
 40
0.0
  9
$THICKNESS
 40
0.0
  9
$LIMCHECK
 70
     0
  9
$BLIPMODE
 70
     0
  9
$CHAMFERA
 40
0.0
  9
$CHAMFERB
 40
0.0
  9
$CHAMFERC
 40
0.0
  9
$CHAMFERD
 40
0.0
  9
$SKPOLY
 70
     0
  9
$TDCREATE
 40
2451466.564964583
  9
$TDUPDATE
 40
2453753.677109004
  9
$TDINDWG
 40
0.0014348727
  9
$TDUSRTIMER
 40
0.0014348727
  9
$USRTIMER
 70
     1
  9
$ANGBASE
 50
0.0
  9
$ANGDIR
 70
     0
  9
$PDMODE
 70
     1
  9
$PDSIZE
 40
0.0
  9
$PLINEWID
 40
0.0
  9
$COORDS
 70
     1
  9
$SPLFRAME
 70
     0
  9
$SPLINETYPE
 70
     6
  9
$SPLINESEGS
 70
     8
  9
$ATTDIA
 70
     0
  9
$ATTREQ
 70
     1
  9
$HANDLING
 70
     1
  9
$HANDSEED
  5
398
  9
$SURFTAB1
 70
     6
  9
$SURFTAB2
 70
     6
  9
$SURFTYPE
 70
     6
  9
$SURFU
 70
     6
  9
$SURFV
 70
     6
  9
$UCSNAME
  2

  9
$UCSORG
 10
0.0
 20
0.0
 30
0.0
  9
$UCSXDIR
 10
1.0
 20
0.0
 30
0.0
  9
$UCSYDIR
 10
0.0
 20
1.0
 30
0.0
  9
$PUCSNAME
  2

  9
$PUCSORG
 10
0.0
 20
0.0
 30
0.0
  9
$PUCSXDIR
 10
1.0
 20
0.0
 30
0.0
  9
$PUCSYDIR
 10
0.0
 20
1.0
 30
0.0
  9
$USERI1
 70
     0
  9
$USERI2
 70
     0
  9
$USERI3
 70
     0
  9
$USERI4
 70
     0
  9
$USERI5
 70
     0
  9
$USERR1
 40
0.0
  9
$USERR2
 40
0.0
  9
$USERR3
 40
0.0
  9
$USERR4
 40
0.0
  9
$USERR5
 40
0.0
  9
$WORLDVIEW
 70
     1
  9
$SHADEDGE
 70
     3
  9
$SHADEDIF
 70
    70
  9
$TILEMODE
 70
     1
  9
$MAXACTVP
 70
    16
  9
$PINSBASE
 10
0.0
 20
0.0
 30
0.0
  9
$PLIMCHECK
 70
     0
  9
$PEXTMIN
 10
1.000000E+20
 20
1.000000E+20
 30
1.000000E+20
  9
$PEXTMAX
 10
-1.000000E+20
 20
-1.000000E+20
 30
-1.000000E+20
  9
$PLIMMIN
 10
0.0
 20
0.0
  9
$PLIMMAX
 10
420.0
 20
297.0
  9
$UNITMODE
 70
     0
  9
$VISRETAIN
 70
     0
  9
$PLINEGEN
 70
     0
  9
$PSLTSCALE
 70
     0
  9
$TREEDEPTH
 70
  3020
  9
$PICKSTYLE
 70
     1
  9
$CMLSTYLE
  2
STANDARD
  9
$CMLJUST
 70
     0
  9
$CMLSCALE
 40
1.0
  9
$PROXYGRAPHICS
 70
     1
  9
$MEASUREMENT
 70
     0
  0
ENDSEC
  0
SECTION
  2
CLASSES
  0
CLASS
  1
ACDBDICTIONARYWDFLT
  2
AcDbDictionaryWithDefault
  3
AutoCAD 2000
 90
        0
280
     0
281
     0
  0
CLASS
  1
ACDBPLACEHOLDER
  2
AcDbPlaceHolder
  3
AutoCAD 2000
 90
        0
280
     0
281
     0
  0
CLASS
  1
LAYOUT
  2
AcDbLayout
  3
AutoCAD 2000
 90
        0
280
     0
281
     0
  0
CLASS
  1
DICTIONARYVAR
  2
AcDbDictionaryVar
  3
"AutoCAD"
 90
        0
280
     0
281
     0
  0
CLASS
  1
LONG_TRANSACTION
  2
AcDbLongTransaction
  3
AutoCAD 2000
 90
        0
280
     0
281
     0
  0
CLASS
  1
LWPOLYLINE
  2
AcDbPolyline
  3
"AutoCAD"
 90
        0
280
     0
281
     1
  0
CLASS
  1
HATCH
  2
AcDbHatch
  3
"ACAD_SEDONA"
 90
        0
280
     0
281
     1
  0
CLASS
  1
XRECORD
  2
AcDbXrecord
  3
"<Built In>"
 90
        0
280
     0
281
     0
  0
ENDSEC
  0
SECTION
  2
TABLES
  0
TABLE
  2
VPORT
  5
1CA
100
AcDbSymbolTable
 70
     2
  0
VPORT
  5
397
100
AcDbSymbolTableRecord
100
AcDbViewportTableRecord
  2
*ACTIVE
 70
     0
 10
0.0
 20
0.0
 11
1.0
 21
1.0
 12
109.426315
 22
100.108968
 13
0.0
 23
0.0
 14
10.0
 24
10.0
 15
0.0
 25
0.0
 16
0.0
 26
0.0
 36
1.0
 17
0.0
 27
0.0
 37
0.0
 40
32.160602
 41
1.436725
 42
50.0
 43
0.0
 44
0.0
 50
0.0
 51
0.0
 71
     0
 72
   100
 73
     1
 74
     0
 75
     0
 76
     0
 77
     0
 78
     1
  0
ENDTAB
  0
TABLE
  2
LTYPE
  5
1C7
100
AcDbSymbolTable
 70
     2
  0
LTYPE
  5
1D5
102
{ACAD_XDICTIONARY
360
35F
102
}
100
AcDbSymbolTableRecord
100
AcDbLinetypeTableRecord
  2
BYBLOCK
 70
     0
  3

 72
    65
 73
     0
 40
0.0
  0
LTYPE
  5
1D6
102
{ACAD_XDICTIONARY
360
361
102
}
100
AcDbSymbolTableRecord
100
AcDbLinetypeTableRecord
  2
BYLAYER
 70
     0
  3

 72
    65
 73
     0
 40
0.0
  0
LTYPE
  5
1D7
100
AcDbSymbolTableRecord
100
AcDbLinetypeTableRecord
  2
CONTINUOUS
 70
     0
  3
Solid line
 72
    65
 73
     0
 40
0.0
  0
LTYPE
  5
1E5
100
AcDbSymbolTableRecord
100
AcDbLinetypeTableRecord
  2
CENTER
 70
     0
  3
____ _ ____ _ ____ _ ____ _ ____ _ ____ _ ____ 
 72
    65
 73
     4
 40
50.8
 49
31.75
 74
     0
 49
-6.35
 74
     0
 49
6.35
 74
     0
 49
-6.35
 74
     0
  0
ENDTAB
  0
TABLE
  2
LAYER
  5
1C4
100
AcDbSymbolTable
 70
     3
  0
LAYER
  5
1D2
100
AcDbSymbolTableRecord
100
AcDbLayerTableRecord
  2
0
 70
     0
 62
     7
  6
CONTINUOUS
  0
LAYER
  5
1E6
100
AcDbSymbolTableRecord
100
AcDbLayerTableRecord
  2
DIMENSION
 70
     0
 62
    -4
  6
CONTINUOUS
  0
LAYER
  5
1E7
100
AcDbSymbolTableRecord
100
AcDbLayerTableRecord
  2
CENTER
 70
     0
 62
     1
  6
CENTER
  0
ENDTAB
  0
TABLE
  2
STYLE
  5
1C5
100
AcDbSymbolTable
 70
     1
  0
STYLE
  5
1D3
100
AcDbSymbolTableRecord
100
AcDbTextStyleTableRecord
  2
STANDARD
 70
     0
 40
0.0
 41
1.0
 50
0.0
 71
     0
 42
4.0
  3
txt
  4

  0
ENDTAB
  0
TABLE
  2
VIEW
  5
1C8
100
AcDbSymbolTable
 70
     0
  0
ENDTAB
  0
TABLE
  2
UCS
  5
1C9
100
AcDbSymbolTable
 70
     0
  0
ENDTAB
  0
TABLE
  2
APPID
  5
1CB
100
AcDbSymbolTable
 70
     1
  0
APPID
  5
1D4
100
AcDbSymbolTableRecord
100
AcDbRegAppTableRecord
  2
ACAD
 70
     0
  0
ENDTAB
  0
TABLE
  2
DIMSTYLE
  5
1CC
100
AcDbSymbolTable
 70
     1
  0
DIMSTYLE
105
1E8
102
{ACAD_XDICTIONARY
360
38C
102
}
100
AcDbSymbolTableRecord
100
AcDbDimStyleTableRecord
  2
AA1
 70
     0
  3

  4

  5

  6

  7

 40
1.0
 41
3.0
 42
1.0
 43
10.0
 44
1.0
 45
0.0
 46
0.0
 47
0.0
 48
0.0
140
3.2
141
0.0
142
0.0
143
0.04
144
1.0
145
1.0
146
0.6
147
1.0
 71
     0
 72
     0
 73
     0
 74
     0
 75
     0
 76
     0
 77
     3
 78
     8
170
     0
171
     2
172
     1
173
     0
174
     0
175
     0
176
     0
177
     0
178
     0
270
     2
271
     2
272
     2
273
     2
274
     2
340
1D3
275
     0
280
     0
281
     0
282
     0
283
     1
284
     8
285
     8
286
     8
287
     5
288
     0
  0
ENDTAB
  0
TABLE
  2
BLOCK_RECORD
  5
1C3
100
AcDbSymbolTable
 70
     3
  0
BLOCK_RECORD
  5
1E0
102
{ACAD_XDICTIONARY
360
35B
102
}
100
AcDbSymbolTableRecord
100
AcDbBlockTableRecord
  2
*MODEL_SPACE
  0
BLOCK_RECORD
  5
1DC
102
{ACAD_XDICTIONARY
360
35D
102
}
100
AcDbSymbolTableRecord
100
AcDbBlockTableRecord
  2
*PAPER_SPACE
  0
BLOCK_RECORD
  5
1EA
100
AcDbSymbolTableRecord
100
AcDbBlockTableRecord
  2
$MODEL_SPACE
  0
BLOCK_RECORD
  5
1ED
100
AcDbSymbolTableRecord
100
AcDbBlockTableRecord
  2
$PAPER_SPACE
  0
BLOCK_RECORD
  5
1F0
100
AcDbSymbolTableRecord
100
AcDbBlockTableRecord
  2
ARROW
  0
ENDTAB
  0
ENDSEC
  0
SECTION
  2
BLOCKS
  0
BLOCK
  5
1E1
100
AcDbEntity
  8
0
100
AcDbBlockBegin
  2
*MODEL_SPACE
 70
     0
 10
0.0
 20
0.0
 30
0.0
  3
*MODEL_SPACE
  1

  0
ENDBLK
  5
1E2
100
AcDbEntity
  8
0
100
AcDbBlockEnd
  0
BLOCK
  5
1DD
100
AcDbEntity
 67
     1
  8
0
100
AcDbBlockBegin
  2
*PAPER_SPACE
 70
     0
 10
0.0
 20
0.0
 30
0.0
  3
*PAPER_SPACE
  1

  0
ENDBLK
  5
1DE
100
AcDbEntity
 67
     1
  8
0
100
AcDbBlockEnd
  0
BLOCK
  5
1EB
100
AcDbEntity
  8
0
100
AcDbBlockBegin
  2
$MODEL_SPACE
 70
     0
 10
0.0
 20
0.0
 30
0.0
  3
$MODEL_SPACE
  1

  0
ENDBLK
  5
1EC
100
AcDbEntity
  8
0
100
AcDbBlockEnd
  0
BLOCK
  5
1EE
100
AcDbEntity
  8
0
100
AcDbBlockBegin
  2
$PAPER_SPACE
 70
     0
 10
0.0
 20
0.0
 30
0.0
  3
$PAPER_SPACE
  1

  0
ENDBLK
  5
1EF
100
AcDbEntity
  8
0
100
AcDbBlockEnd
  0
BLOCK
  5
1F1
100
AcDbEntity
  8
0
100
AcDbBlockBegin
  2
ARROW
 70
     0
 10
0.0
 20
0.0
 30
0.0
  3
ARROW
  1

  0
LINE
  5
1F2
100
AcDbEntity
  8
DIMENSION
100
AcDbLine
 10
0.0
 20
0.0
 30
0.0
 11
-1.0
 21
0.176327
 31
0.0
  0
LINE
  5
1F3
100
AcDbEntity
  8
DIMENSION
100
AcDbLine
 10
0.0
 20
0.0
 30
0.0
 11
-1.0
 21
-0.176327
 31
0.0
  0
LINE
  5
1F4
100
AcDbEntity
  8
DIMENSION
100
AcDbLine
 10
-1.0
 20
0.0
 30
0.0
 11
0.0
 21
0.0
 31
0.0
  0
ENDBLK
  5
1F5
100
AcDbEntity
  8
0
100
AcDbBlockEnd
  0
ENDSEC
  0
SECTION
  2
ENTITIES
  0
LINE
  5
1F6
100
AcDbEntity
  8
0
100
AcDbLine
 10
102.116168
 20
86.392022
 30
0.0
 11
102.116168
 21
111.192022
 31
0.0
  0
LINE
  5
1F7
100
AcDbEntity
  8
0
100
AcDbLine
 10
94.116168
 20
84.792022
 30
0.0
 11
94.116168
 21
112.792022
 31
0.0
  0
LINE
  5
1F8
100
AcDbEntity
  8
0
100
AcDbLine
 10
92.816168
 20
84.792022
 30
0.0
 11
92.816168
 21
112.792022
 31
0.0
  0
LINE
  5
1F9
100
AcDbEntity
  8
0
100
AcDbLine
 10
124.716168
 20
84.792022
 30
0.0
 11
124.716168
 21
112.792022
 31
0.0
  0
LINE
  5
1FA
100
AcDbEntity
  8
0
100
AcDbLine
 10
123.416168
 20
84.792022
 30
0.0
 11
123.416168
 21
112.792022
 31
0.0
  0
LINE
  5
1FB
100
AcDbEntity
  8
0
100
AcDbLine
 10
126.266168
 20
82.792022
 30
0.0
 11
126.266168
 21
114.792022
 31
0.0
  0
LINE
  5
1FC
100
AcDbEntity
  8
0
100
AcDbLine
 10
115.416168
 20
86.392022
 30
0.0
 11
115.416168
 21
111.192022
 31
0.0
  0
LINE
  5
1FD
100
AcDbEntity
  8
0
100
AcDbLine
 10
91.266168
 20
82.792022
 30
0.0
 11
91.266168
 21
114.792022
 31
0.0
  0
LINE
  5
200
100
AcDbEntity
  8
CENTER
  6
CENTER
 62
     1
100
AcDbLine
 10
129.296131
 20
98.792022
 30
0.0
 11
87.502628
 21
98.792022
 31
0.0
  0
LINE
  5
201
100
AcDbEntity
  8
CENTER
  6
CENTER
 62
     1
100
AcDbLine
 10
100.266168
 20
77.792022
 30
0.0
 11
110.266168
 21
77.792022
 31
0.0
  0
ARC
  5
202
100
AcDbEntity
  8
0
100
AcDbCircle
 10
101.516168
 20
104.392022
 30
0.0
 40
0.6
100
AcDbArc
 50
270.0
 51
0.0
  0
ARC
  5
203
100
AcDbEntity
  8
0
100
AcDbCircle
 10
101.516168
 20
93.192022
 30
0.0
 40
0.6
100
AcDbArc
 50
0.0
 51
90.0
  0
ARC
  5
204
100
AcDbEntity
  8
0
100
AcDbCircle
 10
102.016168
 20
91.942032
 30
0.0
 40
0.10001
100
AcDbArc
 50
270.0
 51
0.810251
  0
ARC
  5
205
100
AcDbEntity
  8
0
100
AcDbCircle
 10
102.016168
 20
87.592032
 30
0.0
 40
0.1
100
AcDbArc
 50
0.0
 51
90.0
  0
ARC
  5
206
100
AcDbEntity
  8
0
100
AcDbCircle
 10
101.516168
 20
86.392022
 30
0.0
 40
0.6
100
AcDbArc
 50
270.0
 51
0.0
  0
LINE
  5
207
100
AcDbEntity
  8
0
100
AcDbLine
 10
105.166168
 20
80.042022
 30
0.0
 11
101.266168
 21
80.042022
 31
0.0
  0
LINE
  5
208
100
AcDbEntity
  8
0
100
AcDbLine
 10
109.266168
 20
72.792022
 30
0.0
 11
101.266168
 21
72.792022
 31
0.0
  0
LINE
  5
209
100
AcDbEntity
  8
0
100
AcDbLine
 10
105.166168
 20
75.542022
 30
0.0
 11
101.266168
 21
75.542022
 31
0.0
  0
CIRCLE
  5
20E
100
AcDbEntity
  8
0
100
AcDbCircle
 10
98.116168
 20
89.892042
 30
0.0
 40
2.38125
  0
LINE
  5
20F
100
AcDbEntity
  8
0
100
AcDbLine
 10
101.266168
 20
72.792022
 30
0.0
 11
101.266168
 21
82.792022
 31
0.0
  0
LINE
  5
210
100
AcDbEntity
  8
0
100
AcDbLine
 10
101.516168
 20
85.792022
 30
0.0
 11
94.116168
 21
85.792022
 31
0.0
  0
LINE
  5
211
100
AcDbEntity
  8
0
100
AcDbLine
 10
101.266168
 20
82.792022
 30
0.0
 11
91.266168
 21
82.792022
 31
0.0
  0
LINE
  5
212
100
AcDbEntity
  8
0
100
AcDbLine
 10
92.816168
 20
87.792022
 30
0.0
 11
94.116168
 21
87.792022
 31
0.0
  0
LINE
  5
213
100
AcDbEntity
  8
0
100
AcDbLine
 10
92.816168
 20
84.792022
 30
0.0
 11
94.116168
 21
84.792022
 31
0.0
  0
LINE
  5
214
100
AcDbEntity
  8
0
100
AcDbLine
 10
92.816168
 20
85.792022
 30
0.0
 11
91.266168
 21
85.792022
 31
0.0
  0
ARC
  5
216
100
AcDbEntity
  8
0
100
AcDbCircle
 10
94.716168
 20
86.392022
 30
0.0
 40
0.6
100
AcDbArc
 50
180.0
 51
270.0
  0
LINE
  5
217
100
AcDbEntity
  8
0
100
AcDbLine
 10
94.216168
 20
87.692032
 30
0.0
 11
94.576166
 21
87.692032
 31
0.0
  0
ARC
  5
21F
100
AcDbEntity
  8
0
100
AcDbCircle
 10
94.216168
 20
87.592032
 30
0.0
 40
0.1
100
AcDbArc
 50
90.0
 51
180.0
  0
LINE
  5
223
100
AcDbEntity
  8
0
100
AcDbLine
 10
95.418769
 20
88.392042
 30
0.0
 11
96.266748
 21
88.392042
 31
0.0
  0
LINE
  5
227
100
AcDbEntity
  8
0
100
AcDbLine
 10
100.813566
 20
88.392042
 30
0.0
 11
99.965588
 21
88.392042
 31
0.0
  0
LINE
  5
22A
100
AcDbEntity
  8
0
100
AcDbLine
 10
102.016168
 20
87.692032
 30
0.0
 11
101.656169
 21
87.692032
 31
0.0
  0
LINE
  5
233
100
AcDbEntity
  8
0
100
AcDbLine
 10
101.516168
 20
93.792022
 30
0.0
 11
94.716168
 21
93.792022
 31
0.0
  0
LINE
  5
237
100
AcDbEntity
  8
0
100
AcDbLine
 10
94.216168
 20
91.842022
 30
0.0
 11
94.566168
 21
91.842022
 31
0.0
  0
ARC
  5
23E
100
AcDbEntity
  8
0
100
AcDbCircle
 10
94.216168
 20
91.942032
 30
0.0
 40
0.10001
100
AcDbArc
 50
179.189749
 51
270.0
  0
LINE
  5
241
100
AcDbEntity
  8
0
100
AcDbLine
 10
95.490219
 20
91.392032
 30
0.0
 11
96.266748
 21
91.392032
 31
0.0
  0
ARC
  5
243
100
AcDbEntity
  8
0
100
AcDbCircle
 10
94.716168
 20
93.192022
 30
0.0
 40
0.6
100
AcDbArc
 50
90.0
 51
180.0
  0
LINE
  5
245
100
AcDbEntity
  8
0
100
AcDbLine
 10
100.742117
 20
91.392032
 30
0.0
 11
99.965588
 21
91.392032
 31
0.0
  0
LINE
  5
249
100
AcDbEntity
  8
0
100
AcDbLine
 10
102.016168
 20
91.842022
 30
0.0
 11
101.666168
 21
91.842022
 31
0.0
  0
LINE
  5
252
100
AcDbEntity
  8
0
100
AcDbLine
 10
101.516168
 20
103.792022
 30
0.0
 11
94.716168
 21
103.792022
 31
0.0
  0
ARC
  5
253
100
AcDbEntity
  8
0
100
AcDbCircle
 10
94.716168
 20
104.392022
 30
0.0
 40
0.6
100
AcDbArc
 50
180.0
 51
270.0
  0
LINE
  5
254
100
AcDbEntity
  8
0
100
AcDbLine
 10
124.716168
 20
85.792022
 30
0.0
 11
126.266168
 21
85.792022
 31
0.0
  0
LINE
  5
255
100
AcDbEntity
  8
0
100
AcDbLine
 10
126.266168
 20
82.792022
 30
0.0
 11
109.266168
 21
82.792022
 31
0.0
  0
CIRCLE
  5
25A
100
AcDbEntity
  8
0
100
AcDbCircle
 10
119.416168
 20
89.892042
 30
0.0
 40
2.38125
  0
LINE
  5
25B
100
AcDbEntity
  8
0
100
AcDbLine
 10
115.416168
 20
87.792022
 30
0.0
 11
102.116168
 21
87.792022
 31
0.0
  0
LINE
  5
25C
100
AcDbEntity
  8
0
100
AcDbLine
 10
109.266168
 20
72.792022
 30
0.0
 11
109.266168
 21
82.792022
 31
0.0
  0
LINE
  5
25D
100
AcDbEntity
  8
0
100
AcDbLine
 10
105.166168
 20
73.792022
 30
0.0
 11
105.166168
 21
81.792022
 31
0.0
  0
LINE
  5
25E
100
AcDbEntity
  8
0
100
AcDbLine
 10
105.166168
 20
73.792022
 30
0.0
 11
109.266168
 21
73.792022
 31
0.0
  0
LINE
  5
25F
100
AcDbEntity
  8
0
100
AcDbLine
 10
105.166168
 20
81.792022
 30
0.0
 11
109.266168
 21
81.792022
 31
0.0
  0
LINE
  5
260
100
AcDbEntity
  8
0
100
AcDbLine
 10
116.016168
 20
85.792022
 30
0.0
 11
123.416168
 21
85.792022
 31
0.0
  0
LINE
  5
265
100
AcDbEntity
  8
0
100
AcDbLine
 10
115.516168
 20
87.692032
 30
0.0
 11
115.876166
 21
87.692032
 31
0.0
  0
ARC
  5
266
100
AcDbEntity
  8
0
100
AcDbCircle
 10
115.516168
 20
87.592032
 30
0.0
 40
0.1
100
AcDbArc
 50
90.0
 51
180.0
  0
ARC
  5
26D
100
AcDbEntity
  8
0
100
AcDbCircle
 10
116.016168
 20
86.392022
 30
0.0
 40
0.6
100
AcDbArc
 50
180.0
 51
270.0
  0
LINE
  5
270
100
AcDbEntity
  8
0
100
AcDbLine
 10
116.718769
 20
88.392042
 30
0.0
 11
117.566748
 21
88.392042
 31
0.0
  0
LINE
  5
275
100
AcDbEntity
  8
0
100
AcDbLine
 10
122.113566
 20
88.392042
 30
0.0
 11
121.265588
 21
88.392042
 31
0.0
  0
LINE
  5
276
100
AcDbEntity
  8
0
100
AcDbLine
 10
124.716168
 20
87.792022
 30
0.0
 11
123.416168
 21
87.792022
 31
0.0
  0
LINE
  5
277
100
AcDbEntity
  8
0
100
AcDbLine
 10
124.716168
 20
84.792022
 30
0.0
 11
123.416168
 21
84.792022
 31
0.0
  0
ARC
  5
278
100
AcDbEntity
  8
0
100
AcDbCircle
 10
122.816168
 20
86.392022
 30
0.0
 40
0.6
100
AcDbArc
 50
270.0
 51
0.0
  0
LINE
  5
279
100
AcDbEntity
  8
0
100
AcDbLine
 10
123.316168
 20
87.692032
 30
0.0
 11
122.956169
 21
87.692032
 31
0.0
  0
ARC
  5
282
100
AcDbEntity
  8
0
100
AcDbCircle
 10
123.316168
 20
87.592032
 30
0.0
 40
0.1
100
AcDbArc
 50
0.0
 51
90.0
  0
LINE
  5
283
100
AcDbEntity
  8
0
100
AcDbLine
 10
116.016168
 20
93.792022
 30
0.0
 11
122.816168
 21
93.792022
 31
0.0
  0
LINE
  5
288
100
AcDbEntity
  8
0
100
AcDbLine
 10
115.516168
 20
91.842022
 30
0.0
 11
115.866168
 21
91.842022
 31
0.0
  0
ARC
  5
289
100
AcDbEntity
  8
0
100
AcDbCircle
 10
115.516168
 20
91.942032
 30
0.0
 40
0.10001
100
AcDbArc
 50
179.189749
 51
270.0
  0
LINE
  5
292
100
AcDbEntity
  8
0
100
AcDbLine
 10
116.790219
 20
91.392032
 30
0.0
 11
117.566748
 21
91.392032
 31
0.0
  0
ARC
  5
293
100
AcDbEntity
  8
0
100
AcDbCircle
 10
116.016168
 20
93.192022
 30
0.0
 40
0.6
100
AcDbArc
 50
90.0
 51
180.0
  0
LINE
  5
297
100
AcDbEntity
  8
0
100
AcDbLine
 10
122.042117
 20
91.392032
 30
0.0
 11
121.265588
 21
91.392032
 31
0.0
  0
LINE
  5
29B
100
AcDbEntity
  8
0
100
AcDbLine
 10
123.316168
 20
91.842022
 30
0.0
 11
122.966168
 21
91.842022
 31
0.0
  0
ARC
  5
2A2
100
AcDbEntity
  8
0
100
AcDbCircle
 10
123.316168
 20
91.942032
 30
0.0
 40
0.10001
100
AcDbArc
 50
270.0
 51
0.810251
  0
ARC
  5
2A3
100
AcDbEntity
  8
0
100
AcDbCircle
 10
122.816168
 20
93.192022
 30
0.0
 40
0.6
100
AcDbArc
 50
0.0
 51
90.0
  0
LINE
  5
2A4
100
AcDbEntity
  8
0
100
AcDbLine
 10
116.016168
 20
103.792022
 30
0.0
 11
122.816168
 21
103.792022
 31
0.0
  0
ARC
  5
2A5
100
AcDbEntity
  8
0
100
AcDbCircle
 10
116.016168
 20
104.392022
 30
0.0
 40
0.6
100
AcDbArc
 50
180.0
 51
270.0
  0
ARC
  5
2A6
100
AcDbEntity
  8
0
100
AcDbCircle
 10
122.816168
 20
104.392022
 30
0.0
 40
0.6
100
AcDbArc
 50
270.0
 51
0.0
  0
LINE
  5
2A7
100
AcDbEntity
  8
CENTER
  6
CENTER
 62
     1
100
AcDbLine
 10
100.266168
 20
119.792022
 30
0.0
 11
110.266168
 21
119.792022
 31
0.0
  0
ARC
  5
2A8
100
AcDbEntity
  8
0
100
AcDbCircle
 10
102.016168
 20
109.992012
 30
0.0
 40
0.1
100
AcDbArc
 50
270.0
 51
0.0
  0
ARC
  5
2A9
100
AcDbEntity
  8
0
100
AcDbCircle
 10
101.516168
 20
111.192022
 30
0.0
 40
0.6
100
AcDbArc
 50
0.0
 51
90.0
  0
ARC
  5
2AA
100
AcDbEntity
  8
0
100
AcDbCircle
 10
102.016168
 20
105.642012
 30
0.0
 40
0.10001
100
AcDbArc
 50
359.189749
 51
90.0
  0
LINE
  5
2AB
100
AcDbEntity
  8
0
100
AcDbLine
 10
105.166168
 20
117.542022
 30
0.0
 11
101.266168
 21
117.542022
 31
0.0
  0
LINE
  5
2AC
100
AcDbEntity
  8
0
100
AcDbLine
 10
105.166168
 20
122.042022
 30
0.0
 11
101.266168
 21
122.042022
 31
0.0
  0
LINE
  5
2AD
100
AcDbEntity
  8
0
100
AcDbLine
 10
109.266168
 20
124.792022
 30
0.0
 11
101.266168
 21
124.792022
 31
0.0
  0
LINE
  5
2AE
100
AcDbEntity
  8
0
100
AcDbLine
 10
101.266168
 20
124.792022
 30
0.0
 11
101.266168
 21
114.792022
 31
0.0
  0
LINE
  5
2AF
100
AcDbEntity
  8
0
100
AcDbLine
 10
101.516168
 20
111.792022
 30
0.0
 11
94.116168
 21
111.792022
 31
0.0
  0
CIRCLE
  5
2B0
100
AcDbEntity
  8
0
100
AcDbCircle
 10
98.116168
 20
107.692002
 30
0.0
 40
2.38125
  0
ARC
  5
2B3
100
AcDbEntity
  8
0
100
AcDbCircle
 10
94.216168
 20
105.642012
 30
0.0
 40
0.10001
100
AcDbArc
 50
90.0
 51
180.810251
  0
LINE
  5
2BA
100
AcDbEntity
  8
0
100
AcDbLine
 10
94.216168
 20
105.742022
 30
0.0
 11
94.566168
 21
105.742022
 31
0.0
  0
LINE
  5
2BE
100
AcDbEntity
  8
0
100
AcDbLine
 10
95.490219
 20
106.192012
 30
0.0
 11
96.266748
 21
106.192012
 31
0.0
  0
LINE
  5
2C2
100
AcDbEntity
  8
0
100
AcDbLine
 10
92.816168
 20
109.792022
 30
0.0
 11
94.116168
 21
109.792022
 31
0.0
  0
LINE
  5
2C3
100
AcDbEntity
  8
0
100
AcDbLine
 10
92.816168
 20
112.792022
 30
0.0
 11
94.116168
 21
112.792022
 31
0.0
  0
LINE
  5
2C4
100
AcDbEntity
  8
0
100
AcDbLine
 10
92.816168
 20
111.792022
 30
0.0
 11
91.266168
 21
111.792022
 31
0.0
  0
ARC
  5
2C6
100
AcDbEntity
  8
0
100
AcDbCircle
 10
94.216168
 20
109.992012
 30
0.0
 40
0.1
100
AcDbArc
 50
180.0
 51
270.0
  0
ARC
  5
2CE
100
AcDbEntity
  8
0
100
AcDbCircle
 10
94.716168
 20
111.192022
 30
0.0
 40
0.6
100
AcDbArc
 50
90.0
 51
180.0
  0
LINE
  5
2CF
100
AcDbEntity
  8
0
100
AcDbLine
 10
94.216168
 20
109.892012
 30
0.0
 11
94.576166
 21
109.892012
 31
0.0
  0
LINE
  5
2D3
100
AcDbEntity
  8
0
100
AcDbLine
 10
95.418769
 20
109.192002
 30
0.0
 11
96.266748
 21
109.192002
 31
0.0
  0
LINE
  5
2D8
100
AcDbEntity
  8
0
100
AcDbLine
 10
100.742117
 20
106.192012
 30
0.0
 11
99.965588
 21
106.192012
 31
0.0
  0
LINE
  5
2E0
100
AcDbEntity
  8
0
100
AcDbLine
 10
102.016168
 20
105.742022
 30
0.0
 11
101.666168
 21
105.742022
 31
0.0
  0
LINE
  5
2E7
100
AcDbEntity
  8
0
100
AcDbLine
 10
100.813566
 20
109.192002
 30
0.0
 11
99.965588
 21
109.192002
 31
0.0
  0
LINE
  5
2EE
100
AcDbEntity
  8
0
100
AcDbLine
 10
102.016168
 20
109.892012
 30
0.0
 11
101.656169
 21
109.892012
 31
0.0
  0
LINE
  5
2F3
100
AcDbEntity
  8
0
100
AcDbLine
 10
101.266168
 20
114.792022
 30
0.0
 11
91.266168
 21
114.792022
 31
0.0
  0
LINE
  5
2F4
100
AcDbEntity
  8
0
100
AcDbLine
 10
124.716168
 20
111.792022
 30
0.0
 11
126.266168
 21
111.792022
 31
0.0
  0
LINE
  5
2F5
100
AcDbEntity
  8
0
100
AcDbLine
 10
126.266168
 20
114.792022
 30
0.0
 11
109.266168
 21
114.792022
 31
0.0
  0
LINE
  5
2F6
100
AcDbEntity
  8
0
100
AcDbLine
 10
109.266168
 20
124.792022
 30
0.0
 11
109.266168
 21
114.792022
 31
0.0
  0
LINE
  5
2F7
100
AcDbEntity
  8
0
100
AcDbLine
 10
105.166168
 20
123.792022
 30
0.0
 11
105.166168
 21
115.792022
 31
0.0
  0
LINE
  5
2F8
100
AcDbEntity
  8
0
100
AcDbLine
 10
115.416168
 20
109.792022
 30
0.0
 11
102.116168
 21
109.792022
 31
0.0
  0
LINE
  5
2F9
100
AcDbEntity
  8
0
100
AcDbLine
 10
105.166168
 20
115.792022
 30
0.0
 11
109.266168
 21
115.792022
 31
0.0
  0
LINE
  5
2FA
100
AcDbEntity
  8
0
100
AcDbLine
 10
106.191168
 20
115.792022
 30
0.0
 11
106.191168
 21
115.792122
 31
0.0
  0
LINE
  5
2FB
100
AcDbEntity
  8
0
100
AcDbLine
 10
107.216168
 20
115.792022
 30
0.0
 11
107.216268
 21
115.792022
 31
0.0
  0
LINE
  5
2FC
100
AcDbEntity
  8
0
100
AcDbLine
 10
116.016168
 20
111.792022
 30
0.0
 11
123.416168
 21
111.792022
 31
0.0
  0
CIRCLE
  5
2FD
100
AcDbEntity
  8
0
100
AcDbCircle
 10
119.416168
 20
107.692002
 30
0.0
 40
2.38125
  0
ARC
  5
308
100
AcDbEntity
  8
0
100
AcDbCircle
 10
115.516168
 20
105.642012
 30
0.0
 40
0.10001
100
AcDbArc
 50
90.0
 51
180.810251
  0
LINE
  5
309
100
AcDbEntity
  8
0
100
AcDbLine
 10
115.516168
 20
105.742022
 30
0.0
 11
115.866168
 21
105.742022
 31
0.0
  0
LINE
  5
30E
100
AcDbEntity
  8
0
100
AcDbLine
 10
116.790219
 20
106.192012
 30
0.0
 11
117.566748
 21
106.192012
 31
0.0
  0
ARC
  5
317
100
AcDbEntity
  8
0
100
AcDbCircle
 10
115.516168
 20
109.992012
 30
0.0
 40
0.1
100
AcDbArc
 50
180.0
 51
270.0
  0
LINE
  5
318
100
AcDbEntity
  8
0
100
AcDbLine
 10
115.516168
 20
109.892012
 30
0.0
 11
115.876166
 21
109.892012
 31
0.0
  0
ARC
  5
31B
100
AcDbEntity
  8
0
100
AcDbCircle
 10
116.016168
 20
111.192022
 30
0.0
 40
0.6
100
AcDbArc
 50
90.0
 51
180.0
  0
LINE
  5
31E
100
AcDbEntity
  8
0
100
AcDbLine
 10
116.718769
 20
109.192002
 30
0.0
 11
117.566748
 21
109.192002
 31
0.0
  0
LINE
  5
322
100
AcDbEntity
  8
0
100
AcDbLine
 10
122.042117
 20
106.192012
 30
0.0
 11
121.265588
 21
106.192012
 31
0.0
  0
ARC
  5
325
100
AcDbEntity
  8
0
100
AcDbCircle
 10
123.316168
 20
105.642012
 30
0.0
 40
0.10001
100
AcDbArc
 50
359.189749
 51
90.0
  0
LINE
  5
32C
100
AcDbEntity
  8
0
100
AcDbLine
 10
123.316168
 20
105.742022
 30
0.0
 11
122.966168
 21
105.742022
 31
0.0
  0
LINE
  5
334
100
AcDbEntity
  8
0
100
AcDbLine
 10
122.113566
 20
109.192002
 30
0.0
 11
121.265588
 21
109.192002
 31
0.0
  0
LINE
  5
335
100
AcDbEntity
  8
0
100
AcDbLine
 10
124.716168
 20
109.792022
 30
0.0
 11
123.416168
 21
109.792022
 31
0.0
  0
LINE
  5
336
100
AcDbEntity
  8
0
100
AcDbLine
 10
124.716168
 20
112.792022
 30
0.0
 11
123.416168
 21
112.792022
 31
0.0
  0
ARC
  5
337
100
AcDbEntity
  8
0
100
AcDbCircle
 10
123.316168
 20
109.992012
 30
0.0
 40
0.1
100
AcDbArc
 50
270.0
 51
0.0
  0
ARC
  5
340
100
AcDbEntity
  8
0
100
AcDbCircle
 10
122.816168
 20
111.192022
 30
0.0
 40
0.6
100
AcDbArc
 50
0.0
 51
90.0
  0
LINE
  5
341
100
AcDbEntity
  8
0
100
AcDbLine
 10
123.316168
 20
109.892012
 30
0.0
 11
122.956169
 21
109.892012
 31
0.0
  0
LINE
  5
342
100
AcDbEntity
  8
0
100
AcDbLine
 10
105.166168
 20
123.792022
 30
0.0
 11
109.266168
 21
123.792022
 31
0.0
  0
CIRCLE
  5
343
100
AcDbEntity
  8
CENTER
  6
CENTER
 62
     1
100
AcDbCircle
 10
202.95598
 20
98.792022
 30
0.0
 40
21.0
  0
LINE
  5
344
100
AcDbEntity
  8
CENTER
  6
CENTER
 62
     1
100
AcDbLine
 10
202.95598
 20
69.620763
 30
0.0
 11
202.95598
 21
127.96328
 31
0.0
  0
CIRCLE
  5
345
100
AcDbEntity
  8
0
100
AcDbCircle
 10
202.95598
 20
98.792022
 30
0.0
 40
16.0
  0
CIRCLE
  5
346
100
AcDbEntity
  8
0
100
AcDbCircle
 10
202.95598
 20
98.792022
 30
0.0
 40
13.0
  0
LINE
  5
347
100
AcDbEntity
  8
0
100
AcDbLine
 10
177.007012
 20
100.420218
 30
0.0
 11
201.327785
 21
124.740991
 31
0.0
  0
LINE
  5
348
100
AcDbEntity
  8
0
100
AcDbLine
 10
228.904949
 20
100.420218
 30
0.0
 11
204.584176
 21
124.740991
 31
0.0
  0
LINE
  5
349
100
AcDbEntity
  8
CENTER
  6
CENTER
 62
     1
100
AcDbLine
 10
232.127239
 20
98.792022
 30
0.0
 11
173.784722
 21
98.792022
 31
0.0
  0
LINE
  5
34A
100
AcDbEntity
  8
0
100
AcDbLine
 10
201.327785
 20
72.843053
 30
0.0
 11
177.007012
 21
97.163826
 31
0.0
  0
CIRCLE
  5
34B
100
AcDbEntity
  8
0
100
AcDbCircle
 10
181.95598
 20
98.792022
 30
0.0
 40
2.15
  0
CIRCLE
  5
34C
100
AcDbEntity
  8
0
100
AcDbCircle
 10
181.95598
 20
98.792022
 30
0.0
 40
4.0
  0
ARC
  5
34D
100
AcDbEntity
  8
0
100
AcDbCircle
 10
202.95598
 20
98.792022
 30
0.0
 40
26.0
100
AcDbArc
 50
176.409622
 51
183.590378
  0
LINE
  5
34E
100
AcDbEntity
  8
0
100
AcDbLine
 10
204.584176
 20
72.843053
 30
0.0
 11
228.904949
 21
97.163826
 31
0.0
  0
CIRCLE
  5
34F
100
AcDbEntity
  8
0
100
AcDbCircle
 10
202.95598
 20
77.792022
 30
0.0
 40
4.0
  0
CIRCLE
  5
350
100
AcDbEntity
  8
0
100
AcDbCircle
 10
202.95598
 20
77.792022
 30
0.0
 40
2.15
  0
ARC
  5
351
100
AcDbEntity
  8
0
100
AcDbCircle
 10
202.95598
 20
98.792022
 30
0.0
 40
26.0
100
AcDbArc
 50
266.409622
 51
273.590378
  0
CIRCLE
  5
352
100
AcDbEntity
  8
0
100
AcDbCircle
 10
202.95598
 20
98.792022
 30
0.0
 40
5.0
  0
CIRCLE
  5
353
100
AcDbEntity
  8
0
100
AcDbCircle
 10
223.95598
 20
98.792022
 30
0.0
 40
2.15
  0
CIRCLE
  5
354
100
AcDbEntity
  8
0
100
AcDbCircle
 10
223.95598
 20
98.792022
 30
0.0
 40
4.0
  0
ARC
  5
355
100
AcDbEntity
  8
0
100
AcDbCircle
 10
202.95598
 20
98.792022
 30
0.0
 40
26.0
100
AcDbArc
 50
356.409622
 51
3.590378
  0
CIRCLE
  5
356
100
AcDbEntity
  8
0
100
AcDbCircle
 10
202.95598
 20
119.792022
 30
0.0
 40
4.0
  0
CIRCLE
  5
357
100
AcDbEntity
  8
0
100
AcDbCircle
 10
202.95598
 20
119.792022
 30
0.0
 40
2.15
  0
ARC
  5
358
100
AcDbEntity
  8
0
100
AcDbCircle
 10
202.95598
 20
98.792022
 30
0.0
 40
26.0
100
AcDbArc
 50
86.409622
 51
93.590378
  0
ENDSEC
  0
SECTION
  2
OBJECTS
  0
DICTIONARY
  5
1CE
100
AcDbDictionary
  3
ACAD_GROUP
350
1CF
  3
ACAD_LAYOUT
350
1DB
  3
ACAD_MLINESTYLE
350
1D8
  3
ACAD_PLOTSETTINGS
350
1DA
  3
ACAD_PLOTSTYLENAME
350
1D0
  3
ACDBHEADERROUNDTRIPXREC
350
365
  3
AcDbVariableDictionary
350
38E
  0
DICTIONARY
  5
35F
100
AcDbDictionary
280
     1
  3
ACAD_XREC_ROUNDTRIP
360
360
  0
DICTIONARY
  5
361
100
AcDbDictionary
280
     1
  3
ACAD_XREC_ROUNDTRIP
360
362
  0
DICTIONARY
  5
38C
100
AcDbDictionary
280
     1
  3
ACAD_XREC_ROUNDTRIP
360
38D
  0
DICTIONARY
  5
35B
100
AcDbDictionary
280
     1
  3
ACAD_LAYOUTSELFREF
360
38B
  3
ACAD_XREC_ROUNDTRIP
360
35C
  0
DICTIONARY
  5
35D
100
AcDbDictionary
280
     1
  3
ACAD_LAYOUTSELFREF
360
38A
  3
ACAD_XREC_ROUNDTRIP
360
35E
  0
DICTIONARY
  5
1CF
102
{ACAD_REACTORS
330
1CE
102
}
100
AcDbDictionary
  0
DICTIONARY
  5
1DB
102
{ACAD_XDICTIONARY
360
388
102
}
102
{ACAD_REACTORS
330
1CE
102
}
100
AcDbDictionary
  3
MODEL
350
1E3
  3
ﾚｲｱｳﾄ1
350
1DF
  0
DICTIONARY
  5
1D8
102
{ACAD_XDICTIONARY
360
386
102
}
102
{ACAD_REACTORS
330
1CE
102
}
100
AcDbDictionary
  3
STANDARD
350
1D9
  0
DICTIONARY
  5
1DA
102
{ACAD_REACTORS
330
1CE
102
}
100
AcDbDictionary
  0
ACAD_PROXY_OBJECT
  5
1D0
102
{ACAD_REACTORS
330
1CE
102
}
100
AcDbProxyObject
 90
      499
 91
      500
 93
       86
310
405010041939BDC9B585B0
350
1D1
340
1D1
 94
        0
  0
DICTIONARY
  5
365
102
{ACAD_REACTORS
330
1CE
102
}
100
AcDbDictionary
  0
DICTIONARY
  5
38E
102
{ACAD_REACTORS
330
1CE
102
}
100
AcDbDictionary
  0
XRECORD
  5
360
102
{ACAD_REACTORS
330
35F
102
}
100
AcDbXrecord
102
EXTNAMES
  1
BYBLOCK
  2
ByBlock
  0
XRECORD
  5
362
102
{ACAD_REACTORS
330
361
102
}
100
AcDbXrecord
102
EXTNAMES
  1
BYLAYER
  2
ByLayer
  0
XRECORD
  5
38D
102
{ACAD_REACTORS
330
38C
102
}
100
AcDbXrecord
102
ACADR14ROUNDTRIP
1000
DSTYLE
1002
{
1070
   279
 70
     2
1002
}
  0
XRECORD
  5
38B
102
{ACAD_REACTORS
330
35B
102
}
100
AcDbXrecord
340
1E0
  0
XRECORD
  5
35C
102
{ACAD_REACTORS
330
35B
102
}
100
AcDbXrecord
102
EXTNAMES
  1
*MODEL_SPACE
  2
*Model_Space
  0
XRECORD
  5
38A
102
{ACAD_REACTORS
330
35D
102
}
100
AcDbXrecord
340
1DC
  0
XRECORD
  5
35E
102
{ACAD_REACTORS
330
35D
102
}
100
AcDbXrecord
102
EXTNAMES
  1
*PAPER_SPACE
  2
*Paper_Space
  0
DICTIONARY
  5
388
100
AcDbDictionary
280
     1
  0
ACAD_PROXY_OBJECT
  5
1E3
102
{ACAD_REACTORS
330
1DB
102
}
100
AcDbProxyObject
 90
      499
 91
      502
 93
      836
310
932433A5C50524F4752414D2046494C45535C4D4454365C706C6F74746572735C526F6C616E64204458592D313235302E7063332C01AAAAAAAAA5A69054D6F64656C901A800000000000000000000000000000000000000000000A1000000000000008902A6A6AAAA0
330
1E0
330
0
340
0
340
0
 94
        0
  0
ACAD_PROXY_OBJECT
  5
1DF
102
{ACAD_REACTORS
330
1DB
102
}
100
AcDbProxyObject
 90
      499
 91
      502
 93
     1244
310
932433A5C50524F4752414D2046494C45535C4D4454365C706C6F74746572735C526F6C616E64204458592D313235302E7063332C00AAAAAA416AA59106906DAB2B1B3C431406A800000000000000000000000000000000000000000101E900000000000241C902A6A6A10232D5E076BC5510408CB5781DAF154410232D5E0
310
76BC5510408CB5781DAF15C410232D5E076BC5710408CB5781DAF15C40
330
1DC
330
0
340
0
340
0
 94
        0
  0
DICTIONARY
  5
386
100
AcDbDictionary
280
     1
  0
MLINESTYLE
  5
1D9
102
{ACAD_REACTORS
330
1D8
102
}
100
AcDbMlineStyle
  2
STANDARD
 70
     0
  3

 62
   256
 51
90.0
 52
90.0
 71
     2
 49
0.5
 62
   256
  6
BYLAYER
 49
-0.5
 62
   256
  6
BYLAYER
  0
ENDSEC
  0
EOF
