  0
SECTION
  2
HEADER
  9
$ACADVER
  1
AC1014
  9
$ACADMAINTVER
 70
     0
  9
$DWGCODEPAGE
  3
ANSI_932
  9
$INSBASE
 10
0.0
 20
0.0
 30
0.0
  9
$EXTMIN
 10
165.893011
 20
156.177279
 30
0.0
  9
$EXTMAX
 10
460.978432
 20
278.230046
 30
0.0
  9
$LIMMIN
 10
0.0
 20
0.0
  9
$LIMMAX
 10
594.0
 20
420.0
  9
$ORTHOMODE
 70
     1
  9
$REGENMODE
 70
     1
  9
$FILLMODE
 70
     1
  9
$QTEXTMODE
 70
     0
  9
$MIRRTEXT
 70
     1
  9
$DRAGMODE
 70
     2
  9
$LTSCALE
 40
0.25
  9
$OSMODE
 70
    37
  9
$ATTMODE
 70
     1
  9
$TEXTSIZE
 40
4.0
  9
$TRACEWID
 40
1.0
  9
$TEXTSTYLE
  7
STANDARD
  9
$CLAYER
  8
0
  9
$CELTYPE
  6
BYLAYER
  9
$CECOLOR
 62
   256
  9
$CELTSCALE
 40
1.0
  9
$DELOBJ
 70
     1
  9
$DISPSILH
 70
     0
  9
$DIMSCALE
 40
2.0
  9
$DIMASZ
 40
3.0
  9
$DIMEXO
 40
1.0
  9
$DIMDLI
 40
10.0
  9
$DIMRND
 40
0.0
  9
$DIMDLE
 40
0.0
  9
$DIMEXE
 40
1.0
  9
$DIMTP
 40
0.0
  9
$DIMTM
 40
0.0
  9
$DIMTXT
 40
3.2
  9
$DIMCEN
 40
0.0
  9
$DIMTSZ
 40
0.0
  9
$DIMTOL
 70
     0
  9
$DIMLIM
 70
     0
  9
$DIMTIH
 70
     0
  9
$DIMTOH
 70
     0
  9
$DIMSE1
 70
     0
  9
$DIMSE2
 70
     0
  9
$DIMTAD
 70
     1
  9
$DIMZIN
 70
     8
  9
$DIMBLK
  1
ARROW
  9
$DIMASO
 70
     1
  9
$DIMSHO
 70
     1
  9
$DIMPOST
  1

  9
$DIMAPOST
  1

  9
$DIMALT
 70
     0
  9
$DIMALTD
 70
     2
  9
$DIMALTF
 40
0.04
  9
$DIMLFAC
 40
1.0
  9
$DIMTOFL
 70
     1
  9
$DIMTVP
 40
1.0
  9
$DIMTIX
 70
     0
  9
$DIMSOXD
 70
     0
  9
$DIMSAH
 70
     0
  9
$DIMBLK1
  1

  9
$DIMBLK2
  1

  9
$DIMSTYLE
  2
AA1
  9
$DIMCLRD
 70
     0
  9
$DIMCLRE
 70
     0
  9
$DIMCLRT
 70
     0
  9
$DIMTFAC
 40
0.6
  9
$DIMGAP
 40
0.0
  9
$DIMJUST
 70
     0
  9
$DIMSD1
 70
     0
  9
$DIMSD2
 70
     0
  9
$DIMTOLJ
 70
     1
  9
$DIMTZIN
 70
     0
  9
$DIMALTZ
 70
     0
  9
$DIMALTTZ
 70
     0
  9
$DIMFIT
 70
     3
  9
$DIMUPT
 70
     0
  9
$DIMUNIT
 70
     2
  9
$DIMDEC
 70
     4
  9
$DIMTDEC
 70
     4
  9
$DIMALTU
 70
     2
  9
$DIMALTTD
 70
     2
  9
$DIMTXSTY
  7
STANDARD
  9
$DIMAUNIT
 70
     0
  9
$LUNITS
 70
     2
  9
$LUPREC
 70
     2
  9
$SKETCHINC
 40
1.0
  9
$FILLETRAD
 40
10.0
  9
$AUNITS
 70
     0
  9
$AUPREC
 70
     0
  9
$MENU
  1
acad
  9
$ELEVATION
 40
0.0
  9
$PELEVATION
 40
0.0
  9
$THICKNESS
 40
0.0
  9
$LIMCHECK
 70
     0
  9
$BLIPMODE
 70
     0
  9
$CHAMFERA
 40
0.0
  9
$CHAMFERB
 40
0.0
  9
$CHAMFERC
 40
0.0
  9
$CHAMFERD
 40
0.0
  9
$SKPOLY
 70
     0
  9
$TDCREATE
 40
2451466.514735764
  9
$TDUPDATE
 40
2452821.789642245
  9
$TDINDWG
 40
0.0001709491
  9
$TDUSRTIMER
 40
0.0001702546
  9
$USRTIMER
 70
     1
  9
$ANGBASE
 50
0.0
  9
$ANGDIR
 70
     0
  9
$PDMODE
 70
     1
  9
$PDSIZE
 40
0.0
  9
$PLINEWID
 40
0.0
  9
$COORDS
 70
     1
  9
$SPLFRAME
 70
     0
  9
$SPLINETYPE
 70
     6
  9
$SPLINESEGS
 70
     8
  9
$ATTDIA
 70
     0
  9
$ATTREQ
 70
     1
  9
$HANDLING
 70
     1
  9
$HANDSEED
  5
33C
  9
$SURFTAB1
 70
     6
  9
$SURFTAB2
 70
     6
  9
$SURFTYPE
 70
     6
  9
$SURFU
 70
     6
  9
$SURFV
 70
     6
  9
$UCSNAME
  2

  9
$UCSORG
 10
0.0
 20
0.0
 30
0.0
  9
$UCSXDIR
 10
1.0
 20
0.0
 30
0.0
  9
$UCSYDIR
 10
0.0
 20
1.0
 30
0.0
  9
$PUCSNAME
  2

  9
$PUCSORG
 10
0.0
 20
0.0
 30
0.0
  9
$PUCSXDIR
 10
1.0
 20
0.0
 30
0.0
  9
$PUCSYDIR
 10
0.0
 20
1.0
 30
0.0
  9
$USERI1
 70
     0
  9
$USERI2
 70
     0
  9
$USERI3
 70
     0
  9
$USERI4
 70
     0
  9
$USERI5
 70
     0
  9
$USERR1
 40
0.0
  9
$USERR2
 40
0.0
  9
$USERR3
 40
0.0
  9
$USERR4
 40
0.0
  9
$USERR5
 40
0.0
  9
$WORLDVIEW
 70
     1
  9
$SHADEDGE
 70
     3
  9
$SHADEDIF
 70
    70
  9
$TILEMODE
 70
     1
  9
$MAXACTVP
 70
    16
  9
$PINSBASE
 10
0.0
 20
0.0
 30
0.0
  9
$PLIMCHECK
 70
     0
  9
$PEXTMIN
 10
1.000000E+20
 20
1.000000E+20
 30
1.000000E+20
  9
$PEXTMAX
 10
-1.000000E+20
 20
-1.000000E+20
 30
-1.000000E+20
  9
$PLIMMIN
 10
0.0
 20
0.0
  9
$PLIMMAX
 10
420.0
 20
297.0
  9
$UNITMODE
 70
     0
  9
$VISRETAIN
 70
     0
  9
$PLINEGEN
 70
     0
  9
$PSLTSCALE
 70
     0
  9
$TREEDEPTH
 70
  3020
  9
$PICKSTYLE
 70
     1
  9
$CMLSTYLE
  2
STANDARD
  9
$CMLJUST
 70
     0
  9
$CMLSCALE
 40
1.0
  9
$PROXYGRAPHICS
 70
     1
  9
$MEASUREMENT
 70
     0
  0
ENDSEC
  0
SECTION
  2
CLASSES
  0
CLASS
  1
ACDBDICTIONARYWDFLT
  2
AcDbDictionaryWithDefault
  3
AutoCAD 2000
 90
        0
280
     0
281
     0
  0
CLASS
  1
ACDBPLACEHOLDER
  2
AcDbPlaceHolder
  3
AutoCAD 2000
 90
        0
280
     0
281
     0
  0
CLASS
  1
LAYOUT
  2
AcDbLayout
  3
AutoCAD 2000
 90
        0
280
     0
281
     0
  0
CLASS
  1
DICTIONARYVAR
  2
AcDbDictionaryVar
  3
"AutoCAD"
 90
        0
280
     0
281
     0
  0
CLASS
  1
LONG_TRANSACTION
  2
AcDbLongTransaction
  3
AutoCAD 2000
 90
        0
280
     0
281
     0
  0
CLASS
  1
LWPOLYLINE
  2
AcDbPolyline
  3
"AutoCAD"
 90
        0
280
     0
281
     1
  0
CLASS
  1
HATCH
  2
AcDbHatch
  3
"ACAD_SEDONA"
 90
        0
280
     0
281
     1
  0
CLASS
  1
XRECORD
  2
AcDbXrecord
  3
"<Built In>"
 90
        0
280
     0
281
     0
  0
ENDSEC
  0
SECTION
  2
TABLES
  0
TABLE
  2
VPORT
  5
182
100
AcDbSymbolTable
 70
     1
  0
VPORT
  5
303
102
{ACAD_XDICTIONARY
360
30C
102
}
100
AcDbSymbolTableRecord
100
AcDbViewportTableRecord
  2
*ACTIVE
 70
     0
 10
0.0
 20
0.0
 11
1.0
 21
1.0
 12
297.000001
 22
306.442612
 13
0.0
 23
0.0
 14
10.0
 24
10.0
 15
0.0
 25
0.0
 16
0.0
 26
0.0
 36
1.0
 17
0.0
 27
0.0
 37
0.0
 40
674.635053
 41
1.570997
 42
50.0
 43
0.0
 44
0.0
 50
0.0
 51
0.0
 71
     0
 72
   100
 73
     1
 74
     0
 75
     0
 76
     0
 77
     0
 78
     1
  0
ENDTAB
  0
TABLE
  2
LTYPE
  5
17F
100
AcDbSymbolTable
 70
     2
  0
LTYPE
  5
18D
102
{ACAD_XDICTIONARY
360
308
102
}
100
AcDbSymbolTableRecord
100
AcDbLinetypeTableRecord
  2
BYBLOCK
 70
     0
  3

 72
    65
 73
     0
 40
0.0
  0
LTYPE
  5
18E
102
{ACAD_XDICTIONARY
360
30A
102
}
100
AcDbSymbolTableRecord
100
AcDbLinetypeTableRecord
  2
BYLAYER
 70
     0
  3

 72
    65
 73
     0
 40
0.0
  0
LTYPE
  5
18F
100
AcDbSymbolTableRecord
100
AcDbLinetypeTableRecord
  2
CONTINUOUS
 70
     0
  3
Solid line
 72
    65
 73
     0
 40
0.0
  0
LTYPE
  5
19D
100
AcDbSymbolTableRecord
100
AcDbLinetypeTableRecord
  2
CENTER
 70
     0
  3
____ _ ____ _ ____ _ ____ _ ____ _ ____ _ ____ 
 72
    65
 73
     4
 40
50.8
 49
31.75
 74
     0
 49
-6.35
 74
     0
 49
6.35
 74
     0
 49
-6.35
 74
     0
  0
ENDTAB
  0
TABLE
  2
LAYER
  5
17C
100
AcDbSymbolTable
 70
     3
  0
LAYER
  5
18A
100
AcDbSymbolTableRecord
100
AcDbLayerTableRecord
  2
0
 70
     0
 62
     7
  6
CONTINUOUS
  0
LAYER
  5
19E
100
AcDbSymbolTableRecord
100
AcDbLayerTableRecord
  2
DIMENSION
 70
     0
 62
    -4
  6
CONTINUOUS
  0
LAYER
  5
19F
100
AcDbSymbolTableRecord
100
AcDbLayerTableRecord
  2
CENTER
 70
     0
 62
     1
  6
CENTER
  0
ENDTAB
  0
TABLE
  2
STYLE
  5
17D
100
AcDbSymbolTable
 70
     1
  0
STYLE
  5
18B
100
AcDbSymbolTableRecord
100
AcDbTextStyleTableRecord
  2
STANDARD
 70
     0
 40
0.0
 41
1.0
 50
0.0
 71
     0
 42
4.0
  3
txt
  4

  0
ENDTAB
  0
TABLE
  2
VIEW
  5
180
100
AcDbSymbolTable
 70
     0
  0
ENDTAB
  0
TABLE
  2
UCS
  5
181
100
AcDbSymbolTable
 70
     0
  0
ENDTAB
  0
TABLE
  2
APPID
  5
183
100
AcDbSymbolTable
 70
     1
  0
APPID
  5
18C
100
AcDbSymbolTableRecord
100
AcDbRegAppTableRecord
  2
ACAD
 70
     0
  0
ENDTAB
  0
TABLE
  2
DIMSTYLE
  5
184
100
AcDbSymbolTable
 70
     1
  0
DIMSTYLE
105
1A0
102
{ACAD_XDICTIONARY
360
335
102
}
100
AcDbSymbolTableRecord
100
AcDbDimStyleTableRecord
  2
AA1
 70
     0
  3

  4

  5

  6

  7

 40
2.0
 41
3.0
 42
1.0
 43
10.0
 44
1.0
 45
0.0
 46
0.0
 47
0.0
 48
0.0
140
3.2
141
0.0
142
0.0
143
0.04
144
1.0
145
1.0
146
0.6
147
0.0
 71
     0
 72
     0
 73
     0
 74
     0
 75
     0
 76
     0
 77
     0
 78
     8
170
     0
171
     2
172
     1
173
     0
174
     0
175
     0
176
     0
177
     0
178
     0
270
     2
271
     2
272
     2
273
     2
274
     2
340
18B
275
     0
280
     0
281
     0
282
     0
283
     1
284
     8
285
     8
286
     8
287
     5
288
     0
  0
ENDTAB
  0
TABLE
  2
BLOCK_RECORD
  5
17B
100
AcDbSymbolTable
 70
     3
  0
BLOCK_RECORD
  5
198
102
{ACAD_XDICTIONARY
360
304
102
}
100
AcDbSymbolTableRecord
100
AcDbBlockTableRecord
  2
*MODEL_SPACE
  0
BLOCK_RECORD
  5
194
102
{ACAD_XDICTIONARY
360
306
102
}
100
AcDbSymbolTableRecord
100
AcDbBlockTableRecord
  2
*PAPER_SPACE
  0
BLOCK_RECORD
  5
1A2
100
AcDbSymbolTableRecord
100
AcDbBlockTableRecord
  2
$MODEL_SPACE
  0
BLOCK_RECORD
  5
1A5
100
AcDbSymbolTableRecord
100
AcDbBlockTableRecord
  2
$PAPER_SPACE
  0
BLOCK_RECORD
  5
1A8
100
AcDbSymbolTableRecord
100
AcDbBlockTableRecord
  2
ARROW
  0
ENDTAB
  0
ENDSEC
  0
SECTION
  2
BLOCKS
  0
BLOCK
  5
199
100
AcDbEntity
  8
0
100
AcDbBlockBegin
  2
*MODEL_SPACE
 70
     0
 10
0.0
 20
0.0
 30
0.0
  3
*MODEL_SPACE
  1

  0
ENDBLK
  5
19A
100
AcDbEntity
  8
0
100
AcDbBlockEnd
  0
BLOCK
  5
195
100
AcDbEntity
 67
     1
  8
0
100
AcDbBlockBegin
  2
*PAPER_SPACE
 70
     0
 10
0.0
 20
0.0
 30
0.0
  3
*PAPER_SPACE
  1

  0
ENDBLK
  5
196
100
AcDbEntity
 67
     1
  8
0
100
AcDbBlockEnd
  0
BLOCK
  5
1A3
100
AcDbEntity
  8
0
100
AcDbBlockBegin
  2
$MODEL_SPACE
 70
     0
 10
0.0
 20
0.0
 30
0.0
  3
$MODEL_SPACE
  1

  0
ENDBLK
  5
1A4
100
AcDbEntity
  8
0
100
AcDbBlockEnd
  0
BLOCK
  5
1A6
100
AcDbEntity
  8
0
100
AcDbBlockBegin
  2
$PAPER_SPACE
 70
     0
 10
0.0
 20
0.0
 30
0.0
  3
$PAPER_SPACE
  1

  0
ENDBLK
  5
1A7
100
AcDbEntity
  8
0
100
AcDbBlockEnd
  0
BLOCK
  5
1A9
100
AcDbEntity
  8
0
100
AcDbBlockBegin
  2
ARROW
 70
     0
 10
0.0
 20
0.0
 30
0.0
  3
ARROW
  1

  0
LINE
  5
1AA
100
AcDbEntity
  8
DIMENSION
100
AcDbLine
 10
0.0
 20
0.0
 30
0.0
 11
-1.0
 21
0.176327
 31
0.0
  0
LINE
  5
1AB
100
AcDbEntity
  8
DIMENSION
100
AcDbLine
 10
0.0
 20
0.0
 30
0.0
 11
-1.0
 21
-0.176327
 31
0.0
  0
LINE
  5
1AC
100
AcDbEntity
  8
DIMENSION
100
AcDbLine
 10
-1.0
 20
0.0
 30
0.0
 11
0.0
 21
0.0
 31
0.0
  0
ENDBLK
  5
1AD
100
AcDbEntity
  8
0
100
AcDbBlockEnd
  0
ENDSEC
  0
SECTION
  2
ENTITIES
  0
LINE
  5
1AE
100
AcDbEntity
  8
0
100
AcDbLine
 10
193.600568
 20
187.803663
 30
0.0
 11
193.600568
 21
246.603663
 31
0.0
  0
LINE
  5
1AF
100
AcDbEntity
  8
0
100
AcDbLine
 10
177.600568
 20
249.703663
 30
0.0
 11
177.600568
 21
184.703663
 31
0.0
  0
LINE
  5
1B0
100
AcDbEntity
  8
0
100
AcDbLine
 10
175.400568
 20
249.703663
 30
0.0
 11
175.400568
 21
184.703663
 31
0.0
  0
LINE
  5
1B1
100
AcDbEntity
  8
0
100
AcDbLine
 10
241.400568
 20
249.703663
 30
0.0
 11
241.400568
 21
184.703663
 31
0.0
  0
LINE
  5
1B2
100
AcDbEntity
  8
0
100
AcDbLine
 10
239.200568
 20
249.703663
 30
0.0
 11
239.200568
 21
184.703663
 31
0.0
  0
LINE
  5
1B3
100
AcDbEntity
  8
0
100
AcDbLine
 10
223.200568
 20
187.803663
 30
0.0
 11
223.200568
 21
246.603663
 31
0.0
  0
LINE
  5
1B4
100
AcDbEntity
  8
0
100
AcDbLine
 10
243.400568
 20
182.203663
 30
0.0
 11
243.400568
 21
252.203663
 31
0.0
  0
LINE
  5
1B5
100
AcDbEntity
  8
0
100
AcDbLine
 10
173.400568
 20
182.203663
 30
0.0
 11
173.400568
 21
252.203663
 31
0.0
  0
LINE
  5
1B8
100
AcDbEntity
  8
CENTER
  6
CENTER
 62
     1
100
AcDbLine
 10
208.400568
 20
173.203663
 30
0.0
 11
191.400568
 21
173.203663
 31
0.0
  0
LINE
  5
1B9
100
AcDbEntity
  8
0
100
AcDbLine
 10
206.400568
 20
180.203663
 30
0.0
 11
198.300568
 21
180.203663
 31
0.0
  0
LINE
  5
1BA
100
AcDbEntity
  8
0
100
AcDbLine
 10
206.400568
 20
166.203663
 30
0.0
 11
198.300568
 21
166.203663
 31
0.0
  0
LINE
  5
1BB
100
AcDbEntity
  8
0
100
AcDbLine
 10
206.400568
 20
165.203663
 30
0.0
 11
193.400568
 21
165.203663
 31
0.0
  0
LINE
  5
1BC
100
AcDbEntity
  8
0
100
AcDbLine
 10
223.200568
 20
189.703663
 30
0.0
 11
193.600568
 21
189.703663
 31
0.0
  0
LINE
  5
1BD
100
AcDbEntity
  8
0
100
AcDbLine
 10
193.400568
 20
165.203663
 30
0.0
 11
193.400568
 21
182.203663
 31
0.0
  0
LINE
  5
1BE
100
AcDbEntity
  8
0
100
AcDbLine
 10
198.300568
 20
166.203663
 30
0.0
 11
198.300568
 21
180.203663
 31
0.0
  0
LINE
  5
1BF
100
AcDbEntity
  8
0
100
AcDbLine
 10
198.300568
 20
168.703663
 30
0.0
 11
193.400568
 21
168.703663
 31
0.0
  0
LINE
  5
1C0
100
AcDbEntity
  8
0
100
AcDbLine
 10
179.941614
 20
196.803673
 30
0.0
 11
181.784962
 21
196.803673
 31
0.0
  0
LINE
  5
1C1
100
AcDbEntity
  8
0
100
AcDbLine
 10
179.759833
 20
191.103673
 30
0.0
 11
181.784947
 21
191.103673
 31
0.0
  0
CIRCLE
  5
1C2
100
AcDbEntity
  8
0
100
AcDbCircle
 10
185.600568
 20
193.953663
 30
0.0
 40
4.7625
  0
LINE
  5
1C3
100
AcDbEntity
  8
0
100
AcDbLine
 10
192.000568
 20
186.203663
 30
0.0
 11
177.600568
 21
186.203663
 31
0.0
  0
LINE
  5
1C4
100
AcDbEntity
  8
0
100
AcDbLine
 10
192.000568
 20
202.203663
 30
0.0
 11
179.200568
 21
202.203663
 31
0.0
  0
LINE
  5
1C5
100
AcDbEntity
  8
0
100
AcDbLine
 10
193.400568
 20
182.203663
 30
0.0
 11
173.400568
 21
182.203663
 31
0.0
  0
LINE
  5
1C6
100
AcDbEntity
  8
0
100
AcDbLine
 10
178.430568
 20
192.523573
 30
0.0
 11
178.430568
 21
197.003663
 31
0.0
  0
LINE
  5
1C7
100
AcDbEntity
  8
0
100
AcDbLine
 10
178.130568
 20
192.399713
 30
0.0
 11
178.130568
 21
197.003673
 31
0.0
  0
LINE
  5
1C8
100
AcDbEntity
  8
0
100
AcDbLine
 10
175.400568
 20
184.703663
 30
0.0
 11
177.600568
 21
184.703663
 31
0.0
  0
LINE
  5
1C9
100
AcDbEntity
  8
0
100
AcDbLine
 10
175.400568
 20
186.203663
 30
0.0
 11
173.400568
 21
186.203663
 31
0.0
  0
LINE
  5
1CA
100
AcDbEntity
  8
0
100
AcDbLine
 10
175.400568
 20
190.203663
 30
0.0
 11
177.600568
 21
190.203663
 31
0.0
  0
ARC
  5
1CB
100
AcDbEntity
  8
0
100
AcDbCircle
 10
177.800568
 20
189.803663
 30
0.0
 40
0.2
100
AcDbArc
 50
90.0
 51
180.0
  0
LINE
  5
1CC
100
AcDbEntity
  8
0
100
AcDbLine
 10
179.230567
 20
191.299694
 30
0.0
 11
178.130568
 21
192.399713
 31
0.0
  0
LINE
  5
1CD
100
AcDbEntity
  8
0
100
AcDbLine
 10
178.839606
 20
190.38971
 30
0.0
 11
178.610588
 21
190.196709
 31
0.0
  0
LINE
  5
1CE
100
AcDbEntity
  8
0
100
AcDbLine
 10
178.610588
 20
190.196709
 30
0.0
 11
178.892459
 21
189.860869
 31
0.0
  0
LINE
  5
1CF
100
AcDbEntity
  8
0
100
AcDbLine
 10
178.646607
 20
190.619708
 30
0.0
 11
178.839606
 21
190.38971
 31
0.0
  0
LINE
  5
1D0
100
AcDbEntity
  8
0
100
AcDbLine
 10
179.174877
 20
189.957098
 30
0.0
 11
179.230567
 21
191.299694
 31
0.0
  0
ARC
  5
1D1
100
AcDbEntity
  8
0
100
AcDbCircle
 10
179.015014
 20
189.963729
 30
0.0
 40
0.16
100
AcDbArc
 50
220.006774
 51
357.624736
  0
ARC
  5
1D2
100
AcDbEntity
  8
0
100
AcDbCircle
 10
178.609854
 20
190.19723
 30
0.0
 40
0.3
100
AcDbArc
 50
130.002497
 51
220.092742
  0
LINE
  5
1D3
100
AcDbEntity
  8
0
100
AcDbLine
 10
178.380353
 20
190.004022
 30
0.0
 11
178.663422
 21
189.66778
 31
0.0
  0
LINE
  5
1D4
100
AcDbEntity
  8
0
100
AcDbLine
 10
178.646607
 20
190.619708
 30
0.0
 11
178.417008
 21
190.427035
 31
0.0
  0
LINE
  5
1D5
100
AcDbEntity
  8
0
100
AcDbLine
 10
179.473582
 20
189.924041
 30
0.0
 11
179.56059
 21
190.92106
 31
0.0
  0
LINE
  5
1D6
100
AcDbEntity
  8
0
100
AcDbLine
 10
179.530568
 20
190.576663
 30
0.0
 11
179.530568
 21
191.423573
 31
0.0
  0
ARC
  5
1D7
100
AcDbEntity
  8
0
100
AcDbCircle
 10
179.759833
 20
190.903673
 30
0.0
 40
0.2
100
AcDbArc
 50
90.0
 51
175.012529
  0
LINE
  5
1D8
100
AcDbEntity
  8
0
100
AcDbLine
 10
179.530568
 20
191.423573
 30
0.0
 11
178.430568
 21
192.523573
 31
0.0
  0
ARC
  5
1D9
100
AcDbEntity
  8
0
100
AcDbCircle
 10
179.015323
 20
189.964033
 30
0.0
 40
0.46
100
AcDbArc
 50
220.092742
 51
355.012529
  0
ARC
  5
1DA
100
AcDbEntity
  8
0
100
AcDbCircle
 10
179.200568
 20
187.803663
 30
0.0
 40
1.6
100
AcDbArc
 50
180.0
 51
270.0
  0
LINE
  5
1DB
100
AcDbEntity
  8
0
100
AcDbLine
 10
177.800568
 20
190.003663
 30
0.0
 11
178.380655
 21
190.003663
 31
0.0
  0
ARC
  5
1DC
100
AcDbEntity
  8
0
100
AcDbCircle
 10
179.200568
 20
200.603663
 30
0.0
 40
1.6
100
AcDbArc
 50
90.0
 51
180.0
  0
ARC
  5
1DD
100
AcDbEntity
  8
0
100
AcDbCircle
 10
177.800568
 20
197.803673
 30
0.0
 40
0.2
100
AcDbArc
 50
180.0
 51
270.0
  0
LINE
  5
1DE
100
AcDbEntity
  8
0
100
AcDbLine
 10
178.300528
 20
197.603673
 30
0.0
 11
178.674578
 21
197.977723
 31
0.0
  0
ARC
  5
1DF
100
AcDbEntity
  8
0
100
AcDbCircle
 10
179.098568
 20
197.553673
 30
0.0
 40
0.599655
100
AcDbArc
 50
87.195047
 51
135.0
  0
LINE
  5
1E0
100
AcDbEntity
  8
0
100
AcDbLine
 10
179.050568
 20
197.003663
 30
0.0
 11
178.430568
 21
197.003663
 31
0.0
  0
LINE
  5
1E1
100
AcDbEntity
  8
0
100
AcDbLine
 10
178.430568
 20
197.303673
 30
0.0
 11
179.050568
 21
197.303673
 31
0.0
  0
LINE
  5
1E2
100
AcDbEntity
  8
0
100
AcDbLine
 10
179.050568
 20
197.303673
 30
0.0
 11
179.050568
 21
197.003663
 31
0.0
  0
ARC
  5
1E3
100
AcDbEntity
  8
0
100
AcDbCircle
 10
178.430568
 20
197.003673
 30
0.0
 40
0.3
100
AcDbArc
 50
90.0
 51
180.0
  0
ARC
  5
1E4
100
AcDbEntity
  8
0
100
AcDbCircle
 10
179.941614
 20
197.003673
 30
0.0
 40
0.2
100
AcDbArc
 50
199.969588
 51
270.0
  0
LINE
  5
1E5
100
AcDbEntity
  8
0
100
AcDbLine
 10
179.382558
 20
197.956593
 30
0.0
 11
179.75364
 21
196.935368
 31
0.0
  0
ARC
  5
1E6
100
AcDbEntity
  8
0
100
AcDbCircle
 10
179.100568
 20
197.853673
 30
0.0
 40
0.300184
100
AcDbArc
 50
19.969588
 51
94.462571
  0
LINE
  5
1E7
100
AcDbEntity
  8
0
100
AcDbLine
 10
177.800568
 20
197.603673
 30
0.0
 11
178.300528
 21
197.603673
 31
0.0
  0
LINE
  5
1E8
100
AcDbEntity
  8
0
100
AcDbLine
 10
193.070568
 20
192.399713
 30
0.0
 11
193.070568
 21
197.003673
 31
0.0
  0
LINE
  5
1E9
100
AcDbEntity
  8
0
100
AcDbLine
 10
192.770568
 20
192.523573
 30
0.0
 11
192.770568
 21
197.003663
 31
0.0
  0
ARC
  5
1EA
100
AcDbEntity
  8
0
100
AcDbCircle
 10
192.000568
 20
187.803663
 30
0.0
 40
1.6
100
AcDbArc
 50
270.0
 51
0.0
  0
LINE
  5
1EB
100
AcDbEntity
  8
0
100
AcDbLine
 10
191.970569
 20
191.299694
 30
0.0
 11
193.070568
 21
192.399713
 31
0.0
  0
LINE
  5
1EC
100
AcDbEntity
  8
0
100
AcDbLine
 10
191.670568
 20
191.423573
 30
0.0
 11
192.770568
 21
192.523573
 31
0.0
  0
LINE
  5
1ED
100
AcDbEntity
  8
0
100
AcDbLine
 10
192.36153
 20
190.38971
 30
0.0
 11
192.590548
 21
190.196709
 31
0.0
  0
LINE
  5
1EE
100
AcDbEntity
  8
0
100
AcDbLine
 10
192.590548
 20
190.196709
 30
0.0
 11
192.308677
 21
189.860869
 31
0.0
  0
LINE
  5
1EF
100
AcDbEntity
  8
0
100
AcDbLine
 10
192.820783
 20
190.004022
 30
0.0
 11
192.537714
 21
189.66778
 31
0.0
  0
LINE
  5
1F0
100
AcDbEntity
  8
0
100
AcDbLine
 10
192.554529
 20
190.619708
 30
0.0
 11
192.784129
 21
190.427035
 31
0.0
  0
LINE
  5
1F1
100
AcDbEntity
  8
0
100
AcDbLine
 10
191.727555
 20
189.924041
 30
0.0
 11
191.640546
 21
190.92106
 31
0.0
  0
LINE
  5
1F2
100
AcDbEntity
  8
0
100
AcDbLine
 10
191.670568
 20
190.576663
 30
0.0
 11
191.670568
 21
191.423573
 31
0.0
  0
ARC
  5
1F3
100
AcDbEntity
  8
0
100
AcDbCircle
 10
191.441304
 20
190.903673
 30
0.0
 40
0.2
100
AcDbArc
 50
4.987471
 51
90.0
  0
LINE
  5
1F4
100
AcDbEntity
  8
0
100
AcDbLine
 10
192.02626
 20
189.957098
 30
0.0
 11
191.970569
 21
191.299694
 31
0.0
  0
ARC
  5
1F5
100
AcDbEntity
  8
0
100
AcDbCircle
 10
192.186122
 20
189.963729
 30
0.0
 40
0.16
100
AcDbArc
 50
182.375264
 51
319.993226
  0
LINE
  5
1F6
100
AcDbEntity
  8
0
100
AcDbLine
 10
192.554529
 20
190.619708
 30
0.0
 11
192.36153
 21
190.38971
 31
0.0
  0
ARC
  5
1F7
100
AcDbEntity
  8
0
100
AcDbCircle
 10
192.185813
 20
189.964033
 30
0.0
 40
0.46
100
AcDbArc
 50
184.987471
 51
319.907258
  0
LINE
  5
1F8
100
AcDbEntity
  8
0
100
AcDbLine
 10
191.441304
 20
191.103673
 30
0.0
 11
189.416189
 21
191.103673
 31
0.0
  0
LINE
  5
1F9
100
AcDbEntity
  8
0
100
AcDbLine
 10
198.300568
 20
177.703663
 30
0.0
 11
193.400568
 21
177.703663
 31
0.0
  0
ARC
  5
1FA
100
AcDbEntity
  8
0
100
AcDbCircle
 10
193.400568
 20
189.803663
 30
0.0
 40
0.2
100
AcDbArc
 50
0.0
 51
90.0
  0
LINE
  5
1FB
100
AcDbEntity
  8
0
100
AcDbLine
 10
193.400568
 20
190.003663
 30
0.0
 11
192.820481
 21
190.003663
 31
0.0
  0
ARC
  5
1FC
100
AcDbEntity
  8
0
100
AcDbCircle
 10
192.591282
 20
190.19723
 30
0.0
 40
0.3
100
AcDbArc
 50
319.907258
 51
49.997503
  0
LINE
  5
1FD
100
AcDbEntity
  8
0
100
AcDbLine
 10
192.900608
 20
197.603673
 30
0.0
 11
192.526558
 21
197.977723
 31
0.0
  0
LINE
  5
1FE
100
AcDbEntity
  8
0
100
AcDbLine
 10
192.770568
 20
197.303673
 30
0.0
 11
192.150568
 21
197.303673
 31
0.0
  0
LINE
  5
1FF
100
AcDbEntity
  8
0
100
AcDbLine
 10
192.150568
 20
197.003663
 30
0.0
 11
192.770568
 21
197.003663
 31
0.0
  0
ARC
  5
200
100
AcDbEntity
  8
0
100
AcDbCircle
 10
192.000568
 20
200.603663
 30
0.0
 40
1.6
100
AcDbArc
 50
0.0
 51
90.0
  0
LINE
  5
201
100
AcDbEntity
  8
0
100
AcDbLine
 10
191.818578
 20
197.956593
 30
0.0
 11
191.447497
 21
196.935368
 31
0.0
  0
ARC
  5
202
100
AcDbEntity
  8
0
100
AcDbCircle
 10
192.102568
 20
197.553673
 30
0.0
 40
0.599655
100
AcDbArc
 50
45.0
 51
92.804953
  0
ARC
  5
203
100
AcDbEntity
  8
0
100
AcDbCircle
 10
192.100568
 20
197.853673
 30
0.0
 40
0.300184
100
AcDbArc
 50
85.537429
 51
160.030412
  0
ARC
  5
204
100
AcDbEntity
  8
0
100
AcDbCircle
 10
191.259522
 20
197.003673
 30
0.0
 40
0.2
100
AcDbArc
 50
270.0
 51
340.030412
  0
LINE
  5
205
100
AcDbEntity
  8
0
100
AcDbLine
 10
192.150568
 20
197.303673
 30
0.0
 11
192.150568
 21
197.003663
 31
0.0
  0
LINE
  5
206
100
AcDbEntity
  8
0
100
AcDbLine
 10
191.259522
 20
196.803673
 30
0.0
 11
189.416174
 21
196.803673
 31
0.0
  0
ARC
  5
207
100
AcDbEntity
  8
0
100
AcDbCircle
 10
193.400568
 20
197.803673
 30
0.0
 40
0.2
100
AcDbArc
 50
270.0
 51
0.0
  0
LINE
  5
208
100
AcDbEntity
  8
0
100
AcDbLine
 10
193.400568
 20
197.603673
 30
0.0
 11
192.900608
 21
197.603673
 31
0.0
  0
ARC
  5
209
100
AcDbEntity
  8
0
100
AcDbCircle
 10
192.770568
 20
197.003673
 30
0.0
 40
0.3
100
AcDbArc
 50
0.0
 51
90.0
  0
LINE
  5
20A
100
AcDbEntity
  8
0
100
AcDbLine
 10
206.400568
 20
165.203663
 30
0.0
 11
206.400568
 21
182.203663
 31
0.0
  0
LINE
  5
20B
100
AcDbEntity
  8
0
100
AcDbLine
 10
243.400568
 20
182.203663
 30
0.0
 11
206.400568
 21
182.203663
 31
0.0
  0
LINE
  5
20C
100
AcDbEntity
  8
0
100
AcDbLine
 10
224.800568
 20
186.203663
 30
0.0
 11
239.200568
 21
186.203663
 31
0.0
  0
LINE
  5
20D
100
AcDbEntity
  8
0
100
AcDbLine
 10
224.800568
 20
202.203663
 30
0.0
 11
237.600568
 21
202.203663
 31
0.0
  0
CIRCLE
  5
20E
100
AcDbEntity
  8
0
100
AcDbCircle
 10
231.200568
 20
193.953663
 30
0.0
 40
4.7625
  0
LINE
  5
20F
100
AcDbEntity
  8
0
100
AcDbLine
 10
224.030568
 20
192.523573
 30
0.0
 11
224.030568
 21
197.003663
 31
0.0
  0
LINE
  5
210
100
AcDbEntity
  8
0
100
AcDbLine
 10
223.730568
 20
192.399713
 30
0.0
 11
223.730568
 21
197.003673
 31
0.0
  0
ARC
  5
211
100
AcDbEntity
  8
0
100
AcDbCircle
 10
224.615323
 20
189.964033
 30
0.0
 40
0.46
100
AcDbArc
 50
220.092742
 51
355.012529
  0
LINE
  5
212
100
AcDbEntity
  8
0
100
AcDbLine
 10
224.246607
 20
190.619708
 30
0.0
 11
224.017008
 21
190.427035
 31
0.0
  0
LINE
  5
213
100
AcDbEntity
  8
0
100
AcDbLine
 10
223.980353
 20
190.004022
 30
0.0
 11
224.263422
 21
189.66778
 31
0.0
  0
ARC
  5
214
100
AcDbEntity
  8
0
100
AcDbCircle
 10
224.209854
 20
190.19723
 30
0.0
 40
0.3
100
AcDbArc
 50
130.002497
 51
220.092742
  0
ARC
  5
215
100
AcDbEntity
  8
0
100
AcDbCircle
 10
223.400568
 20
189.803663
 30
0.0
 40
0.2
100
AcDbArc
 50
90.0
 51
180.0
  0
LINE
  5
216
100
AcDbEntity
  8
0
100
AcDbLine
 10
223.400568
 20
190.003663
 30
0.0
 11
223.980655
 21
190.003663
 31
0.0
  0
LINE
  5
217
100
AcDbEntity
  8
0
100
AcDbLine
 10
224.210588
 20
190.196709
 30
0.0
 11
224.492459
 21
189.860869
 31
0.0
  0
LINE
  5
218
100
AcDbEntity
  8
0
100
AcDbLine
 10
224.246607
 20
190.619708
 30
0.0
 11
224.439606
 21
190.38971
 31
0.0
  0
LINE
  5
219
100
AcDbEntity
  8
0
100
AcDbLine
 10
224.439606
 20
190.38971
 30
0.0
 11
224.210588
 21
190.196709
 31
0.0
  0
ARC
  5
21A
100
AcDbEntity
  8
0
100
AcDbCircle
 10
224.615014
 20
189.963729
 30
0.0
 40
0.16
100
AcDbArc
 50
220.006774
 51
357.624736
  0
LINE
  5
21B
100
AcDbEntity
  8
0
100
AcDbLine
 10
224.774877
 20
189.957098
 30
0.0
 11
224.830567
 21
191.299694
 31
0.0
  0
ARC
  5
21C
100
AcDbEntity
  8
0
100
AcDbCircle
 10
225.359833
 20
190.903673
 30
0.0
 40
0.2
100
AcDbArc
 50
90.0
 51
175.012529
  0
LINE
  5
21D
100
AcDbEntity
  8
0
100
AcDbLine
 10
225.130568
 20
190.576663
 30
0.0
 11
225.130568
 21
191.423573
 31
0.0
  0
LINE
  5
21E
100
AcDbEntity
  8
0
100
AcDbLine
 10
225.073582
 20
189.924041
 30
0.0
 11
225.16059
 21
190.92106
 31
0.0
  0
LINE
  5
21F
100
AcDbEntity
  8
0
100
AcDbLine
 10
225.359833
 20
191.103673
 30
0.0
 11
227.384947
 21
191.103673
 31
0.0
  0
LINE
  5
220
100
AcDbEntity
  8
0
100
AcDbLine
 10
225.130568
 20
191.423573
 30
0.0
 11
224.030568
 21
192.523573
 31
0.0
  0
LINE
  5
221
100
AcDbEntity
  8
0
100
AcDbLine
 10
224.830567
 20
191.299694
 30
0.0
 11
223.730568
 21
192.399713
 31
0.0
  0
ARC
  5
222
100
AcDbEntity
  8
0
100
AcDbCircle
 10
224.800568
 20
187.803663
 30
0.0
 40
1.6
100
AcDbArc
 50
180.0
 51
270.0
  0
ARC
  5
223
100
AcDbEntity
  8
0
100
AcDbCircle
 10
224.800568
 20
200.603663
 30
0.0
 40
1.6
100
AcDbArc
 50
90.0
 51
180.0
  0
LINE
  5
224
100
AcDbEntity
  8
0
100
AcDbLine
 10
224.650568
 20
197.003663
 30
0.0
 11
224.030568
 21
197.003663
 31
0.0
  0
LINE
  5
225
100
AcDbEntity
  8
0
100
AcDbLine
 10
224.030568
 20
197.303673
 30
0.0
 11
224.650568
 21
197.303673
 31
0.0
  0
ARC
  5
226
100
AcDbEntity
  8
0
100
AcDbCircle
 10
224.030568
 20
197.003673
 30
0.0
 40
0.3
100
AcDbArc
 50
90.0
 51
180.0
  0
ARC
  5
227
100
AcDbEntity
  8
0
100
AcDbCircle
 10
223.400568
 20
197.803673
 30
0.0
 40
0.2
100
AcDbArc
 50
180.0
 51
270.0
  0
LINE
  5
228
100
AcDbEntity
  8
0
100
AcDbLine
 10
223.400568
 20
197.603673
 30
0.0
 11
223.900528
 21
197.603673
 31
0.0
  0
LINE
  5
229
100
AcDbEntity
  8
0
100
AcDbLine
 10
224.650568
 20
197.303673
 30
0.0
 11
224.650568
 21
197.003663
 31
0.0
  0
ARC
  5
22A
100
AcDbEntity
  8
0
100
AcDbCircle
 10
225.541614
 20
197.003673
 30
0.0
 40
0.2
100
AcDbArc
 50
199.969588
 51
270.0
  0
LINE
  5
22B
100
AcDbEntity
  8
0
100
AcDbLine
 10
225.541614
 20
196.803673
 30
0.0
 11
227.384962
 21
196.803673
 31
0.0
  0
ARC
  5
22C
100
AcDbEntity
  8
0
100
AcDbCircle
 10
224.700568
 20
197.853673
 30
0.0
 40
0.300184
100
AcDbArc
 50
19.969588
 51
94.462571
  0
ARC
  5
22D
100
AcDbEntity
  8
0
100
AcDbCircle
 10
224.698568
 20
197.553673
 30
0.0
 40
0.599655
100
AcDbArc
 50
87.195047
 51
135.0
  0
LINE
  5
22E
100
AcDbEntity
  8
0
100
AcDbLine
 10
223.900528
 20
197.603673
 30
0.0
 11
224.274578
 21
197.977723
 31
0.0
  0
LINE
  5
22F
100
AcDbEntity
  8
0
100
AcDbLine
 10
224.982558
 20
197.956593
 30
0.0
 11
225.35364
 21
196.935368
 31
0.0
  0
LINE
  5
230
100
AcDbEntity
  8
0
100
AcDbLine
 10
238.670568
 20
192.399713
 30
0.0
 11
238.670568
 21
197.003673
 31
0.0
  0
LINE
  5
231
100
AcDbEntity
  8
0
100
AcDbLine
 10
238.370568
 20
192.523573
 30
0.0
 11
238.370568
 21
197.003663
 31
0.0
  0
LINE
  5
232
100
AcDbEntity
  8
0
100
AcDbLine
 10
239.000568
 20
190.003663
 30
0.0
 11
238.420481
 21
190.003663
 31
0.0
  0
ARC
  5
233
100
AcDbEntity
  8
0
100
AcDbCircle
 10
237.600568
 20
187.803663
 30
0.0
 40
1.6
100
AcDbArc
 50
270.0
 51
360.0
  0
LINE
  5
234
100
AcDbEntity
  8
0
100
AcDbLine
 10
238.154529
 20
190.619708
 30
0.0
 11
238.384129
 21
190.427035
 31
0.0
  0
LINE
  5
235
100
AcDbEntity
  8
0
100
AcDbLine
 10
238.420783
 20
190.004022
 30
0.0
 11
238.137714
 21
189.66778
 31
0.0
  0
ARC
  5
236
100
AcDbEntity
  8
0
100
AcDbCircle
 10
238.191282
 20
190.19723
 30
0.0
 40
0.3
100
AcDbArc
 50
319.907258
 51
49.997503
  0
ARC
  5
237
100
AcDbEntity
  8
0
100
AcDbCircle
 10
237.786122
 20
189.963729
 30
0.0
 40
0.16
100
AcDbArc
 50
182.375264
 51
319.993226
  0
ARC
  5
238
100
AcDbEntity
  8
0
100
AcDbCircle
 10
237.041304
 20
190.903673
 30
0.0
 40
0.2
100
AcDbArc
 50
4.987471
 51
90.0
  0
LINE
  5
239
100
AcDbEntity
  8
0
100
AcDbLine
 10
237.270568
 20
190.576663
 30
0.0
 11
237.270568
 21
191.423573
 31
0.0
  0
LINE
  5
23A
100
AcDbEntity
  8
0
100
AcDbLine
 10
237.327555
 20
189.924041
 30
0.0
 11
237.240546
 21
190.92106
 31
0.0
  0
LINE
  5
23B
100
AcDbEntity
  8
0
100
AcDbLine
 10
237.62626
 20
189.957098
 30
0.0
 11
237.570569
 21
191.299694
 31
0.0
  0
ARC
  5
23C
100
AcDbEntity
  8
0
100
AcDbCircle
 10
237.785813
 20
189.964033
 30
0.0
 40
0.46
100
AcDbArc
 50
184.987471
 51
319.907258
  0
LINE
  5
23D
100
AcDbEntity
  8
0
100
AcDbLine
 10
238.154529
 20
190.619708
 30
0.0
 11
237.96153
 21
190.38971
 31
0.0
  0
LINE
  5
23E
100
AcDbEntity
  8
0
100
AcDbLine
 10
238.190548
 20
190.196709
 30
0.0
 11
237.908677
 21
189.860869
 31
0.0
  0
LINE
  5
23F
100
AcDbEntity
  8
0
100
AcDbLine
 10
237.96153
 20
190.38971
 30
0.0
 11
238.190548
 21
190.196709
 31
0.0
  0
LINE
  5
240
100
AcDbEntity
  8
0
100
AcDbLine
 10
237.570569
 20
191.299694
 30
0.0
 11
238.670568
 21
192.399713
 31
0.0
  0
LINE
  5
241
100
AcDbEntity
  8
0
100
AcDbLine
 10
237.270568
 20
191.423573
 30
0.0
 11
238.370568
 21
192.523573
 31
0.0
  0
LINE
  5
242
100
AcDbEntity
  8
0
100
AcDbLine
 10
237.041304
 20
191.103673
 30
0.0
 11
235.016189
 21
191.103673
 31
0.0
  0
LINE
  5
243
100
AcDbEntity
  8
0
100
AcDbLine
 10
241.400568
 20
184.703663
 30
0.0
 11
239.200568
 21
184.703663
 31
0.0
  0
LINE
  5
244
100
AcDbEntity
  8
0
100
AcDbLine
 10
241.400568
 20
190.203663
 30
0.0
 11
239.200568
 21
190.203663
 31
0.0
  0
LINE
  5
245
100
AcDbEntity
  8
0
100
AcDbLine
 10
241.400568
 20
186.203663
 30
0.0
 11
243.400568
 21
186.203663
 31
0.0
  0
ARC
  5
246
100
AcDbEntity
  8
0
100
AcDbCircle
 10
239.000568
 20
189.803663
 30
0.0
 40
0.2
100
AcDbArc
 50
360.0
 51
90.0
  0
LINE
  5
247
100
AcDbEntity
  8
0
100
AcDbLine
 10
239.000568
 20
197.603673
 30
0.0
 11
238.500608
 21
197.603673
 31
0.0
  0
ARC
  5
248
100
AcDbEntity
  8
0
100
AcDbCircle
 10
237.600568
 20
200.603663
 30
0.0
 40
1.6
100
AcDbArc
 50
360.0
 51
90.0
  0
ARC
  5
249
100
AcDbEntity
  8
0
100
AcDbCircle
 10
238.370568
 20
197.003673
 30
0.0
 40
0.3
100
AcDbArc
 50
360.0
 51
90.0
  0
ARC
  5
24A
100
AcDbEntity
  8
0
100
AcDbCircle
 10
236.859522
 20
197.003673
 30
0.0
 40
0.2
100
AcDbArc
 50
270.0
 51
340.030412
  0
LINE
  5
24B
100
AcDbEntity
  8
0
100
AcDbLine
 10
237.750568
 20
197.303673
 30
0.0
 11
237.750568
 21
197.003663
 31
0.0
  0
LINE
  5
24C
100
AcDbEntity
  8
0
100
AcDbLine
 10
238.370568
 20
197.303673
 30
0.0
 11
237.750568
 21
197.303673
 31
0.0
  0
LINE
  5
24D
100
AcDbEntity
  8
0
100
AcDbLine
 10
237.750568
 20
197.003663
 30
0.0
 11
238.370568
 21
197.003663
 31
0.0
  0
ARC
  5
24E
100
AcDbEntity
  8
0
100
AcDbCircle
 10
237.700568
 20
197.853673
 30
0.0
 40
0.300184
100
AcDbArc
 50
85.537429
 51
160.030412
  0
ARC
  5
24F
100
AcDbEntity
  8
0
100
AcDbCircle
 10
237.702568
 20
197.553673
 30
0.0
 40
0.599655
100
AcDbArc
 50
45.0
 51
92.804953
  0
LINE
  5
250
100
AcDbEntity
  8
0
100
AcDbLine
 10
237.418578
 20
197.956593
 30
0.0
 11
237.047497
 21
196.935368
 31
0.0
  0
LINE
  5
251
100
AcDbEntity
  8
0
100
AcDbLine
 10
238.500608
 20
197.603673
 30
0.0
 11
238.126558
 21
197.977723
 31
0.0
  0
LINE
  5
252
100
AcDbEntity
  8
0
100
AcDbLine
 10
236.859522
 20
196.803673
 30
0.0
 11
235.016174
 21
196.803673
 31
0.0
  0
ARC
  5
253
100
AcDbEntity
  8
0
100
AcDbCircle
 10
239.000568
 20
197.803673
 30
0.0
 40
0.2
100
AcDbArc
 50
270.0
 51
360.0
  0
LINE
  5
254
100
AcDbEntity
  8
CENTER
  6
CENTER
 62
     1
100
AcDbLine
 10
251.488691
 20
217.203663
 30
0.0
 11
165.893011
 21
217.203663
 31
0.0
  0
LINE
  5
255
100
AcDbEntity
  8
CENTER
  6
CENTER
 62
     1
100
AcDbLine
 10
208.400568
 20
261.203663
 30
0.0
 11
191.400568
 21
261.203663
 31
0.0
  0
LINE
  5
256
100
AcDbEntity
  8
0
100
AcDbLine
 10
223.200568
 20
244.703663
 30
0.0
 11
193.600568
 21
244.703663
 31
0.0
  0
LINE
  5
257
100
AcDbEntity
  8
0
100
AcDbLine
 10
206.400568
 20
254.203663
 30
0.0
 11
198.300568
 21
254.203663
 31
0.0
  0
LINE
  5
258
100
AcDbEntity
  8
0
100
AcDbLine
 10
206.400568
 20
268.203663
 30
0.0
 11
198.300568
 21
268.203663
 31
0.0
  0
LINE
  5
259
100
AcDbEntity
  8
0
100
AcDbLine
 10
206.400568
 20
269.203663
 30
0.0
 11
193.400568
 21
269.203663
 31
0.0
  0
CIRCLE
  5
25A
100
AcDbEntity
  8
0
100
AcDbCircle
 10
185.600568
 20
240.453663
 30
0.0
 40
4.7625
  0
LINE
  5
25B
100
AcDbEntity
  8
0
100
AcDbLine
 10
191.970569
 20
243.107632
 30
0.0
 11
193.070568
 21
242.007613
 31
0.0
  0
LINE
  5
25C
100
AcDbEntity
  8
0
100
AcDbLine
 10
191.670568
 20
242.983753
 30
0.0
 11
192.770568
 21
241.883753
 31
0.0
  0
LINE
  5
25D
100
AcDbEntity
  8
0
100
AcDbLine
 10
179.530568
 20
242.983753
 30
0.0
 11
178.430568
 21
241.883753
 31
0.0
  0
LINE
  5
25E
100
AcDbEntity
  8
0
100
AcDbLine
 10
179.230567
 20
243.107632
 30
0.0
 11
178.130568
 21
242.007613
 31
0.0
  0
LINE
  5
25F
100
AcDbEntity
  8
0
100
AcDbLine
 10
179.941614
 20
237.603653
 30
0.0
 11
181.784962
 21
237.603653
 31
0.0
  0
LINE
  5
260
100
AcDbEntity
  8
0
100
AcDbLine
 10
192.000568
 20
232.203663
 30
0.0
 11
179.200568
 21
232.203663
 31
0.0
  0
ARC
  5
261
100
AcDbEntity
  8
0
100
AcDbCircle
 10
179.200568
 20
233.803663
 30
0.0
 40
1.6
100
AcDbArc
 50
180.0
 51
270.0
  0
ARC
  5
262
100
AcDbEntity
  8
0
100
AcDbCircle
 10
177.800568
 20
236.603653
 30
0.0
 40
0.2
100
AcDbArc
 50
90.0
 51
180.0
  0
LINE
  5
263
100
AcDbEntity
  8
0
100
AcDbLine
 10
178.430568
 20
241.883753
 30
0.0
 11
178.430568
 21
237.403663
 31
0.0
  0
LINE
  5
264
100
AcDbEntity
  8
0
100
AcDbLine
 10
178.130568
 20
242.007613
 30
0.0
 11
178.130568
 21
237.403653
 31
0.0
  0
ARC
  5
265
100
AcDbEntity
  8
0
100
AcDbCircle
 10
178.430568
 20
237.403653
 30
0.0
 40
0.3
100
AcDbArc
 50
180.0
 51
270.0
  0
LINE
  5
266
100
AcDbEntity
  8
0
100
AcDbLine
 10
178.300528
 20
236.803653
 30
0.0
 11
178.674578
 21
236.429603
 31
0.0
  0
LINE
  5
267
100
AcDbEntity
  8
0
100
AcDbLine
 10
179.050568
 20
237.103653
 30
0.0
 11
179.050568
 21
237.403663
 31
0.0
  0
ARC
  5
268
100
AcDbEntity
  8
0
100
AcDbCircle
 10
179.098568
 20
236.853653
 30
0.0
 40
0.599655
100
AcDbArc
 50
225.0
 51
272.804953
  0
LINE
  5
269
100
AcDbEntity
  8
0
100
AcDbLine
 10
179.050568
 20
237.403663
 30
0.0
 11
178.430568
 21
237.403663
 31
0.0
  0
LINE
  5
26A
100
AcDbEntity
  8
0
100
AcDbLine
 10
178.430568
 20
237.103653
 30
0.0
 11
179.050568
 21
237.103653
 31
0.0
  0
ARC
  5
26B
100
AcDbEntity
  8
0
100
AcDbCircle
 10
179.941614
 20
237.403653
 30
0.0
 40
0.2
100
AcDbArc
 50
90.0
 51
160.030412
  0
ARC
  5
26C
100
AcDbEntity
  8
0
100
AcDbCircle
 10
179.100568
 20
236.553653
 30
0.0
 40
0.300184
100
AcDbArc
 50
265.537429
 51
340.030412
  0
LINE
  5
26D
100
AcDbEntity
  8
0
100
AcDbLine
 10
179.382558
 20
236.450733
 30
0.0
 11
179.75364
 21
237.471957
 31
0.0
  0
LINE
  5
26E
100
AcDbEntity
  8
0
100
AcDbLine
 10
177.800568
 20
236.803653
 30
0.0
 11
178.300528
 21
236.803653
 31
0.0
  0
LINE
  5
26F
100
AcDbEntity
  8
0
100
AcDbLine
 10
192.900608
 20
236.803653
 30
0.0
 11
192.526558
 21
236.429603
 31
0.0
  0
LINE
  5
270
100
AcDbEntity
  8
0
100
AcDbLine
 10
192.770568
 20
237.103653
 30
0.0
 11
192.150568
 21
237.103653
 31
0.0
  0
LINE
  5
271
100
AcDbEntity
  8
0
100
AcDbLine
 10
192.150568
 20
237.403663
 30
0.0
 11
192.770568
 21
237.403663
 31
0.0
  0
ARC
  5
272
100
AcDbEntity
  8
0
100
AcDbCircle
 10
192.000568
 20
233.803663
 30
0.0
 40
1.6
100
AcDbArc
 50
270.0
 51
0.0
  0
LINE
  5
273
100
AcDbEntity
  8
0
100
AcDbLine
 10
191.818578
 20
236.450733
 30
0.0
 11
191.447497
 21
237.471957
 31
0.0
  0
LINE
  5
274
100
AcDbEntity
  8
0
100
AcDbLine
 10
192.150568
 20
237.103653
 30
0.0
 11
192.150568
 21
237.403663
 31
0.0
  0
ARC
  5
275
100
AcDbEntity
  8
0
100
AcDbCircle
 10
192.100568
 20
236.553653
 30
0.0
 40
0.300184
100
AcDbArc
 50
199.969588
 51
274.462571
  0
ARC
  5
276
100
AcDbEntity
  8
0
100
AcDbCircle
 10
192.102568
 20
236.853653
 30
0.0
 40
0.599655
100
AcDbArc
 50
267.195047
 51
315.0
  0
ARC
  5
277
100
AcDbEntity
  8
0
100
AcDbCircle
 10
191.259522
 20
237.403653
 30
0.0
 40
0.2
100
AcDbArc
 50
19.969588
 51
90.0
  0
LINE
  5
278
100
AcDbEntity
  8
0
100
AcDbLine
 10
191.259522
 20
237.603653
 30
0.0
 11
189.416174
 21
237.603653
 31
0.0
  0
ARC
  5
279
100
AcDbEntity
  8
0
100
AcDbCircle
 10
193.400568
 20
236.603653
 30
0.0
 40
0.2
100
AcDbArc
 50
0.0
 51
90.0
  0
LINE
  5
27A
100
AcDbEntity
  8
0
100
AcDbLine
 10
193.070568
 20
242.007613
 30
0.0
 11
193.070568
 21
237.403653
 31
0.0
  0
LINE
  5
27B
100
AcDbEntity
  8
0
100
AcDbLine
 10
192.770568
 20
241.883753
 30
0.0
 11
192.770568
 21
237.403663
 31
0.0
  0
ARC
  5
27C
100
AcDbEntity
  8
0
100
AcDbCircle
 10
192.770568
 20
237.403653
 30
0.0
 40
0.3
100
AcDbArc
 50
270.0
 51
0.0
  0
LINE
  5
27D
100
AcDbEntity
  8
0
100
AcDbLine
 10
193.400568
 20
236.803653
 30
0.0
 11
192.900608
 21
236.803653
 31
0.0
  0
LINE
  5
27E
100
AcDbEntity
  8
0
100
AcDbLine
 10
179.759833
 20
243.303653
 30
0.0
 11
181.784947
 21
243.303653
 31
0.0
  0
LINE
  5
27F
100
AcDbEntity
  8
0
100
AcDbLine
 10
192.000568
 20
248.203663
 30
0.0
 11
177.600568
 21
248.203663
 31
0.0
  0
LINE
  5
280
100
AcDbEntity
  8
0
100
AcDbLine
 10
193.400568
 20
252.203663
 30
0.0
 11
173.400568
 21
252.203663
 31
0.0
  0
LINE
  5
281
100
AcDbEntity
  8
0
100
AcDbLine
 10
175.400568
 20
248.203663
 30
0.0
 11
173.400568
 21
248.203663
 31
0.0
  0
LINE
  5
282
100
AcDbEntity
  8
0
100
AcDbLine
 10
175.400568
 20
244.203663
 30
0.0
 11
177.600568
 21
244.203663
 31
0.0
  0
ARC
  5
283
100
AcDbEntity
  8
0
100
AcDbCircle
 10
177.800568
 20
244.603663
 30
0.0
 40
0.2
100
AcDbArc
 50
180.0
 51
270.0
  0
LINE
  5
284
100
AcDbEntity
  8
0
100
AcDbLine
 10
175.400568
 20
249.703663
 30
0.0
 11
177.600568
 21
249.703663
 31
0.0
  0
LINE
  5
285
100
AcDbEntity
  8
0
100
AcDbLine
 10
179.174877
 20
244.450227
 30
0.0
 11
179.230567
 21
243.107632
 31
0.0
  0
ARC
  5
286
100
AcDbEntity
  8
0
100
AcDbCircle
 10
178.609854
 20
244.210096
 30
0.0
 40
0.3
100
AcDbArc
 50
139.907258
 51
229.997503
  0
LINE
  5
287
100
AcDbEntity
  8
0
100
AcDbLine
 10
178.839606
 20
244.017616
 30
0.0
 11
178.610588
 21
244.210616
 31
0.0
  0
ARC
  5
288
100
AcDbEntity
  8
0
100
AcDbCircle
 10
179.015014
 20
244.443596
 30
0.0
 40
0.16
100
AcDbArc
 50
2.375264
 51
139.993226
  0
LINE
  5
289
100
AcDbEntity
  8
0
100
AcDbLine
 10
178.610588
 20
244.210616
 30
0.0
 11
178.892459
 21
244.546457
 31
0.0
  0
LINE
  5
28A
100
AcDbEntity
  8
0
100
AcDbLine
 10
178.646607
 20
243.787617
 30
0.0
 11
178.839606
 21
244.017616
 31
0.0
  0
LINE
  5
28B
100
AcDbEntity
  8
0
100
AcDbLine
 10
178.380353
 20
244.403304
 30
0.0
 11
178.663422
 21
244.739545
 31
0.0
  0
LINE
  5
28C
100
AcDbEntity
  8
0
100
AcDbLine
 10
178.646607
 20
243.787617
 30
0.0
 11
178.417008
 21
243.980291
 31
0.0
  0
LINE
  5
28D
100
AcDbEntity
  8
0
100
AcDbLine
 10
179.473582
 20
244.483284
 30
0.0
 11
179.56059
 21
243.486265
 31
0.0
  0
LINE
  5
28E
100
AcDbEntity
  8
0
100
AcDbLine
 10
179.530568
 20
243.830663
 30
0.0
 11
179.530568
 21
242.983753
 31
0.0
  0
ARC
  5
28F
100
AcDbEntity
  8
0
100
AcDbCircle
 10
179.759833
 20
243.503653
 30
0.0
 40
0.2
100
AcDbArc
 50
184.987471
 51
270.0
  0
ARC
  5
290
100
AcDbEntity
  8
0
100
AcDbCircle
 10
179.015323
 20
244.443293
 30
0.0
 40
0.46
100
AcDbArc
 50
4.987471
 51
139.907258
  0
ARC
  5
291
100
AcDbEntity
  8
0
100
AcDbCircle
 10
179.200568
 20
246.603663
 30
0.0
 40
1.6
100
AcDbArc
 50
90.0
 51
180.0
  0
LINE
  5
292
100
AcDbEntity
  8
0
100
AcDbLine
 10
177.800568
 20
244.403663
 30
0.0
 11
178.380655
 21
244.403663
 31
0.0
  0
LINE
  5
293
100
AcDbEntity
  8
0
100
AcDbLine
 10
193.400568
 20
269.203663
 30
0.0
 11
193.400568
 21
252.203663
 31
0.0
  0
LINE
  5
294
100
AcDbEntity
  8
0
100
AcDbLine
 10
198.300568
 20
268.203663
 30
0.0
 11
198.300568
 21
254.203663
 31
0.0
  0
ARC
  5
295
100
AcDbEntity
  8
0
100
AcDbCircle
 10
192.000568
 20
246.603663
 30
0.0
 40
1.6
100
AcDbArc
 50
0.0
 51
90.0
  0
LINE
  5
296
100
AcDbEntity
  8
0
100
AcDbLine
 10
192.820783
 20
244.403304
 30
0.0
 11
192.537714
 21
244.739545
 31
0.0
  0
LINE
  5
297
100
AcDbEntity
  8
0
100
AcDbLine
 10
192.554529
 20
243.787617
 30
0.0
 11
192.784129
 21
243.980291
 31
0.0
  0
LINE
  5
298
100
AcDbEntity
  8
0
100
AcDbLine
 10
192.36153
 20
244.017616
 30
0.0
 11
192.590548
 21
244.210616
 31
0.0
  0
LINE
  5
299
100
AcDbEntity
  8
0
100
AcDbLine
 10
192.590548
 20
244.210616
 30
0.0
 11
192.308677
 21
244.546457
 31
0.0
  0
LINE
  5
29A
100
AcDbEntity
  8
0
100
AcDbLine
 10
191.727555
 20
244.483284
 30
0.0
 11
191.640546
 21
243.486265
 31
0.0
  0
LINE
  5
29B
100
AcDbEntity
  8
0
100
AcDbLine
 10
192.02626
 20
244.450227
 30
0.0
 11
191.970569
 21
243.107632
 31
0.0
  0
LINE
  5
29C
100
AcDbEntity
  8
0
100
AcDbLine
 10
191.670568
 20
243.830663
 30
0.0
 11
191.670568
 21
242.983753
 31
0.0
  0
ARC
  5
29D
100
AcDbEntity
  8
0
100
AcDbCircle
 10
191.441304
 20
243.503653
 30
0.0
 40
0.2
100
AcDbArc
 50
270.0
 51
355.012529
  0
ARC
  5
29E
100
AcDbEntity
  8
0
100
AcDbCircle
 10
192.185813
 20
244.443293
 30
0.0
 40
0.46
100
AcDbArc
 50
40.092742
 51
175.012529
  0
ARC
  5
29F
100
AcDbEntity
  8
0
100
AcDbCircle
 10
192.186122
 20
244.443596
 30
0.0
 40
0.16
100
AcDbArc
 50
40.006774
 51
177.624736
  0
LINE
  5
2A0
100
AcDbEntity
  8
0
100
AcDbLine
 10
192.554529
 20
243.787617
 30
0.0
 11
192.36153
 21
244.017616
 31
0.0
  0
LINE
  5
2A1
100
AcDbEntity
  8
0
100
AcDbLine
 10
191.441304
 20
243.303653
 30
0.0
 11
189.416189
 21
243.303653
 31
0.0
  0
ARC
  5
2A2
100
AcDbEntity
  8
0
100
AcDbCircle
 10
193.400568
 20
244.603663
 30
0.0
 40
0.2
100
AcDbArc
 50
270.0
 51
0.0
  0
ARC
  5
2A3
100
AcDbEntity
  8
0
100
AcDbCircle
 10
192.591282
 20
244.210096
 30
0.0
 40
0.3
100
AcDbArc
 50
310.002497
 51
40.092742
  0
LINE
  5
2A4
100
AcDbEntity
  8
0
100
AcDbLine
 10
193.400568
 20
244.403663
 30
0.0
 11
192.820481
 21
244.403663
 31
0.0
  0
LINE
  5
2A5
100
AcDbEntity
  8
0
100
AcDbLine
 10
198.300568
 20
256.703663
 30
0.0
 11
193.400568
 21
256.703663
 31
0.0
  0
LINE
  5
2A6
100
AcDbEntity
  8
0
100
AcDbLine
 10
198.300568
 20
265.703663
 30
0.0
 11
193.400568
 21
265.703663
 31
0.0
  0
LINE
  5
2A7
100
AcDbEntity
  8
0
100
AcDbLine
 10
203.150568
 20
269.203663
 30
0.0
 11
203.150568
 21
269.203763
 31
0.0
  0
LINE
  5
2A8
100
AcDbEntity
  8
0
100
AcDbLine
 10
199.900568
 20
269.203663
 30
0.0
 11
199.900668
 21
269.203663
 31
0.0
  0
LINE
  5
2A9
100
AcDbEntity
  8
0
100
AcDbLine
 10
237.570569
 20
243.107632
 30
0.0
 11
238.670568
 21
242.007613
 31
0.0
  0
LINE
  5
2AA
100
AcDbEntity
  8
0
100
AcDbLine
 10
237.270568
 20
242.983753
 30
0.0
 11
238.370568
 21
241.883753
 31
0.0
  0
LINE
  5
2AB
100
AcDbEntity
  8
0
100
AcDbLine
 10
225.130568
 20
242.983753
 30
0.0
 11
224.030568
 21
241.883753
 31
0.0
  0
LINE
  5
2AC
100
AcDbEntity
  8
0
100
AcDbLine
 10
224.830567
 20
243.107632
 30
0.0
 11
223.730568
 21
242.007613
 31
0.0
  0
CIRCLE
  5
2AD
100
AcDbEntity
  8
0
100
AcDbCircle
 10
231.200568
 20
240.453663
 30
0.0
 40
4.7625
  0
LINE
  5
2AE
100
AcDbEntity
  8
0
100
AcDbLine
 10
224.800568
 20
232.203663
 30
0.0
 11
237.600568
 21
232.203663
 31
0.0
  0
ARC
  5
2AF
100
AcDbEntity
  8
0
100
AcDbCircle
 10
224.800568
 20
233.803663
 30
0.0
 40
1.6
100
AcDbArc
 50
180.0
 51
270.0
  0
ARC
  5
2B0
100
AcDbEntity
  8
0
100
AcDbCircle
 10
225.541614
 20
237.403653
 30
0.0
 40
0.2
100
AcDbArc
 50
90.0
 51
160.030412
  0
ARC
  5
2B1
100
AcDbEntity
  8
0
100
AcDbCircle
 10
224.698568
 20
236.853653
 30
0.0
 40
0.599655
100
AcDbArc
 50
225.0
 51
272.804953
  0
ARC
  5
2B2
100
AcDbEntity
  8
0
100
AcDbCircle
 10
224.700568
 20
236.553653
 30
0.0
 40
0.300184
100
AcDbArc
 50
265.537429
 51
340.030412
  0
LINE
  5
2B3
100
AcDbEntity
  8
0
100
AcDbLine
 10
224.650568
 20
237.103653
 30
0.0
 11
224.650568
 21
237.403663
 31
0.0
  0
LINE
  5
2B4
100
AcDbEntity
  8
0
100
AcDbLine
 10
223.400568
 20
236.803653
 30
0.0
 11
223.900528
 21
236.803653
 31
0.0
  0
ARC
  5
2B5
100
AcDbEntity
  8
0
100
AcDbCircle
 10
223.400568
 20
236.603653
 30
0.0
 40
0.2
100
AcDbArc
 50
90.0
 51
180.0
  0
ARC
  5
2B6
100
AcDbEntity
  8
0
100
AcDbCircle
 10
224.030568
 20
237.403653
 30
0.0
 40
0.3
100
AcDbArc
 50
180.0
 51
270.0
  0
LINE
  5
2B7
100
AcDbEntity
  8
0
100
AcDbLine
 10
224.650568
 20
237.403663
 30
0.0
 11
224.030568
 21
237.403663
 31
0.0
  0
LINE
  5
2B8
100
AcDbEntity
  8
0
100
AcDbLine
 10
224.030568
 20
237.103653
 30
0.0
 11
224.650568
 21
237.103653
 31
0.0
  0
LINE
  5
2B9
100
AcDbEntity
  8
0
100
AcDbLine
 10
223.900528
 20
236.803653
 30
0.0
 11
224.274578
 21
236.429603
 31
0.0
  0
LINE
  5
2BA
100
AcDbEntity
  8
0
100
AcDbLine
 10
224.982558
 20
236.450733
 30
0.0
 11
225.35364
 21
237.471957
 31
0.0
  0
LINE
  5
2BB
100
AcDbEntity
  8
0
100
AcDbLine
 10
224.030568
 20
241.883753
 30
0.0
 11
224.030568
 21
237.403663
 31
0.0
  0
LINE
  5
2BC
100
AcDbEntity
  8
0
100
AcDbLine
 10
223.730568
 20
242.007613
 30
0.0
 11
223.730568
 21
237.403653
 31
0.0
  0
LINE
  5
2BD
100
AcDbEntity
  8
0
100
AcDbLine
 10
225.541614
 20
237.603653
 30
0.0
 11
227.384962
 21
237.603653
 31
0.0
  0
LINE
  5
2BE
100
AcDbEntity
  8
0
100
AcDbLine
 10
239.000568
 20
236.803653
 30
0.0
 11
238.500608
 21
236.803653
 31
0.0
  0
ARC
  5
2BF
100
AcDbEntity
  8
0
100
AcDbCircle
 10
237.600568
 20
233.803663
 30
0.0
 40
1.6
100
AcDbArc
 50
270.0
 51
0.0
  0
LINE
  5
2C0
100
AcDbEntity
  8
0
100
AcDbLine
 10
238.370568
 20
237.103653
 30
0.0
 11
237.750568
 21
237.103653
 31
0.0
  0
LINE
  5
2C1
100
AcDbEntity
  8
0
100
AcDbLine
 10
237.750568
 20
237.403663
 30
0.0
 11
238.370568
 21
237.403663
 31
0.0
  0
ARC
  5
2C2
100
AcDbEntity
  8
0
100
AcDbCircle
 10
237.702568
 20
236.853653
 30
0.0
 40
0.599655
100
AcDbArc
 50
267.195047
 51
315.0
  0
LINE
  5
2C3
100
AcDbEntity
  8
0
100
AcDbLine
 10
237.750568
 20
237.103653
 30
0.0
 11
237.750568
 21
237.403663
 31
0.0
  0
LINE
  5
2C4
100
AcDbEntity
  8
0
100
AcDbLine
 10
238.500608
 20
236.803653
 30
0.0
 11
238.126558
 21
236.429603
 31
0.0
  0
ARC
  5
2C5
100
AcDbEntity
  8
0
100
AcDbCircle
 10
238.370568
 20
237.403653
 30
0.0
 40
0.3
100
AcDbArc
 50
270.0
 51
0.0
  0
ARC
  5
2C6
100
AcDbEntity
  8
0
100
AcDbCircle
 10
236.859522
 20
237.403653
 30
0.0
 40
0.2
100
AcDbArc
 50
19.969588
 51
90.0
  0
LINE
  5
2C7
100
AcDbEntity
  8
0
100
AcDbLine
 10
237.418578
 20
236.450733
 30
0.0
 11
237.047497
 21
237.471957
 31
0.0
  0
ARC
  5
2C8
100
AcDbEntity
  8
0
100
AcDbCircle
 10
237.700568
 20
236.553653
 30
0.0
 40
0.300184
100
AcDbArc
 50
199.969588
 51
274.462571
  0
LINE
  5
2C9
100
AcDbEntity
  8
0
100
AcDbLine
 10
238.670568
 20
242.007613
 30
0.0
 11
238.670568
 21
237.403653
 31
0.0
  0
LINE
  5
2CA
100
AcDbEntity
  8
0
100
AcDbLine
 10
238.370568
 20
241.883753
 30
0.0
 11
238.370568
 21
237.403663
 31
0.0
  0
LINE
  5
2CB
100
AcDbEntity
  8
0
100
AcDbLine
 10
236.859522
 20
237.603653
 30
0.0
 11
235.016174
 21
237.603653
 31
0.0
  0
ARC
  5
2CC
100
AcDbEntity
  8
0
100
AcDbCircle
 10
239.000568
 20
236.603653
 30
0.0
 40
0.2
100
AcDbArc
 50
0.0
 51
90.0
  0
LINE
  5
2CD
100
AcDbEntity
  8
0
100
AcDbLine
 10
243.400568
 20
252.203663
 30
0.0
 11
206.400568
 21
252.203663
 31
0.0
  0
LINE
  5
2CE
100
AcDbEntity
  8
0
100
AcDbLine
 10
224.800568
 20
248.203663
 30
0.0
 11
239.200568
 21
248.203663
 31
0.0
  0
LINE
  5
2CF
100
AcDbEntity
  8
0
100
AcDbLine
 10
206.400568
 20
269.203663
 30
0.0
 11
206.400568
 21
252.203663
 31
0.0
  0
LINE
  5
2D0
100
AcDbEntity
  8
0
100
AcDbLine
 10
224.210588
 20
244.210616
 30
0.0
 11
224.492459
 21
244.546457
 31
0.0
  0
LINE
  5
2D1
100
AcDbEntity
  8
0
100
AcDbLine
 10
224.246607
 20
243.787617
 30
0.0
 11
224.439606
 21
244.017616
 31
0.0
  0
LINE
  5
2D2
100
AcDbEntity
  8
0
100
AcDbLine
 10
224.439606
 20
244.017616
 30
0.0
 11
224.210588
 21
244.210616
 31
0.0
  0
ARC
  5
2D3
100
AcDbEntity
  8
0
100
AcDbCircle
 10
224.615014
 20
244.443596
 30
0.0
 40
0.16
100
AcDbArc
 50
2.375264
 51
139.993226
  0
LINE
  5
2D4
100
AcDbEntity
  8
0
100
AcDbLine
 10
223.400568
 20
244.403663
 30
0.0
 11
223.980655
 21
244.403663
 31
0.0
  0
ARC
  5
2D5
100
AcDbEntity
  8
0
100
AcDbCircle
 10
223.400568
 20
244.603663
 30
0.0
 40
0.2
100
AcDbArc
 50
180.0
 51
270.0
  0
ARC
  5
2D6
100
AcDbEntity
  8
0
100
AcDbCircle
 10
224.209854
 20
244.210096
 30
0.0
 40
0.3
100
AcDbArc
 50
139.907258
 51
229.997503
  0
LINE
  5
2D7
100
AcDbEntity
  8
0
100
AcDbLine
 10
224.246607
 20
243.787617
 30
0.0
 11
224.017008
 21
243.980291
 31
0.0
  0
LINE
  5
2D8
100
AcDbEntity
  8
0
100
AcDbLine
 10
223.980353
 20
244.403304
 30
0.0
 11
224.263422
 21
244.739545
 31
0.0
  0
ARC
  5
2D9
100
AcDbEntity
  8
0
100
AcDbCircle
 10
224.615323
 20
244.443293
 30
0.0
 40
0.46
100
AcDbArc
 50
4.987471
 51
139.907258
  0
ARC
  5
2DA
100
AcDbEntity
  8
0
100
AcDbCircle
 10
225.359833
 20
243.503653
 30
0.0
 40
0.2
100
AcDbArc
 50
184.987471
 51
270.0
  0
LINE
  5
2DB
100
AcDbEntity
  8
0
100
AcDbLine
 10
225.130568
 20
243.830663
 30
0.0
 11
225.130568
 21
242.983753
 31
0.0
  0
LINE
  5
2DC
100
AcDbEntity
  8
0
100
AcDbLine
 10
224.774877
 20
244.450227
 30
0.0
 11
224.830567
 21
243.107632
 31
0.0
  0
LINE
  5
2DD
100
AcDbEntity
  8
0
100
AcDbLine
 10
225.073582
 20
244.483284
 30
0.0
 11
225.16059
 21
243.486265
 31
0.0
  0
ARC
  5
2DE
100
AcDbEntity
  8
0
100
AcDbCircle
 10
224.800568
 20
246.603663
 30
0.0
 40
1.6
100
AcDbArc
 50
90.0
 51
180.0
  0
LINE
  5
2DF
100
AcDbEntity
  8
0
100
AcDbLine
 10
225.359833
 20
243.303653
 30
0.0
 11
227.384947
 21
243.303653
 31
0.0
  0
LINE
  5
2E0
100
AcDbEntity
  8
0
100
AcDbLine
 10
239.000568
 20
244.403663
 30
0.0
 11
238.420481
 21
244.403663
 31
0.0
  0
ARC
  5
2E1
100
AcDbEntity
  8
0
100
AcDbCircle
 10
237.600568
 20
246.603663
 30
0.0
 40
1.6
100
AcDbArc
 50
0.0
 51
90.0
  0
LINE
  5
2E2
100
AcDbEntity
  8
0
100
AcDbLine
 10
238.154529
 20
243.787617
 30
0.0
 11
238.384129
 21
243.980291
 31
0.0
  0
LINE
  5
2E3
100
AcDbEntity
  8
0
100
AcDbLine
 10
238.420783
 20
244.403304
 30
0.0
 11
238.137714
 21
244.739545
 31
0.0
  0
LINE
  5
2E4
100
AcDbEntity
  8
0
100
AcDbLine
 10
238.154529
 20
243.787617
 30
0.0
 11
237.96153
 21
244.017616
 31
0.0
  0
LINE
  5
2E5
100
AcDbEntity
  8
0
100
AcDbLine
 10
238.190548
 20
244.210616
 30
0.0
 11
237.908677
 21
244.546457
 31
0.0
  0
ARC
  5
2E6
100
AcDbEntity
  8
0
100
AcDbCircle
 10
237.786122
 20
244.443596
 30
0.0
 40
0.16
100
AcDbArc
 50
40.006774
 51
177.624736
  0
LINE
  5
2E7
100
AcDbEntity
  8
0
100
AcDbLine
 10
237.96153
 20
244.017616
 30
0.0
 11
238.190548
 21
244.210616
 31
0.0
  0
ARC
  5
2E8
100
AcDbEntity
  8
0
100
AcDbCircle
 10
238.191282
 20
244.210096
 30
0.0
 40
0.3
100
AcDbArc
 50
310.002497
 51
40.092742
  0
ARC
  5
2E9
100
AcDbEntity
  8
0
100
AcDbCircle
 10
237.785813
 20
244.443293
 30
0.0
 40
0.46
100
AcDbArc
 50
40.092742
 51
175.012529
  0
ARC
  5
2EA
100
AcDbEntity
  8
0
100
AcDbCircle
 10
237.041304
 20
243.503653
 30
0.0
 40
0.2
100
AcDbArc
 50
270.0
 51
355.012529
  0
LINE
  5
2EB
100
AcDbEntity
  8
0
100
AcDbLine
 10
237.270568
 20
243.830663
 30
0.0
 11
237.270568
 21
242.983753
 31
0.0
  0
LINE
  5
2EC
100
AcDbEntity
  8
0
100
AcDbLine
 10
237.327555
 20
244.483284
 30
0.0
 11
237.240546
 21
243.486265
 31
0.0
  0
LINE
  5
2ED
100
AcDbEntity
  8
0
100
AcDbLine
 10
237.62626
 20
244.450227
 30
0.0
 11
237.570569
 21
243.107632
 31
0.0
  0
LINE
  5
2EE
100
AcDbEntity
  8
0
100
AcDbLine
 10
237.041304
 20
243.303653
 30
0.0
 11
235.016189
 21
243.303653
 31
0.0
  0
LINE
  5
2EF
100
AcDbEntity
  8
0
100
AcDbLine
 10
241.400568
 20
244.203663
 30
0.0
 11
239.200568
 21
244.203663
 31
0.0
  0
LINE
  5
2F0
100
AcDbEntity
  8
0
100
AcDbLine
 10
241.400568
 20
248.203663
 30
0.0
 11
243.400568
 21
248.203663
 31
0.0
  0
LINE
  5
2F1
100
AcDbEntity
  8
0
100
AcDbLine
 10
241.400568
 20
249.703663
 30
0.0
 11
239.200568
 21
249.703663
 31
0.0
  0
ARC
  5
2F2
100
AcDbEntity
  8
0
100
AcDbCircle
 10
239.000568
 20
244.603663
 30
0.0
 40
0.2
100
AcDbArc
 50
270.0
 51
0.0
  0
CIRCLE
  5
2F3
100
AcDbEntity
  8
CENTER
  6
CENTER
 62
     1
100
AcDbCircle
 10
399.952048
 20
217.203663
 30
0.0
 40
44.0
  0
LINE
  5
2F4
100
AcDbEntity
  8
CENTER
  6
CENTER
 62
     1
100
AcDbLine
 10
399.952048
 20
278.230046
 30
0.0
 11
399.952048
 21
156.177279
 31
0.0
  0
CIRCLE
  5
2F5
100
AcDbEntity
  8
0
100
AcDbCircle
 10
399.952048
 20
217.203663
 30
0.0
 40
35.0
  0
CIRCLE
  5
2F6
100
AcDbEntity
  8
0
100
AcDbCircle
 10
399.952048
 20
217.203663
 30
0.0
 40
15.0
  0
CIRCLE
  5
2F7
100
AcDbEntity
  8
0
100
AcDbCircle
 10
399.952048
 20
217.203663
 30
0.0
 40
31.0
  0
CIRCLE
  5
2F8
100
AcDbEntity
  8
0
100
AcDbCircle
 10
399.952048
 20
217.203663
 30
0.0
 40
52.0
  0
CIRCLE
  5
2F9
100
AcDbEntity
  8
0
100
AcDbCircle
 10
399.952048
 20
173.203663
 30
0.0
 40
7.0
  0
CIRCLE
  5
2FA
100
AcDbEntity
  8
0
100
AcDbCircle
 10
399.952048
 20
173.203663
 30
0.0
 40
4.25
  0
LINE
  5
2FB
100
AcDbEntity
  8
CENTER
  6
CENTER
 62
     1
100
AcDbLine
 10
338.925664
 20
217.203663
 30
0.0
 11
460.978432
 21
217.203663
 31
0.0
  0
CIRCLE
  5
2FC
100
AcDbEntity
  8
0
100
AcDbCircle
 10
355.952048
 20
217.203663
 30
0.0
 40
4.25
  0
CIRCLE
  5
2FD
100
AcDbEntity
  8
0
100
AcDbCircle
 10
355.952048
 20
217.203663
 30
0.0
 40
7.0
  0
CIRCLE
  5
2FE
100
AcDbEntity
  8
0
100
AcDbCircle
 10
399.952048
 20
261.203663
 30
0.0
 40
4.25
  0
CIRCLE
  5
2FF
100
AcDbEntity
  8
0
100
AcDbCircle
 10
399.952048
 20
261.203663
 30
0.0
 40
7.0
  0
CIRCLE
  5
300
100
AcDbEntity
  8
0
100
AcDbCircle
 10
443.952048
 20
217.203663
 30
0.0
 40
4.25
  0
CIRCLE
  5
301
100
AcDbEntity
  8
0
100
AcDbCircle
 10
443.952048
 20
217.203663
 30
0.0
 40
7.0
  0
ENDSEC
  0
SECTION
  2
OBJECTS
  0
DICTIONARY
  5
186
100
AcDbDictionary
  3
ACAD_GROUP
350
187
  3
ACAD_LAYOUT
350
193
  3
ACAD_MLINESTYLE
350
190
  3
ACAD_PLOTSETTINGS
350
192
  3
ACAD_PLOTSTYLENAME
350
188
  3
ACDBHEADERROUNDTRIPXREC
350
30E
  3
AcDbVariableDictionary
350
337
  0
DICTIONARY
  5
30C
100
AcDbDictionary
280
     1
  3
ACAD_XREC_ROUNDTRIP
360
30D
  0
DICTIONARY
  5
308
100
AcDbDictionary
280
     1
  3
ACAD_XREC_ROUNDTRIP
360
309
  0
DICTIONARY
  5
30A
100
AcDbDictionary
280
     1
  3
ACAD_XREC_ROUNDTRIP
360
30B
  0
DICTIONARY
  5
335
100
AcDbDictionary
280
     1
  3
ACAD_XREC_ROUNDTRIP
360
336
  0
DICTIONARY
  5
304
100
AcDbDictionary
280
     1
  3
ACAD_LAYOUTSELFREF
360
334
  3
ACAD_XREC_ROUNDTRIP
360
305
  0
DICTIONARY
  5
306
100
AcDbDictionary
280
     1
  3
ACAD_LAYOUTSELFREF
360
333
  3
ACAD_XREC_ROUNDTRIP
360
307
  0
DICTIONARY
  5
187
102
{ACAD_REACTORS
330
186
102
}
100
AcDbDictionary
  0
DICTIONARY
  5
193
102
{ACAD_XDICTIONARY
360
331
102
}
102
{ACAD_REACTORS
330
186
102
}
100
AcDbDictionary
  3
MODEL
350
19B
  3
ﾚｲｱｳﾄ1
350
197
  0
DICTIONARY
  5
190
102
{ACAD_XDICTIONARY
360
32F
102
}
102
{ACAD_REACTORS
330
186
102
}
100
AcDbDictionary
  3
STANDARD
350
191
  0
DICTIONARY
  5
192
102
{ACAD_REACTORS
330
186
102
}
100
AcDbDictionary
  0
ACAD_PROXY_OBJECT
  5
188
102
{ACAD_REACTORS
330
186
102
}
100
AcDbProxyObject
 90
      499
 91
      500
 93
       86
310
405010041939BDC9B585B0
350
189
340
189
 94
        0
  0
DICTIONARY
  5
30E
102
{ACAD_REACTORS
330
186
102
}
100
AcDbDictionary
  3
CEPSNTYPE
350
318
  3
DIMSTYLEDATA
350
31C
  3
FINGERPRINTGUID
350
319
  3
HYPERLINKBASE
350
311
  3
INSUNITS
350
317
  3
LAYOUTDICT
350
313
  3
LWETCUNION
350
316
  3
PLOTSETDICT
350
314
  3
PLOTSTYLNAMDICT
350
315
  3
PSVPSCALE
350
31B
  3
PUCSBASE
350
31F
  3
PUCSORGBACK
350
325
  3
PUCSORGBOTTOM
350
321
  3
PUCSORGFRONT
350
324
  3
PUCSORGLEFT
350
322
  3
PUCSORGRIGHT
350
323
  3
PUCSORGTOP
350
320
  3
PUCSORTHOREF
350
31D
  3
PUCSORTHOVIEW
350
31E
  3
STYLESHEET
350
312
  3
TSTACKALIGN
350
30F
  3
TSTACKSIZE
350
310
  3
UCSBASE
350
328
  3
UCSORGBACK
350
32E
  3
UCSORGBOTTOM
350
32A
  3
UCSORGFRONT
350
32D
  3
UCSORGLEFT
350
32B
  3
UCSORGRIGHT
350
32C
  3
UCSORGTOP
350
329
  3
UCSORTHOREF
350
326
  3
UCSORTHOVIEW
350
327
  3
VERSIONGUID
350
31A
  0
DICTIONARY
  5
337
102
{ACAD_REACTORS
330
186
102
}
100
AcDbDictionary
  3
DIMASSOC
350
338
  0
XRECORD
  5
30D
102
{ACAD_REACTORS
330
30C
102
}
100
AcDbXrecord
102
EXTNAMES
  1
*ACTIVE
  2
*Active
102
UCS
 74
     0
 71
     0
 10
0.0
 20
0.0
 30
0.0
 10
1.0
 20
0.0
 30
0.0
 10
0.0
 20
1.0
 30
0.0
146
0.0
 79
     0
102
VIEW
281
     0
  0
XRECORD
  5
309
102
{ACAD_REACTORS
330
308
102
}
100
AcDbXrecord
102
EXTNAMES
  1
BYBLOCK
  2
ByBlock
  0
XRECORD
  5
30B
102
{ACAD_REACTORS
330
30A
102
}
100
AcDbXrecord
102
EXTNAMES
  1
BYLAYER
  2
ByLayer
  0
XRECORD
  5
336
102
{ACAD_REACTORS
330
335
102
}
100
AcDbXrecord
102
ACADR14ROUNDTRIP
1000
DSTYLE
1002
{
1070
   279
 70
     2
1002
}
  0
XRECORD
  5
334
102
{ACAD_REACTORS
330
304
102
}
100
AcDbXrecord
340
198
  0
XRECORD
  5
305
102
{ACAD_REACTORS
330
304
102
}
100
AcDbXrecord
102
EXTNAMES
  1
*MODEL_SPACE
  2
*Model_Space
  0
XRECORD
  5
333
102
{ACAD_REACTORS
330
306
102
}
100
AcDbXrecord
340
194
  0
XRECORD
  5
307
102
{ACAD_REACTORS
330
306
102
}
100
AcDbXrecord
102
EXTNAMES
  1
*PAPER_SPACE
  2
*Paper_Space
  0
DICTIONARY
  5
331
100
AcDbDictionary
280
     1
  3
ACAD_XREC_ROUNDTRIP
360
332
  0
ACAD_PROXY_OBJECT
  5
19B
102
{ACAD_REACTORS
330
193
102
}
100
AcDbProxyObject
 90
      499
 91
      502
 93
      836
310
932433A5C50524F4752414D2046494C45535C4D4454365C706C6F74746572735C526F6C616E64204458592D313235302E7063332C01AAAAAAAAA5A69054D6F64656C901A800000000000000000000000000000000000000000000A1000000000000008902A6A6AAAA0
330
198
330
0
340
0
340
0
 94
        0
  0
ACAD_PROXY_OBJECT
  5
197
102
{ACAD_REACTORS
330
193
102
}
100
AcDbProxyObject
 90
      499
 91
      502
 93
     1244
310
932433A5C50524F4752414D2046494C45535C4D4454365C706C6F74746572735C526F6C616E64204458592D313235302E7063332C00AAAAAA416AA59106906DAB2B1B3C431406A800000000000000000000000000000000000000000101E900000000000241C902A6A6A10232D5E076BC5510408CB5781DAF154410232D5E0
310
76BC5510408CB5781DAF15C410232D5E076BC5710408CB5781DAF15C4C
330
194
330
0
340
0
340
0
 94
        0
  0
DICTIONARY
  5
32F
100
AcDbDictionary
280
     1
  3
ACAD_XREC_ROUNDTRIP
360
330
  0
MLINESTYLE
  5
191
102
{ACAD_REACTORS
330
190
102
}
100
AcDbMlineStyle
  2
STANDARD
 70
     0
  3

 62
   256
 51
90.0
 52
90.0
 71
     2
 49
0.5
 62
   256
  6
BYLAYER
 49
-0.5
 62
   256
  6
BYLAYER
  0
ACAD_PROXY_OBJECT
  5
189
102
{ACAD_REACTORS
330
188
102
}
100
AcDbProxyObject
 90
      499
 91
      501
 93
        0
 94
        0
  0
XRECORD
  5
318
102
{ACAD_REACTORS
330
30E
102
}
100
AcDbXrecord
 90
        0
  0
XRECORD
  5
31C
102
{ACAD_REACTORS
330
30E
102
}
100
AcDbXrecord
1000
DSTYLE
1002
{
1070
   341
340
1A8
1070
   342
340
1A8
1002
}
  0
XRECORD
  5
319
102
{ACAD_REACTORS
330
30E
102
}
100
AcDbXrecord
  1
{A940B6F7-64D8-4B6F-B4DC-379B7D2286E1}
  0
XRECORD
  5
311
102
{ACAD_REACTORS
330
30E
102
}
100
AcDbXrecord
  1

  0
XRECORD
  5
317
102
{ACAD_REACTORS
330
30E
102
}
100
AcDbXrecord
 90
        0
  0
XRECORD
  5
313
102
{ACAD_REACTORS
330
30E
102
}
100
AcDbXrecord
340
193
  0
XRECORD
  5
316
102
{ACAD_REACTORS
330
30E
102
}
100
AcDbXrecord
 90
    10781
  0
XRECORD
  5
314
102
{ACAD_REACTORS
330
30E
102
}
100
AcDbXrecord
340
192
  0
XRECORD
  5
315
102
{ACAD_REACTORS
330
30E
102
}
100
AcDbXrecord
340
188
  0
XRECORD
  5
31B
102
{ACAD_REACTORS
330
30E
102
}
100
AcDbXrecord
 40
0.0
  0
XRECORD
  5
31F
102
{ACAD_REACTORS
330
30E
102
}
100
AcDbXrecord
340
0
  0
XRECORD
  5
325
102
{ACAD_REACTORS
330
30E
102
}
100
AcDbXrecord
 10
0.0
 20
0.0
 30
0.0
  0
XRECORD
  5
321
102
{ACAD_REACTORS
330
30E
102
}
100
AcDbXrecord
 10
0.0
 20
0.0
 30
0.0
  0
XRECORD
  5
324
102
{ACAD_REACTORS
330
30E
102
}
100
AcDbXrecord
 10
0.0
 20
0.0
 30
0.0
  0
XRECORD
  5
322
102
{ACAD_REACTORS
330
30E
102
}
100
AcDbXrecord
 10
0.0
 20
0.0
 30
0.0
  0
XRECORD
  5
323
102
{ACAD_REACTORS
330
30E
102
}
100
AcDbXrecord
 10
0.0
 20
0.0
 30
0.0
  0
XRECORD
  5
320
102
{ACAD_REACTORS
330
30E
102
}
100
AcDbXrecord
 10
0.0
 20
0.0
 30
0.0
  0
XRECORD
  5
31D
102
{ACAD_REACTORS
330
30E
102
}
100
AcDbXrecord
340
0
  0
XRECORD
  5
31E
102
{ACAD_REACTORS
330
30E
102
}
100
AcDbXrecord
 70
     0
  0
XRECORD
  5
312
102
{ACAD_REACTORS
330
30E
102
}
100
AcDbXrecord
  1

  0
XRECORD
  5
30F
102
{ACAD_REACTORS
330
30E
102
}
100
AcDbXrecord
 90
        1
  0
XRECORD
  5
310
102
{ACAD_REACTORS
330
30E
102
}
100
AcDbXrecord
 90
       70
  0
XRECORD
  5
328
102
{ACAD_REACTORS
330
30E
102
}
100
AcDbXrecord
340
0
  0
XRECORD
  5
32E
102
{ACAD_REACTORS
330
30E
102
}
100
AcDbXrecord
 10
0.0
 20
0.0
 30
0.0
  0
XRECORD
  5
32A
102
{ACAD_REACTORS
330
30E
102
}
100
AcDbXrecord
 10
0.0
 20
0.0
 30
0.0
  0
XRECORD
  5
32D
102
{ACAD_REACTORS
330
30E
102
}
100
AcDbXrecord
 10
0.0
 20
0.0
 30
0.0
  0
XRECORD
  5
32B
102
{ACAD_REACTORS
330
30E
102
}
100
AcDbXrecord
 10
0.0
 20
0.0
 30
0.0
  0
XRECORD
  5
32C
102
{ACAD_REACTORS
330
30E
102
}
100
AcDbXrecord
 10
0.0
 20
0.0
 30
0.0
  0
XRECORD
  5
329
102
{ACAD_REACTORS
330
30E
102
}
100
AcDbXrecord
 10
0.0
 20
0.0
 30
0.0
  0
XRECORD
  5
326
102
{ACAD_REACTORS
330
30E
102
}
100
AcDbXrecord
340
0
  0
XRECORD
  5
327
102
{ACAD_REACTORS
330
30E
102
}
100
AcDbXrecord
 70
     0
  0
XRECORD
  5
31A
102
{ACAD_REACTORS
330
30E
102
}
100
AcDbXrecord
  1
{DDDAE19D-54FC-4587-965F-09127D756953}
  0
DICTIONARYVAR
  5
338
102
{ACAD_REACTORS
330
337
102
}
100
DictionaryVariables
280
     0
  1
1
  0
XRECORD
  5
332
102
{ACAD_REACTORS
330
331
102
}
100
AcDbXrecord
102
EXTNAMES
  1
MODEL
  2
Model
  0
XRECORD
  5
330
102
{ACAD_REACTORS
330
32F
102
}
100
AcDbXrecord
102
EXTNAMES
  1
STANDARD
  2
Standard
  0
ENDSEC
  0
EOF
