  0
SECTION
  2
HEADER
  9
$ACADVER
  1
AC1014
  9
$ACADMAINTVER
 70
     0
  9
$DWGCODEPAGE
  3
ANSI_932
  9
$INSBASE
 10
0.0
 20
0.0
 30
0.0
  9
$EXTMIN
 10
165.897352
 20
146.097233
 30
0.0
  9
$EXTMAX
 10
453.195476
 20
256.158954
 30
0.0
  9
$LIMMIN
 10
0.0
 20
0.0
  9
$LIMMAX
 10
594.0
 20
420.0
  9
$ORTHOMODE
 70
     0
  9
$REGENMODE
 70
     1
  9
$FILLMODE
 70
     1
  9
$QTEXTMODE
 70
     0
  9
$MIRRTEXT
 70
     1
  9
$DRAGMODE
 70
     2
  9
$LTSCALE
 40
0.25
  9
$OSMODE
 70
    37
  9
$ATTMODE
 70
     1
  9
$TEXTSIZE
 40
4.0
  9
$TRACEWID
 40
1.0
  9
$TEXTSTYLE
  7
STANDARD
  9
$CLAYER
  8
0
  9
$CELTYPE
  6
BYLAYER
  9
$CECOLOR
 62
   256
  9
$CELTSCALE
 40
1.0
  9
$DELOBJ
 70
     1
  9
$DISPSILH
 70
     0
  9
$DIMSCALE
 40
2.0
  9
$DIMASZ
 40
3.0
  9
$DIMEXO
 40
1.0
  9
$DIMDLI
 40
10.0
  9
$DIMRND
 40
0.0
  9
$DIMDLE
 40
0.0
  9
$DIMEXE
 40
1.0
  9
$DIMTP
 40
0.0
  9
$DIMTM
 40
0.0
  9
$DIMTXT
 40
3.2
  9
$DIMCEN
 40
0.0
  9
$DIMTSZ
 40
0.0
  9
$DIMTOL
 70
     0
  9
$DIMLIM
 70
     0
  9
$DIMTIH
 70
     0
  9
$DIMTOH
 70
     0
  9
$DIMSE1
 70
     0
  9
$DIMSE2
 70
     0
  9
$DIMTAD
 70
     1
  9
$DIMZIN
 70
     8
  9
$DIMBLK
  1
ARROW
  9
$DIMASO
 70
     1
  9
$DIMSHO
 70
     1
  9
$DIMPOST
  1

  9
$DIMAPOST
  1

  9
$DIMALT
 70
     0
  9
$DIMALTD
 70
     2
  9
$DIMALTF
 40
0.04
  9
$DIMLFAC
 40
1.0
  9
$DIMTOFL
 70
     1
  9
$DIMTVP
 40
1.0
  9
$DIMTIX
 70
     0
  9
$DIMSOXD
 70
     0
  9
$DIMSAH
 70
     0
  9
$DIMBLK1
  1

  9
$DIMBLK2
  1

  9
$DIMSTYLE
  2
AA1
  9
$DIMCLRD
 70
     0
  9
$DIMCLRE
 70
     0
  9
$DIMCLRT
 70
     0
  9
$DIMTFAC
 40
0.6
  9
$DIMGAP
 40
0.0
  9
$DIMJUST
 70
     0
  9
$DIMSD1
 70
     0
  9
$DIMSD2
 70
     0
  9
$DIMTOLJ
 70
     1
  9
$DIMTZIN
 70
     0
  9
$DIMALTZ
 70
     0
  9
$DIMALTTZ
 70
     0
  9
$DIMFIT
 70
     3
  9
$DIMUPT
 70
     0
  9
$DIMUNIT
 70
     2
  9
$DIMDEC
 70
     4
  9
$DIMTDEC
 70
     4
  9
$DIMALTU
 70
     2
  9
$DIMALTTD
 70
     2
  9
$DIMTXSTY
  7
STANDARD
  9
$DIMAUNIT
 70
     0
  9
$LUNITS
 70
     2
  9
$LUPREC
 70
     2
  9
$SKETCHINC
 40
1.0
  9
$FILLETRAD
 40
10.0
  9
$AUNITS
 70
     0
  9
$AUPREC
 70
     0
  9
$MENU
  1
acad
  9
$ELEVATION
 40
0.0
  9
$PELEVATION
 40
0.0
  9
$THICKNESS
 40
0.0
  9
$LIMCHECK
 70
     0
  9
$BLIPMODE
 70
     0
  9
$CHAMFERA
 40
0.0
  9
$CHAMFERB
 40
0.0
  9
$CHAMFERC
 40
0.0
  9
$CHAMFERD
 40
0.0
  9
$SKPOLY
 70
     0
  9
$TDCREATE
 40
2451466.514637847
  9
$TDUPDATE
 40
2452821.789309838
  9
$TDINDWG
 40
0.0001729167
  9
$TDUSRTIMER
 40
0.0001729167
  9
$USRTIMER
 70
     1
  9
$ANGBASE
 50
0.0
  9
$ANGDIR
 70
     0
  9
$PDMODE
 70
     1
  9
$PDSIZE
 40
0.0
  9
$PLINEWID
 40
0.0
  9
$COORDS
 70
     1
  9
$SPLFRAME
 70
     0
  9
$SPLINETYPE
 70
     6
  9
$SPLINESEGS
 70
     8
  9
$ATTDIA
 70
     0
  9
$ATTREQ
 70
     1
  9
$HANDLING
 70
     1
  9
$HANDSEED
  5
33C
  9
$SURFTAB1
 70
     6
  9
$SURFTAB2
 70
     6
  9
$SURFTYPE
 70
     6
  9
$SURFU
 70
     6
  9
$SURFV
 70
     6
  9
$UCSNAME
  2

  9
$UCSORG
 10
0.0
 20
0.0
 30
0.0
  9
$UCSXDIR
 10
1.0
 20
0.0
 30
0.0
  9
$UCSYDIR
 10
0.0
 20
1.0
 30
0.0
  9
$PUCSNAME
  2

  9
$PUCSORG
 10
0.0
 20
0.0
 30
0.0
  9
$PUCSXDIR
 10
1.0
 20
0.0
 30
0.0
  9
$PUCSYDIR
 10
0.0
 20
1.0
 30
0.0
  9
$USERI1
 70
     0
  9
$USERI2
 70
     0
  9
$USERI3
 70
     0
  9
$USERI4
 70
     0
  9
$USERI5
 70
     0
  9
$USERR1
 40
0.0
  9
$USERR2
 40
0.0
  9
$USERR3
 40
0.0
  9
$USERR4
 40
0.0
  9
$USERR5
 40
0.0
  9
$WORLDVIEW
 70
     1
  9
$SHADEDGE
 70
     3
  9
$SHADEDIF
 70
    70
  9
$TILEMODE
 70
     1
  9
$MAXACTVP
 70
    16
  9
$PINSBASE
 10
0.0
 20
0.0
 30
0.0
  9
$PLIMCHECK
 70
     0
  9
$PEXTMIN
 10
1.000000E+20
 20
1.000000E+20
 30
1.000000E+20
  9
$PEXTMAX
 10
-1.000000E+20
 20
-1.000000E+20
 30
-1.000000E+20
  9
$PLIMMIN
 10
0.0
 20
0.0
  9
$PLIMMAX
 10
420.0
 20
297.0
  9
$UNITMODE
 70
     0
  9
$VISRETAIN
 70
     0
  9
$PLINEGEN
 70
     0
  9
$PSLTSCALE
 70
     0
  9
$TREEDEPTH
 70
  3020
  9
$PICKSTYLE
 70
     1
  9
$CMLSTYLE
  2
STANDARD
  9
$CMLJUST
 70
     0
  9
$CMLSCALE
 40
1.0
  9
$PROXYGRAPHICS
 70
     1
  9
$MEASUREMENT
 70
     0
  0
ENDSEC
  0
SECTION
  2
CLASSES
  0
CLASS
  1
ACDBDICTIONARYWDFLT
  2
AcDbDictionaryWithDefault
  3
AutoCAD 2000
 90
        0
280
     0
281
     0
  0
CLASS
  1
ACDBPLACEHOLDER
  2
AcDbPlaceHolder
  3
AutoCAD 2000
 90
        0
280
     0
281
     0
  0
CLASS
  1
LAYOUT
  2
AcDbLayout
  3
AutoCAD 2000
 90
        0
280
     0
281
     0
  0
CLASS
  1
DICTIONARYVAR
  2
AcDbDictionaryVar
  3
"AutoCAD"
 90
        0
280
     0
281
     0
  0
CLASS
  1
LONG_TRANSACTION
  2
AcDbLongTransaction
  3
AutoCAD 2000
 90
        0
280
     0
281
     0
  0
CLASS
  1
LWPOLYLINE
  2
AcDbPolyline
  3
"AutoCAD"
 90
        0
280
     0
281
     1
  0
CLASS
  1
HATCH
  2
AcDbHatch
  3
"ACAD_SEDONA"
 90
        0
280
     0
281
     1
  0
CLASS
  1
XRECORD
  2
AcDbXrecord
  3
"<Built In>"
 90
        0
280
     0
281
     0
  0
ENDSEC
  0
SECTION
  2
TABLES
  0
TABLE
  2
VPORT
  5
182
100
AcDbSymbolTable
 70
     1
  0
VPORT
  5
303
102
{ACAD_XDICTIONARY
360
30C
102
}
100
AcDbSymbolTableRecord
100
AcDbViewportTableRecord
  2
*ACTIVE
 70
     0
 10
0.0
 20
0.0
 11
1.0
 21
1.0
 12
297.000001
 22
306.442612
 13
0.0
 23
0.0
 14
10.0
 24
10.0
 15
0.0
 25
0.0
 16
0.0
 26
0.0
 36
1.0
 17
0.0
 27
0.0
 37
0.0
 40
674.635053
 41
1.570997
 42
50.0
 43
0.0
 44
0.0
 50
0.0
 51
0.0
 71
     0
 72
   100
 73
     1
 74
     0
 75
     0
 76
     0
 77
     0
 78
     1
  0
ENDTAB
  0
TABLE
  2
LTYPE
  5
17F
100
AcDbSymbolTable
 70
     2
  0
LTYPE
  5
18D
102
{ACAD_XDICTIONARY
360
308
102
}
100
AcDbSymbolTableRecord
100
AcDbLinetypeTableRecord
  2
BYBLOCK
 70
     0
  3

 72
    65
 73
     0
 40
0.0
  0
LTYPE
  5
18E
102
{ACAD_XDICTIONARY
360
30A
102
}
100
AcDbSymbolTableRecord
100
AcDbLinetypeTableRecord
  2
BYLAYER
 70
     0
  3

 72
    65
 73
     0
 40
0.0
  0
LTYPE
  5
18F
100
AcDbSymbolTableRecord
100
AcDbLinetypeTableRecord
  2
CONTINUOUS
 70
     0
  3
Solid line
 72
    65
 73
     0
 40
0.0
  0
LTYPE
  5
19D
100
AcDbSymbolTableRecord
100
AcDbLinetypeTableRecord
  2
CENTER
 70
     0
  3
____ _ ____ _ ____ _ ____ _ ____ _ ____ _ ____ 
 72
    65
 73
     4
 40
50.8
 49
31.75
 74
     0
 49
-6.35
 74
     0
 49
6.35
 74
     0
 49
-6.35
 74
     0
  0
ENDTAB
  0
TABLE
  2
LAYER
  5
17C
100
AcDbSymbolTable
 70
     3
  0
LAYER
  5
18A
100
AcDbSymbolTableRecord
100
AcDbLayerTableRecord
  2
0
 70
     0
 62
     7
  6
CONTINUOUS
  0
LAYER
  5
19E
100
AcDbSymbolTableRecord
100
AcDbLayerTableRecord
  2
DIMENSION
 70
     0
 62
    -4
  6
CONTINUOUS
  0
LAYER
  5
19F
100
AcDbSymbolTableRecord
100
AcDbLayerTableRecord
  2
CENTER
 70
     0
 62
     1
  6
CENTER
  0
ENDTAB
  0
TABLE
  2
STYLE
  5
17D
100
AcDbSymbolTable
 70
     1
  0
STYLE
  5
18B
100
AcDbSymbolTableRecord
100
AcDbTextStyleTableRecord
  2
STANDARD
 70
     0
 40
0.0
 41
1.0
 50
0.0
 71
     0
 42
4.0
  3
txt
  4

  0
ENDTAB
  0
TABLE
  2
VIEW
  5
180
100
AcDbSymbolTable
 70
     0
  0
ENDTAB
  0
TABLE
  2
UCS
  5
181
100
AcDbSymbolTable
 70
     0
  0
ENDTAB
  0
TABLE
  2
APPID
  5
183
100
AcDbSymbolTable
 70
     1
  0
APPID
  5
18C
100
AcDbSymbolTableRecord
100
AcDbRegAppTableRecord
  2
ACAD
 70
     0
  0
ENDTAB
  0
TABLE
  2
DIMSTYLE
  5
184
100
AcDbSymbolTable
 70
     1
  0
DIMSTYLE
105
1A0
102
{ACAD_XDICTIONARY
360
335
102
}
100
AcDbSymbolTableRecord
100
AcDbDimStyleTableRecord
  2
AA1
 70
     0
  3

  4

  5

  6

  7

 40
2.0
 41
3.0
 42
1.0
 43
10.0
 44
1.0
 45
0.0
 46
0.0
 47
0.0
 48
0.0
140
3.2
141
0.0
142
0.0
143
0.04
144
1.0
145
1.0
146
0.6
147
0.0
 71
     0
 72
     0
 73
     0
 74
     0
 75
     0
 76
     0
 77
     0
 78
     8
170
     0
171
     2
172
     1
173
     0
174
     0
175
     0
176
     0
177
     0
178
     0
270
     2
271
     2
272
     2
273
     2
274
     2
340
18B
275
     0
280
     0
281
     0
282
     0
283
     1
284
     8
285
     8
286
     8
287
     5
288
     0
  0
ENDTAB
  0
TABLE
  2
BLOCK_RECORD
  5
17B
100
AcDbSymbolTable
 70
     3
  0
BLOCK_RECORD
  5
198
102
{ACAD_XDICTIONARY
360
304
102
}
100
AcDbSymbolTableRecord
100
AcDbBlockTableRecord
  2
*MODEL_SPACE
  0
BLOCK_RECORD
  5
194
102
{ACAD_XDICTIONARY
360
306
102
}
100
AcDbSymbolTableRecord
100
AcDbBlockTableRecord
  2
*PAPER_SPACE
  0
BLOCK_RECORD
  5
1A2
100
AcDbSymbolTableRecord
100
AcDbBlockTableRecord
  2
$MODEL_SPACE
  0
BLOCK_RECORD
  5
1A5
100
AcDbSymbolTableRecord
100
AcDbBlockTableRecord
  2
$PAPER_SPACE
  0
BLOCK_RECORD
  5
1A8
100
AcDbSymbolTableRecord
100
AcDbBlockTableRecord
  2
ARROW
  0
ENDTAB
  0
ENDSEC
  0
SECTION
  2
BLOCKS
  0
BLOCK
  5
199
100
AcDbEntity
  8
0
100
AcDbBlockBegin
  2
*MODEL_SPACE
 70
     0
 10
0.0
 20
0.0
 30
0.0
  3
*MODEL_SPACE
  1

  0
ENDBLK
  5
19A
100
AcDbEntity
  8
0
100
AcDbBlockEnd
  0
BLOCK
  5
195
100
AcDbEntity
 67
     1
  8
0
100
AcDbBlockBegin
  2
*PAPER_SPACE
 70
     0
 10
0.0
 20
0.0
 30
0.0
  3
*PAPER_SPACE
  1

  0
ENDBLK
  5
196
100
AcDbEntity
 67
     1
  8
0
100
AcDbBlockEnd
  0
BLOCK
  5
1A3
100
AcDbEntity
  8
0
100
AcDbBlockBegin
  2
$MODEL_SPACE
 70
     0
 10
0.0
 20
0.0
 30
0.0
  3
$MODEL_SPACE
  1

  0
ENDBLK
  5
1A4
100
AcDbEntity
  8
0
100
AcDbBlockEnd
  0
BLOCK
  5
1A6
100
AcDbEntity
  8
0
100
AcDbBlockBegin
  2
$PAPER_SPACE
 70
     0
 10
0.0
 20
0.0
 30
0.0
  3
$PAPER_SPACE
  1

  0
ENDBLK
  5
1A7
100
AcDbEntity
  8
0
100
AcDbBlockEnd
  0
BLOCK
  5
1A9
100
AcDbEntity
  8
0
100
AcDbBlockBegin
  2
ARROW
 70
     0
 10
0.0
 20
0.0
 30
0.0
  3
ARROW
  1

  0
LINE
  5
1AA
100
AcDbEntity
  8
DIMENSION
100
AcDbLine
 10
0.0
 20
0.0
 30
0.0
 11
-1.0
 21
0.176327
 31
0.0
  0
LINE
  5
1AB
100
AcDbEntity
  8
DIMENSION
100
AcDbLine
 10
0.0
 20
0.0
 30
0.0
 11
-1.0
 21
-0.176327
 31
0.0
  0
LINE
  5
1AC
100
AcDbEntity
  8
DIMENSION
100
AcDbLine
 10
-1.0
 20
0.0
 30
0.0
 11
0.0
 21
0.0
 31
0.0
  0
ENDBLK
  5
1AD
100
AcDbEntity
  8
0
100
AcDbBlockEnd
  0
ENDSEC
  0
SECTION
  2
ENTITIES
  0
LINE
  5
1AE
100
AcDbEntity
  8
0
100
AcDbLine
 10
191.859382
 20
176.728093
 30
0.0
 11
191.859382
 21
225.528093
 31
0.0
  0
LINE
  5
1AF
100
AcDbEntity
  8
0
100
AcDbLine
 10
174.659382
 20
228.628093
 30
0.0
 11
174.659382
 21
173.628093
 31
0.0
  0
LINE
  5
1B0
100
AcDbEntity
  8
0
100
AcDbLine
 10
176.859382
 20
228.628093
 30
0.0
 11
176.859382
 21
173.628093
 31
0.0
  0
LINE
  5
1B1
100
AcDbEntity
  8
0
100
AcDbLine
 10
235.659382
 20
228.628093
 30
0.0
 11
235.659382
 21
173.628093
 31
0.0
  0
LINE
  5
1B2
100
AcDbEntity
  8
0
100
AcDbLine
 10
233.459382
 20
228.628093
 30
0.0
 11
233.459382
 21
173.628093
 31
0.0
  0
LINE
  5
1B3
100
AcDbEntity
  8
0
100
AcDbLine
 10
218.459382
 20
176.728093
 30
0.0
 11
218.459382
 21
225.528093
 31
0.0
  0
LINE
  5
1B4
100
AcDbEntity
  8
0
100
AcDbLine
 10
237.659382
 20
171.128093
 30
0.0
 11
237.659382
 21
231.128093
 31
0.0
  0
LINE
  5
1B5
100
AcDbEntity
  8
0
100
AcDbLine
 10
172.659382
 20
171.128093
 30
0.0
 11
172.659382
 21
231.128093
 31
0.0
  0
LINE
  5
1B8
100
AcDbEntity
  8
CENTER
  6
CENTER
 62
     1
100
AcDbLine
 10
165.897352
 20
201.128093
 30
0.0
 11
244.129723
 21
201.128093
 31
0.0
  0
LINE
  5
1B9
100
AcDbEntity
  8
CENTER
  6
CENTER
 62
     1
100
AcDbLine
 10
207.659382
 20
162.128093
 30
0.0
 11
190.659382
 21
162.128093
 31
0.0
  0
LINE
  5
1BA
100
AcDbEntity
  8
0
100
AcDbLine
 10
205.659382
 20
169.128093
 30
0.0
 11
197.559382
 21
169.128093
 31
0.0
  0
LINE
  5
1BB
100
AcDbEntity
  8
0
100
AcDbLine
 10
205.659382
 20
155.128093
 30
0.0
 11
197.559382
 21
155.128093
 31
0.0
  0
LINE
  5
1BC
100
AcDbEntity
  8
0
100
AcDbLine
 10
205.659382
 20
154.128093
 30
0.0
 11
192.659382
 21
154.128093
 31
0.0
  0
LINE
  5
1BD
100
AcDbEntity
  8
0
100
AcDbLine
 10
191.859382
 20
178.628093
 30
0.0
 11
218.459382
 21
178.628093
 31
0.0
  0
LINE
  5
1BE
100
AcDbEntity
  8
0
100
AcDbLine
 10
190.259382
 20
175.128093
 30
0.0
 11
176.859382
 21
175.128093
 31
0.0
  0
LINE
  5
1BF
100
AcDbEntity
  8
0
100
AcDbLine
 10
172.659382
 20
171.128093
 30
0.0
 11
192.659382
 21
171.128093
 31
0.0
  0
LINE
  5
1C0
100
AcDbEntity
  8
0
100
AcDbLine
 10
176.859382
 20
173.628093
 30
0.0
 11
174.659382
 21
173.628093
 31
0.0
  0
LINE
  5
1C1
100
AcDbEntity
  8
0
100
AcDbLine
 10
174.659382
 20
175.128093
 30
0.0
 11
172.659382
 21
175.128093
 31
0.0
  0
ARC
  5
1C2
100
AcDbEntity
  8
0
100
AcDbCircle
 10
178.459382
 20
176.728093
 30
0.0
 40
1.6
100
AcDbArc
 50
180.0
 51
270.0
  0
LINE
  5
1C3
100
AcDbEntity
  8
0
100
AcDbLine
 10
192.659382
 20
154.128093
 30
0.0
 11
192.659382
 21
171.128093
 31
0.0
  0
LINE
  5
1C4
100
AcDbEntity
  8
0
100
AcDbLine
 10
197.559382
 20
155.128093
 30
0.0
 11
197.559382
 21
169.128093
 31
0.0
  0
LINE
  5
1C5
100
AcDbEntity
  8
0
100
AcDbLine
 10
197.559382
 20
157.628093
 30
0.0
 11
192.659382
 21
157.628093
 31
0.0
  0
ARC
  5
1C6
100
AcDbEntity
  8
0
100
AcDbCircle
 10
190.259382
 20
176.728093
 30
0.0
 40
1.6
100
AcDbArc
 50
270.0
 51
0.0
  0
LINE
  5
1C7
100
AcDbEntity
  8
0
100
AcDbLine
 10
197.559382
 20
166.628093
 30
0.0
 11
192.659382
 21
166.628093
 31
0.0
  0
LINE
  5
1C8
100
AcDbEntity
  8
0
100
AcDbLine
 10
179.018642
 20
179.178093
 30
0.0
 11
181.237127
 21
179.178093
 31
0.0
  0
LINE
  5
1C9
100
AcDbEntity
  8
0
100
AcDbLine
 10
179.200425
 20
184.078103
 30
0.0
 11
181.237135
 21
184.078103
 31
0.0
  0
CIRCLE
  5
1CA
100
AcDbEntity
  8
0
100
AcDbCircle
 10
184.359382
 20
181.628093
 30
0.0
 40
3.96875
  0
LINE
  5
1CB
100
AcDbEntity
  8
0
100
AcDbLine
 10
190.259382
 20
188.628093
 30
0.0
 11
178.459382
 21
188.628093
 31
0.0
  0
ARC
  5
1CC
100
AcDbEntity
  8
0
100
AcDbCircle
 10
178.357382
 20
184.828103
 30
0.0
 40
0.599648
100
AcDbArc
 50
87.172109
 51
134.997702
  0
ARC
  5
1CD
100
AcDbEntity
  8
0
100
AcDbCircle
 10
178.359382
 20
185.128113
 30
0.0
 40
0.300178
100
AcDbArc
 50
19.969588
 51
94.508609
  0
LINE
  5
1CE
100
AcDbEntity
  8
0
100
AcDbLine
 10
176.859382
 20
178.728093
 30
0.0
 11
174.659382
 21
178.728093
 31
0.0
  0
ARC
  5
1CF
100
AcDbEntity
  8
0
100
AcDbCircle
 10
177.059382
 20
185.078113
 30
0.0
 40
0.2
100
AcDbArc
 50
180.0
 51
270.0
  0
ARC
  5
1D0
100
AcDbEntity
  8
0
100
AcDbCircle
 10
177.059382
 20
177.878103
 30
0.0
 40
0.2
100
AcDbArc
 50
90.0
 51
180.0
  0
LINE
  5
1D1
100
AcDbEntity
  8
0
100
AcDbLine
 10
178.309382
 20
184.578103
 30
0.0
 11
178.309382
 21
184.278103
 31
0.0
  0
ARC
  5
1D2
100
AcDbEntity
  8
0
100
AcDbCircle
 10
177.689382
 20
184.278103
 30
0.0
 40
0.3
100
AcDbArc
 50
90.0
 51
180.0
  0
LINE
  5
1D3
100
AcDbEntity
  8
0
100
AcDbLine
 10
177.689382
 20
184.578103
 30
0.0
 11
178.309382
 21
184.578103
 31
0.0
  0
LINE
  5
1D4
100
AcDbEntity
  8
0
100
AcDbLine
 10
177.559332
 20
184.878113
 30
0.0
 11
177.933392
 21
185.252143
 31
0.0
  0
LINE
  5
1D5
100
AcDbEntity
  8
0
100
AcDbLine
 10
178.433658
 20
178.031573
 30
0.0
 11
178.489346
 21
179.37404
 31
0.0
  0
LINE
  5
1D6
100
AcDbEntity
  8
0
100
AcDbLine
 10
177.905363
 20
178.694156
 30
0.0
 11
178.09838
 21
178.464144
 31
0.0
  0
LINE
  5
1D7
100
AcDbEntity
  8
0
100
AcDbLine
 10
177.905363
 20
178.694156
 30
0.0
 11
177.675754
 21
178.501485
 31
0.0
  0
LINE
  5
1D8
100
AcDbEntity
  8
0
100
AcDbLine
 10
177.389382
 20
180.474013
 30
0.0
 11
177.389382
 21
184.278103
 31
0.0
  0
LINE
  5
1D9
100
AcDbEntity
  8
0
100
AcDbLine
 10
178.309382
 20
184.278103
 30
0.0
 11
177.689382
 21
184.278103
 31
0.0
  0
LINE
  5
1DA
100
AcDbEntity
  8
0
100
AcDbLine
 10
177.689382
 20
180.598083
 30
0.0
 11
177.689382
 21
184.278103
 31
0.0
  0
LINE
  5
1DB
100
AcDbEntity
  8
0
100
AcDbLine
 10
178.489346
 20
179.37404
 30
0.0
 11
177.389382
 21
180.474013
 31
0.0
  0
LINE
  5
1DC
100
AcDbEntity
  8
0
100
AcDbLine
 10
177.869411
 20
178.271151
 30
0.0
 11
178.151238
 21
177.935347
 31
0.0
  0
ARC
  5
1DD
100
AcDbEntity
  8
0
100
AcDbCircle
 10
178.273795
 20
178.038205
 30
0.0
 40
0.16
100
AcDbArc
 50
220.005416
 51
357.62463
  0
LINE
  5
1DE
100
AcDbEntity
  8
0
100
AcDbLine
 10
178.09838
 20
178.464144
 30
0.0
 11
177.869411
 21
178.271151
 31
0.0
  0
ARC
  5
1DF
100
AcDbEntity
  8
0
100
AcDbCircle
 10
177.868594
 20
178.271675
 30
0.0
 40
0.3
100
AcDbArc
 50
130.000801
 51
220.08953
  0
LINE
  5
1E0
100
AcDbEntity
  8
0
100
AcDbLine
 10
177.639082
 20
178.07848
 30
0.0
 11
177.922216
 21
177.742122
 31
0.0
  0
LINE
  5
1E1
100
AcDbEntity
  8
0
100
AcDbLine
 10
178.732393
 20
177.998368
 30
0.0
 11
178.819399
 21
178.995479
 31
0.0
  0
ARC
  5
1E2
100
AcDbEntity
  8
0
100
AcDbCircle
 10
179.018642
 20
178.978093
 30
0.0
 40
0.2
100
AcDbArc
 50
90.0
 51
175.0131
  0
ARC
  5
1E3
100
AcDbEntity
  8
0
100
AcDbCircle
 10
179.200425
 20
184.278103
 30
0.0
 40
0.2
100
AcDbArc
 50
199.969588
 51
270.0
  0
LINE
  5
1E4
100
AcDbEntity
  8
0
100
AcDbLine
 10
178.789382
 20
178.651103
 30
0.0
 11
178.789382
 21
179.498113
 31
0.0
  0
LINE
  5
1E5
100
AcDbEntity
  8
0
100
AcDbLine
 10
178.641372
 20
185.231013
 30
0.0
 11
179.01245
 21
184.209799
 31
0.0
  0
LINE
  5
1E6
100
AcDbEntity
  8
0
100
AcDbLine
 10
178.789382
 20
179.498113
 30
0.0
 11
177.689382
 21
180.598083
 31
0.0
  0
ARC
  5
1E7
100
AcDbEntity
  8
0
100
AcDbCircle
 10
178.274134
 20
178.038355
 30
0.0
 40
0.46
100
AcDbArc
 50
220.08953
 51
355.0131
  0
LINE
  5
1E8
100
AcDbEntity
  8
0
100
AcDbLine
 10
177.059382
 20
184.878113
 30
0.0
 11
177.559332
 21
184.878113
 31
0.0
  0
LINE
  5
1E9
100
AcDbEntity
  8
0
100
AcDbLine
 10
177.059382
 20
178.078103
 30
0.0
 11
177.639399
 21
178.078103
 31
0.0
  0
ARC
  5
1EA
100
AcDbEntity
  8
0
100
AcDbCircle
 10
178.459382
 20
187.028093
 30
0.0
 40
1.6
100
AcDbArc
 50
90.0
 51
180.0
  0
ARC
  5
1EB
100
AcDbEntity
  8
0
100
AcDbCircle
 10
190.361382
 20
184.828103
 30
0.0
 40
0.599648
100
AcDbArc
 50
45.002298
 51
92.827891
  0
ARC
  5
1EC
100
AcDbEntity
  8
0
100
AcDbCircle
 10
190.359382
 20
185.128113
 30
0.0
 40
0.300178
100
AcDbArc
 50
85.491391
 51
160.030412
  0
LINE
  5
1ED
100
AcDbEntity
  8
0
100
AcDbLine
 10
190.077392
 20
185.231013
 30
0.0
 11
189.706314
 21
184.209799
 31
0.0
  0
LINE
  5
1EE
100
AcDbEntity
  8
0
100
AcDbLine
 10
190.285106
 20
178.031573
 30
0.0
 11
190.229419
 21
179.37404
 31
0.0
  0
LINE
  5
1EF
100
AcDbEntity
  8
0
100
AcDbLine
 10
189.986371
 20
177.998368
 30
0.0
 11
189.899365
 21
178.995479
 31
0.0
  0
ARC
  5
1F0
100
AcDbEntity
  8
0
100
AcDbCircle
 10
189.518339
 20
184.278103
 30
0.0
 40
0.2
100
AcDbArc
 50
270.0
 51
340.030412
  0
ARC
  5
1F1
100
AcDbEntity
  8
0
100
AcDbCircle
 10
189.700122
 20
178.978093
 30
0.0
 40
0.2
100
AcDbArc
 50
4.9869
 51
90.0
  0
LINE
  5
1F2
100
AcDbEntity
  8
0
100
AcDbLine
 10
189.929382
 20
178.651103
 30
0.0
 11
189.929382
 21
179.498113
 31
0.0
  0
LINE
  5
1F3
100
AcDbEntity
  8
0
100
AcDbLine
 10
190.409382
 20
184.578103
 30
0.0
 11
190.409382
 21
184.278103
 31
0.0
  0
ARC
  5
1F4
100
AcDbEntity
  8
0
100
AcDbCircle
 10
191.029382
 20
184.278103
 30
0.0
 40
0.3
100
AcDbArc
 50
0.0
 51
90.0
  0
LINE
  5
1F5
100
AcDbEntity
  8
0
100
AcDbLine
 10
191.159432
 20
184.878113
 30
0.0
 11
190.785372
 21
185.252143
 31
0.0
  0
LINE
  5
1F6
100
AcDbEntity
  8
0
100
AcDbLine
 10
191.659382
 20
184.878113
 30
0.0
 11
191.159432
 21
184.878113
 31
0.0
  0
ARC
  5
1F7
100
AcDbEntity
  8
0
100
AcDbCircle
 10
191.659382
 20
185.078113
 30
0.0
 40
0.2
100
AcDbArc
 50
270.0
 51
0.0
  0
LINE
  5
1F8
100
AcDbEntity
  8
0
100
AcDbLine
 10
191.029382
 20
184.578103
 30
0.0
 11
190.409382
 21
184.578103
 31
0.0
  0
LINE
  5
1F9
100
AcDbEntity
  8
0
100
AcDbLine
 10
190.813401
 20
178.694156
 30
0.0
 11
191.04301
 21
178.501485
 31
0.0
  0
LINE
  5
1FA
100
AcDbEntity
  8
0
100
AcDbLine
 10
190.813401
 20
178.694156
 30
0.0
 11
190.620385
 21
178.464144
 31
0.0
  0
LINE
  5
1FB
100
AcDbEntity
  8
0
100
AcDbLine
 10
191.329382
 20
180.474013
 30
0.0
 11
191.329382
 21
184.278103
 31
0.0
  0
LINE
  5
1FC
100
AcDbEntity
  8
0
100
AcDbLine
 10
191.029382
 20
180.598083
 30
0.0
 11
191.029382
 21
184.278103
 31
0.0
  0
LINE
  5
1FD
100
AcDbEntity
  8
0
100
AcDbLine
 10
190.409382
 20
184.278103
 30
0.0
 11
191.029382
 21
184.278103
 31
0.0
  0
LINE
  5
1FE
100
AcDbEntity
  8
0
100
AcDbLine
 10
191.659382
 20
178.078103
 30
0.0
 11
191.079365
 21
178.078103
 31
0.0
  0
ARC
  5
1FF
100
AcDbEntity
  8
0
100
AcDbCircle
 10
190.85017
 20
178.271675
 30
0.0
 40
0.3
100
AcDbArc
 50
319.91047
 51
49.999199
  0
ARC
  5
200
100
AcDbEntity
  8
0
100
AcDbCircle
 10
191.659382
 20
177.878103
 30
0.0
 40
0.2
100
AcDbArc
 50
0.0
 51
90.0
  0
LINE
  5
201
100
AcDbEntity
  8
0
100
AcDbLine
 10
190.849353
 20
178.271151
 30
0.0
 11
190.567526
 21
177.935347
 31
0.0
  0
LINE
  5
202
100
AcDbEntity
  8
0
100
AcDbLine
 10
190.620385
 20
178.464144
 30
0.0
 11
190.849353
 21
178.271151
 31
0.0
  0
LINE
  5
203
100
AcDbEntity
  8
0
100
AcDbLine
 10
191.079682
 20
178.07848
 30
0.0
 11
190.796548
 21
177.742122
 31
0.0
  0
LINE
  5
204
100
AcDbEntity
  8
0
100
AcDbLine
 10
190.229419
 20
179.37404
 30
0.0
 11
191.329382
 21
180.474013
 31
0.0
  0
LINE
  5
205
100
AcDbEntity
  8
0
100
AcDbLine
 10
189.929382
 20
179.498113
 30
0.0
 11
191.029382
 21
180.598083
 31
0.0
  0
ARC
  5
206
100
AcDbEntity
  8
0
100
AcDbCircle
 10
190.44463
 20
178.038355
 30
0.0
 40
0.46
100
AcDbArc
 50
184.9869
 51
319.91047
  0
ARC
  5
207
100
AcDbEntity
  8
0
100
AcDbCircle
 10
190.444969
 20
178.038205
 30
0.0
 40
0.16
100
AcDbArc
 50
182.37537
 51
319.994584
  0
LINE
  5
208
100
AcDbEntity
  8
0
100
AcDbLine
 10
189.700122
 20
179.178093
 30
0.0
 11
187.481637
 21
179.178093
 31
0.0
  0
LINE
  5
209
100
AcDbEntity
  8
0
100
AcDbLine
 10
189.518339
 20
184.078103
 30
0.0
 11
187.481629
 21
184.078103
 31
0.0
  0
ARC
  5
20A
100
AcDbEntity
  8
0
100
AcDbCircle
 10
190.259382
 20
187.028093
 30
0.0
 40
1.6
100
AcDbArc
 50
0.0
 51
90.0
  0
LINE
  5
20B
100
AcDbEntity
  8
0
100
AcDbLine
 10
205.659382
 20
171.128093
 30
0.0
 11
237.659382
 21
171.128093
 31
0.0
  0
LINE
  5
20C
100
AcDbEntity
  8
0
100
AcDbLine
 10
220.059382
 20
175.128093
 30
0.0
 11
233.459382
 21
175.128093
 31
0.0
  0
LINE
  5
20D
100
AcDbEntity
  8
0
100
AcDbLine
 10
205.659382
 20
154.128093
 30
0.0
 11
205.659382
 21
171.128093
 31
0.0
  0
ARC
  5
20E
100
AcDbEntity
  8
0
100
AcDbCircle
 10
220.059382
 20
176.728093
 30
0.0
 40
1.6
100
AcDbArc
 50
180.0
 51
270.0
  0
ARC
  5
20F
100
AcDbEntity
  8
0
100
AcDbCircle
 10
231.859382
 20
176.728093
 30
0.0
 40
1.6
100
AcDbArc
 50
270.0
 51
0.0
  0
LINE
  5
210
100
AcDbEntity
  8
0
100
AcDbLine
 10
235.659382
 20
175.128093
 30
0.0
 11
237.659382
 21
175.128093
 31
0.0
  0
LINE
  5
211
100
AcDbEntity
  8
0
100
AcDbLine
 10
233.459382
 20
173.628093
 30
0.0
 11
235.659382
 21
173.628093
 31
0.0
  0
CIRCLE
  5
212
100
AcDbEntity
  8
0
100
AcDbCircle
 10
225.959382
 20
181.628093
 30
0.0
 40
3.96875
  0
LINE
  5
213
100
AcDbEntity
  8
0
100
AcDbLine
 10
220.059382
 20
188.628093
 30
0.0
 11
231.859382
 21
188.628093
 31
0.0
  0
ARC
  5
214
100
AcDbEntity
  8
0
100
AcDbCircle
 10
219.957382
 20
184.828103
 30
0.0
 40
0.599648
100
AcDbArc
 50
87.172109
 51
134.997702
  0
ARC
  5
215
100
AcDbEntity
  8
0
100
AcDbCircle
 10
219.959382
 20
185.128113
 30
0.0
 40
0.300178
100
AcDbArc
 50
19.969588
 51
94.508609
  0
LINE
  5
216
100
AcDbEntity
  8
0
100
AcDbLine
 10
220.800425
 20
184.078103
 30
0.0
 11
222.837135
 21
184.078103
 31
0.0
  0
LINE
  5
217
100
AcDbEntity
  8
0
100
AcDbLine
 10
220.618642
 20
179.178093
 30
0.0
 11
222.837127
 21
179.178093
 31
0.0
  0
ARC
  5
218
100
AcDbEntity
  8
0
100
AcDbCircle
 10
219.873795
 20
178.038205
 30
0.0
 40
0.16
100
AcDbArc
 50
220.005416
 51
357.62463
  0
ARC
  5
219
100
AcDbEntity
  8
0
100
AcDbCircle
 10
219.874134
 20
178.038355
 30
0.0
 40
0.46
100
AcDbArc
 50
220.08953
 51
355.0131
  0
LINE
  5
21A
100
AcDbEntity
  8
0
100
AcDbLine
 10
219.239082
 20
178.07848
 30
0.0
 11
219.522216
 21
177.742122
 31
0.0
  0
LINE
  5
21B
100
AcDbEntity
  8
0
100
AcDbLine
 10
219.69838
 20
178.464144
 30
0.0
 11
219.469411
 21
178.271151
 31
0.0
  0
LINE
  5
21C
100
AcDbEntity
  8
0
100
AcDbLine
 10
219.469411
 20
178.271151
 30
0.0
 11
219.751238
 21
177.935347
 31
0.0
  0
ARC
  5
21D
100
AcDbEntity
  8
0
100
AcDbCircle
 10
218.659382
 20
177.878103
 30
0.0
 40
0.2
100
AcDbArc
 50
90.0
 51
180.0
  0
ARC
  5
21E
100
AcDbEntity
  8
0
100
AcDbCircle
 10
219.468594
 20
178.271675
 30
0.0
 40
0.3
100
AcDbArc
 50
130.000801
 51
220.08953
  0
LINE
  5
21F
100
AcDbEntity
  8
0
100
AcDbLine
 10
218.659382
 20
178.078103
 30
0.0
 11
219.239399
 21
178.078103
 31
0.0
  0
LINE
  5
220
100
AcDbEntity
  8
0
100
AcDbLine
 10
219.909382
 20
184.278103
 30
0.0
 11
219.289382
 21
184.278103
 31
0.0
  0
LINE
  5
221
100
AcDbEntity
  8
0
100
AcDbLine
 10
220.389382
 20
179.498113
 30
0.0
 11
219.289382
 21
180.598083
 31
0.0
  0
LINE
  5
222
100
AcDbEntity
  8
0
100
AcDbLine
 10
220.089346
 20
179.37404
 30
0.0
 11
218.989382
 21
180.474013
 31
0.0
  0
LINE
  5
223
100
AcDbEntity
  8
0
100
AcDbLine
 10
219.289382
 20
180.598083
 30
0.0
 11
219.289382
 21
184.278103
 31
0.0
  0
LINE
  5
224
100
AcDbEntity
  8
0
100
AcDbLine
 10
218.989382
 20
180.474013
 30
0.0
 11
218.989382
 21
184.278103
 31
0.0
  0
LINE
  5
225
100
AcDbEntity
  8
0
100
AcDbLine
 10
220.389382
 20
178.651103
 30
0.0
 11
220.389382
 21
179.498113
 31
0.0
  0
ARC
  5
226
100
AcDbEntity
  8
0
100
AcDbCircle
 10
220.618642
 20
178.978093
 30
0.0
 40
0.2
100
AcDbArc
 50
90.0
 51
175.0131
  0
ARC
  5
227
100
AcDbEntity
  8
0
100
AcDbCircle
 10
220.800425
 20
184.278103
 30
0.0
 40
0.2
100
AcDbArc
 50
199.969588
 51
270.0
  0
LINE
  5
228
100
AcDbEntity
  8
0
100
AcDbLine
 10
219.505363
 20
178.694156
 30
0.0
 11
219.69838
 21
178.464144
 31
0.0
  0
LINE
  5
229
100
AcDbEntity
  8
0
100
AcDbLine
 10
219.505363
 20
178.694156
 30
0.0
 11
219.275754
 21
178.501485
 31
0.0
  0
LINE
  5
22A
100
AcDbEntity
  8
0
100
AcDbLine
 10
220.332393
 20
177.998368
 30
0.0
 11
220.419399
 21
178.995479
 31
0.0
  0
LINE
  5
22B
100
AcDbEntity
  8
0
100
AcDbLine
 10
220.033658
 20
178.031573
 30
0.0
 11
220.089346
 21
179.37404
 31
0.0
  0
LINE
  5
22C
100
AcDbEntity
  8
0
100
AcDbLine
 10
219.289382
 20
184.578103
 30
0.0
 11
219.909382
 21
184.578103
 31
0.0
  0
ARC
  5
22D
100
AcDbEntity
  8
0
100
AcDbCircle
 10
218.659382
 20
185.078113
 30
0.0
 40
0.2
100
AcDbArc
 50
180.0
 51
270.0
  0
LINE
  5
22E
100
AcDbEntity
  8
0
100
AcDbLine
 10
218.659382
 20
184.878113
 30
0.0
 11
219.159332
 21
184.878113
 31
0.0
  0
LINE
  5
22F
100
AcDbEntity
  8
0
100
AcDbLine
 10
219.159332
 20
184.878113
 30
0.0
 11
219.533392
 21
185.252143
 31
0.0
  0
ARC
  5
230
100
AcDbEntity
  8
0
100
AcDbCircle
 10
219.289382
 20
184.278103
 30
0.0
 40
0.3
100
AcDbArc
 50
90.0
 51
180.0
  0
LINE
  5
231
100
AcDbEntity
  8
0
100
AcDbLine
 10
220.241372
 20
185.231013
 30
0.0
 11
220.61245
 21
184.209799
 31
0.0
  0
LINE
  5
232
100
AcDbEntity
  8
0
100
AcDbLine
 10
219.909382
 20
184.578103
 30
0.0
 11
219.909382
 21
184.278103
 31
0.0
  0
ARC
  5
233
100
AcDbEntity
  8
0
100
AcDbCircle
 10
220.059382
 20
187.028093
 30
0.0
 40
1.6
100
AcDbArc
 50
90.0
 51
180.0
  0
ARC
  5
234
100
AcDbEntity
  8
0
100
AcDbCircle
 10
231.959382
 20
185.128113
 30
0.0
 40
0.300178
100
AcDbArc
 50
85.491391
 51
160.030412
  0
ARC
  5
235
100
AcDbEntity
  8
0
100
AcDbCircle
 10
231.961382
 20
184.828103
 30
0.0
 40
0.599648
100
AcDbArc
 50
45.002298
 51
92.827891
  0
LINE
  5
236
100
AcDbEntity
  8
0
100
AcDbLine
 10
233.259382
 20
178.078103
 30
0.0
 11
232.679365
 21
178.078103
 31
0.0
  0
LINE
  5
237
100
AcDbEntity
  8
0
100
AcDbLine
 10
233.259382
 20
184.878113
 30
0.0
 11
232.759432
 21
184.878113
 31
0.0
  0
LINE
  5
238
100
AcDbEntity
  8
0
100
AcDbLine
 10
232.679682
 20
178.07848
 30
0.0
 11
232.396548
 21
177.742122
 31
0.0
  0
ARC
  5
239
100
AcDbEntity
  8
0
100
AcDbCircle
 10
232.45017
 20
178.271675
 30
0.0
 40
0.3
100
AcDbArc
 50
319.91047
 51
49.999199
  0
LINE
  5
23A
100
AcDbEntity
  8
0
100
AcDbLine
 10
232.220385
 20
178.464144
 30
0.0
 11
232.449353
 21
178.271151
 31
0.0
  0
ARC
  5
23B
100
AcDbEntity
  8
0
100
AcDbCircle
 10
232.044969
 20
178.038205
 30
0.0
 40
0.16
100
AcDbArc
 50
182.37537
 51
319.994584
  0
ARC
  5
23C
100
AcDbEntity
  8
0
100
AcDbCircle
 10
232.04463
 20
178.038355
 30
0.0
 40
0.46
100
AcDbArc
 50
184.9869
 51
319.91047
  0
LINE
  5
23D
100
AcDbEntity
  8
0
100
AcDbLine
 10
232.449353
 20
178.271151
 30
0.0
 11
232.167526
 21
177.935347
 31
0.0
  0
LINE
  5
23E
100
AcDbEntity
  8
0
100
AcDbLine
 10
231.829419
 20
179.37404
 30
0.0
 11
232.929382
 21
180.474013
 31
0.0
  0
LINE
  5
23F
100
AcDbEntity
  8
0
100
AcDbLine
 10
231.529382
 20
178.651103
 30
0.0
 11
231.529382
 21
179.498113
 31
0.0
  0
LINE
  5
240
100
AcDbEntity
  8
0
100
AcDbLine
 10
232.629382
 20
180.598083
 30
0.0
 11
232.629382
 21
184.278103
 31
0.0
  0
LINE
  5
241
100
AcDbEntity
  8
0
100
AcDbLine
 10
232.009382
 20
184.278103
 30
0.0
 11
232.629382
 21
184.278103
 31
0.0
  0
LINE
  5
242
100
AcDbEntity
  8
0
100
AcDbLine
 10
231.529382
 20
179.498113
 30
0.0
 11
232.629382
 21
180.598083
 31
0.0
  0
ARC
  5
243
100
AcDbEntity
  8
0
100
AcDbCircle
 10
231.118339
 20
184.278103
 30
0.0
 40
0.2
100
AcDbArc
 50
270.0
 51
340.030412
  0
ARC
  5
244
100
AcDbEntity
  8
0
100
AcDbCircle
 10
231.300122
 20
178.978093
 30
0.0
 40
0.2
100
AcDbArc
 50
4.9869
 51
90.0
  0
LINE
  5
245
100
AcDbEntity
  8
0
100
AcDbLine
 10
232.929382
 20
180.474013
 30
0.0
 11
232.929382
 21
184.278103
 31
0.0
  0
LINE
  5
246
100
AcDbEntity
  8
0
100
AcDbLine
 10
232.413401
 20
178.694156
 30
0.0
 11
232.64301
 21
178.501485
 31
0.0
  0
LINE
  5
247
100
AcDbEntity
  8
0
100
AcDbLine
 10
232.413401
 20
178.694156
 30
0.0
 11
232.220385
 21
178.464144
 31
0.0
  0
LINE
  5
248
100
AcDbEntity
  8
0
100
AcDbLine
 10
231.586371
 20
177.998368
 30
0.0
 11
231.499365
 21
178.995479
 31
0.0
  0
LINE
  5
249
100
AcDbEntity
  8
0
100
AcDbLine
 10
231.885106
 20
178.031573
 30
0.0
 11
231.829419
 21
179.37404
 31
0.0
  0
LINE
  5
24A
100
AcDbEntity
  8
0
100
AcDbLine
 10
232.759432
 20
184.878113
 30
0.0
 11
232.385372
 21
185.252143
 31
0.0
  0
LINE
  5
24B
100
AcDbEntity
  8
0
100
AcDbLine
 10
232.629382
 20
184.578103
 30
0.0
 11
232.009382
 21
184.578103
 31
0.0
  0
ARC
  5
24C
100
AcDbEntity
  8
0
100
AcDbCircle
 10
232.629382
 20
184.278103
 30
0.0
 40
0.3
100
AcDbArc
 50
0.0
 51
90.0
  0
LINE
  5
24D
100
AcDbEntity
  8
0
100
AcDbLine
 10
231.677392
 20
185.231013
 30
0.0
 11
231.306314
 21
184.209799
 31
0.0
  0
LINE
  5
24E
100
AcDbEntity
  8
0
100
AcDbLine
 10
232.009382
 20
184.578103
 30
0.0
 11
232.009382
 21
184.278103
 31
0.0
  0
LINE
  5
24F
100
AcDbEntity
  8
0
100
AcDbLine
 10
231.118339
 20
184.078103
 30
0.0
 11
229.081629
 21
184.078103
 31
0.0
  0
LINE
  5
250
100
AcDbEntity
  8
0
100
AcDbLine
 10
231.300122
 20
179.178093
 30
0.0
 11
229.081637
 21
179.178093
 31
0.0
  0
LINE
  5
251
100
AcDbEntity
  8
0
100
AcDbLine
 10
233.459382
 20
178.728093
 30
0.0
 11
235.659382
 21
178.728093
 31
0.0
  0
ARC
  5
252
100
AcDbEntity
  8
0
100
AcDbCircle
 10
233.259382
 20
177.878103
 30
0.0
 40
0.2
100
AcDbArc
 50
0.0
 51
90.0
  0
ARC
  5
253
100
AcDbEntity
  8
0
100
AcDbCircle
 10
233.259382
 20
185.078113
 30
0.0
 40
0.2
100
AcDbArc
 50
270.0
 51
0.0
  0
ARC
  5
254
100
AcDbEntity
  8
0
100
AcDbCircle
 10
231.859382
 20
187.028093
 30
0.0
 40
1.6
100
AcDbArc
 50
0.0
 51
90.0
  0
LINE
  5
255
100
AcDbEntity
  8
CENTER
  6
CENTER
 62
     1
100
AcDbLine
 10
207.659382
 20
240.128093
 30
0.0
 11
190.659382
 21
240.128093
 31
0.0
  0
LINE
  5
256
100
AcDbEntity
  8
0
100
AcDbLine
 10
191.859382
 20
223.628093
 30
0.0
 11
218.459382
 21
223.628093
 31
0.0
  0
LINE
  5
257
100
AcDbEntity
  8
0
100
AcDbLine
 10
205.659382
 20
233.128093
 30
0.0
 11
197.559382
 21
233.128093
 31
0.0
  0
LINE
  5
258
100
AcDbEntity
  8
0
100
AcDbLine
 10
205.659382
 20
247.128093
 30
0.0
 11
197.559382
 21
247.128093
 31
0.0
  0
LINE
  5
259
100
AcDbEntity
  8
0
100
AcDbLine
 10
205.659382
 20
248.128093
 30
0.0
 11
192.659382
 21
248.128093
 31
0.0
  0
LINE
  5
25A
100
AcDbEntity
  8
0
100
AcDbLine
 10
192.659382
 20
248.128093
 30
0.0
 11
192.659382
 21
231.128093
 31
0.0
  0
LINE
  5
25B
100
AcDbEntity
  8
0
100
AcDbLine
 10
197.559382
 20
247.128093
 30
0.0
 11
197.559382
 21
233.128093
 31
0.0
  0
LINE
  5
25C
100
AcDbEntity
  8
0
100
AcDbLine
 10
179.018642
 20
223.078093
 30
0.0
 11
181.237127
 21
223.078093
 31
0.0
  0
LINE
  5
25D
100
AcDbEntity
  8
0
100
AcDbLine
 10
179.200425
 20
218.178083
 30
0.0
 11
181.237135
 21
218.178083
 31
0.0
  0
LINE
  5
25E
100
AcDbEntity
  8
0
100
AcDbLine
 10
190.259382
 20
227.128093
 30
0.0
 11
176.859382
 21
227.128093
 31
0.0
  0
CIRCLE
  5
25F
100
AcDbEntity
  8
0
100
AcDbCircle
 10
184.359382
 20
220.628093
 30
0.0
 40
3.96875
  0
LINE
  5
260
100
AcDbEntity
  8
0
100
AcDbLine
 10
190.259382
 20
213.628093
 30
0.0
 11
178.459382
 21
213.628093
 31
0.0
  0
LINE
  5
261
100
AcDbEntity
  8
0
100
AcDbLine
 10
172.659382
 20
231.128093
 30
0.0
 11
192.659382
 21
231.128093
 31
0.0
  0
ARC
  5
262
100
AcDbEntity
  8
0
100
AcDbCircle
 10
178.459382
 20
225.528093
 30
0.0
 40
1.6
100
AcDbArc
 50
90.0
 51
180.0
  0
LINE
  5
263
100
AcDbEntity
  8
0
100
AcDbLine
 10
177.689382
 20
221.658103
 30
0.0
 11
177.689382
 21
217.978083
 31
0.0
  0
LINE
  5
264
100
AcDbEntity
  8
0
100
AcDbLine
 10
177.389382
 20
221.782173
 30
0.0
 11
177.389382
 21
217.978083
 31
0.0
  0
ARC
  5
265
100
AcDbEntity
  8
0
100
AcDbCircle
 10
179.200425
 20
217.978083
 30
0.0
 40
0.2
100
AcDbArc
 50
90.0
 51
160.030412
  0
ARC
  5
266
100
AcDbEntity
  8
0
100
AcDbCircle
 10
177.059382
 20
217.178073
 30
0.0
 40
0.2
100
AcDbArc
 50
90.0
 51
180.0
  0
ARC
  5
267
100
AcDbEntity
  8
0
100
AcDbCircle
 10
178.357382
 20
217.428083
 30
0.0
 40
0.599648
100
AcDbArc
 50
225.002298
 51
272.827891
  0
ARC
  5
268
100
AcDbEntity
  8
0
100
AcDbCircle
 10
178.359382
 20
217.128073
 30
0.0
 40
0.300178
100
AcDbArc
 50
265.491391
 51
340.030412
  0
LINE
  5
269
100
AcDbEntity
  8
0
100
AcDbLine
 10
178.309382
 20
217.978083
 30
0.0
 11
177.689382
 21
217.978083
 31
0.0
  0
LINE
  5
26A
100
AcDbEntity
  8
0
100
AcDbLine
 10
177.689382
 20
217.678083
 30
0.0
 11
178.309382
 21
217.678083
 31
0.0
  0
LINE
  5
26B
100
AcDbEntity
  8
0
100
AcDbLine
 10
178.309382
 20
217.678083
 30
0.0
 11
178.309382
 21
217.978083
 31
0.0
  0
LINE
  5
26C
100
AcDbEntity
  8
0
100
AcDbLine
 10
177.559332
 20
217.378073
 30
0.0
 11
177.933392
 21
217.004043
 31
0.0
  0
ARC
  5
26D
100
AcDbEntity
  8
0
100
AcDbCircle
 10
177.689382
 20
217.978083
 30
0.0
 40
0.3
100
AcDbArc
 50
180.0
 51
270.0
  0
LINE
  5
26E
100
AcDbEntity
  8
0
100
AcDbLine
 10
178.641372
 20
217.025173
 30
0.0
 11
179.01245
 21
218.046387
 31
0.0
  0
ARC
  5
26F
100
AcDbEntity
  8
0
100
AcDbCircle
 10
178.459382
 20
215.228093
 30
0.0
 40
1.6
100
AcDbArc
 50
180.0
 51
270.0
  0
LINE
  5
270
100
AcDbEntity
  8
0
100
AcDbLine
 10
177.059382
 20
217.378073
 30
0.0
 11
177.559332
 21
217.378073
 31
0.0
  0
LINE
  5
271
100
AcDbEntity
  8
0
100
AcDbLine
 10
176.859382
 20
223.528093
 30
0.0
 11
174.659382
 21
223.528093
 31
0.0
  0
ARC
  5
272
100
AcDbEntity
  8
0
100
AcDbCircle
 10
177.059382
 20
224.378083
 30
0.0
 40
0.2
100
AcDbArc
 50
180.0
 51
270.0
  0
LINE
  5
273
100
AcDbEntity
  8
0
100
AcDbLine
 10
178.489346
 20
222.882147
 30
0.0
 11
177.389382
 21
221.782173
 31
0.0
  0
LINE
  5
274
100
AcDbEntity
  8
0
100
AcDbLine
 10
177.869411
 20
223.985036
 30
0.0
 11
178.151238
 21
224.320839
 31
0.0
  0
LINE
  5
275
100
AcDbEntity
  8
0
100
AcDbLine
 10
178.433658
 20
224.224613
 30
0.0
 11
178.489346
 21
222.882147
 31
0.0
  0
ARC
  5
276
100
AcDbEntity
  8
0
100
AcDbCircle
 10
178.273795
 20
224.217982
 30
0.0
 40
0.16
100
AcDbArc
 50
2.37537
 51
139.994584
  0
LINE
  5
277
100
AcDbEntity
  8
0
100
AcDbLine
 10
177.905363
 20
223.562031
 30
0.0
 11
178.09838
 21
223.792042
 31
0.0
  0
LINE
  5
278
100
AcDbEntity
  8
0
100
AcDbLine
 10
178.09838
 20
223.792042
 30
0.0
 11
177.869411
 21
223.985036
 31
0.0
  0
LINE
  5
279
100
AcDbEntity
  8
0
100
AcDbLine
 10
177.905363
 20
223.562031
 30
0.0
 11
177.675754
 21
223.754701
 31
0.0
  0
ARC
  5
27A
100
AcDbEntity
  8
0
100
AcDbCircle
 10
177.868594
 20
223.984512
 30
0.0
 40
0.3
100
AcDbArc
 50
139.91047
 51
229.999199
  0
LINE
  5
27B
100
AcDbEntity
  8
0
100
AcDbLine
 10
177.639082
 20
224.177707
 30
0.0
 11
177.922216
 21
224.514064
 31
0.0
  0
LINE
  5
27C
100
AcDbEntity
  8
0
100
AcDbLine
 10
178.789382
 20
223.605083
 30
0.0
 11
178.789382
 21
222.758073
 31
0.0
  0
ARC
  5
27D
100
AcDbEntity
  8
0
100
AcDbCircle
 10
179.018642
 20
223.278093
 30
0.0
 40
0.2
100
AcDbArc
 50
184.9869
 51
270.0
  0
LINE
  5
27E
100
AcDbEntity
  8
0
100
AcDbLine
 10
178.732393
 20
224.257819
 30
0.0
 11
178.819399
 21
223.260708
 31
0.0
  0
LINE
  5
27F
100
AcDbEntity
  8
0
100
AcDbLine
 10
178.789382
 20
222.758073
 30
0.0
 11
177.689382
 21
221.658103
 31
0.0
  0
ARC
  5
280
100
AcDbEntity
  8
0
100
AcDbCircle
 10
178.274134
 20
224.217832
 30
0.0
 40
0.46
100
AcDbArc
 50
4.9869
 51
139.91047
  0
LINE
  5
281
100
AcDbEntity
  8
0
100
AcDbLine
 10
177.059382
 20
224.178083
 30
0.0
 11
177.639399
 21
224.178083
 31
0.0
  0
LINE
  5
282
100
AcDbEntity
  8
0
100
AcDbLine
 10
176.859382
 20
228.628093
 30
0.0
 11
174.659382
 21
228.628093
 31
0.0
  0
LINE
  5
283
100
AcDbEntity
  8
0
100
AcDbLine
 10
174.659382
 20
227.128093
 30
0.0
 11
172.659382
 21
227.128093
 31
0.0
  0
ARC
  5
284
100
AcDbEntity
  8
0
100
AcDbCircle
 10
190.259382
 20
225.528093
 30
0.0
 40
1.6
100
AcDbArc
 50
0.0
 51
90.0
  0
ARC
  5
285
100
AcDbEntity
  8
0
100
AcDbCircle
 10
189.518339
 20
217.978083
 30
0.0
 40
0.2
100
AcDbArc
 50
19.969588
 51
90.0
  0
LINE
  5
286
100
AcDbEntity
  8
0
100
AcDbLine
 10
191.029382
 20
221.658103
 30
0.0
 11
191.029382
 21
217.978083
 31
0.0
  0
LINE
  5
287
100
AcDbEntity
  8
0
100
AcDbLine
 10
191.329382
 20
221.782173
 30
0.0
 11
191.329382
 21
217.978083
 31
0.0
  0
LINE
  5
288
100
AcDbEntity
  8
0
100
AcDbLine
 10
190.077392
 20
217.025173
 30
0.0
 11
189.706314
 21
218.046387
 31
0.0
  0
ARC
  5
289
100
AcDbEntity
  8
0
100
AcDbCircle
 10
190.361382
 20
217.428083
 30
0.0
 40
0.599648
100
AcDbArc
 50
267.172109
 51
314.997702
  0
LINE
  5
28A
100
AcDbEntity
  8
0
100
AcDbLine
 10
191.659382
 20
217.378073
 30
0.0
 11
191.159432
 21
217.378073
 31
0.0
  0
ARC
  5
28B
100
AcDbEntity
  8
0
100
AcDbCircle
 10
191.659382
 20
217.178073
 30
0.0
 40
0.2
100
AcDbArc
 50
0.0
 51
90.0
  0
LINE
  5
28C
100
AcDbEntity
  8
0
100
AcDbLine
 10
191.029382
 20
217.678083
 30
0.0
 11
190.409382
 21
217.678083
 31
0.0
  0
LINE
  5
28D
100
AcDbEntity
  8
0
100
AcDbLine
 10
190.409382
 20
217.678083
 30
0.0
 11
190.409382
 21
217.978083
 31
0.0
  0
LINE
  5
28E
100
AcDbEntity
  8
0
100
AcDbLine
 10
190.409382
 20
217.978083
 30
0.0
 11
191.029382
 21
217.978083
 31
0.0
  0
ARC
  5
28F
100
AcDbEntity
  8
0
100
AcDbCircle
 10
191.029382
 20
217.978083
 30
0.0
 40
0.3
100
AcDbArc
 50
270.0
 51
0.0
  0
LINE
  5
290
100
AcDbEntity
  8
0
100
AcDbLine
 10
191.159432
 20
217.378073
 30
0.0
 11
190.785372
 21
217.004043
 31
0.0
  0
ARC
  5
291
100
AcDbEntity
  8
0
100
AcDbCircle
 10
190.359382
 20
217.128073
 30
0.0
 40
0.300178
100
AcDbArc
 50
199.969588
 51
274.508609
  0
ARC
  5
292
100
AcDbEntity
  8
0
100
AcDbCircle
 10
190.259382
 20
215.228093
 30
0.0
 40
1.6
100
AcDbArc
 50
270.0
 51
0.0
  0
LINE
  5
293
100
AcDbEntity
  8
0
100
AcDbLine
 10
189.518339
 20
218.178083
 30
0.0
 11
187.481629
 21
218.178083
 31
0.0
  0
ARC
  5
294
100
AcDbEntity
  8
0
100
AcDbCircle
 10
189.700122
 20
223.278093
 30
0.0
 40
0.2
100
AcDbArc
 50
270.0
 51
355.0131
  0
LINE
  5
295
100
AcDbEntity
  8
0
100
AcDbLine
 10
190.285106
 20
224.224613
 30
0.0
 11
190.229419
 21
222.882147
 31
0.0
  0
LINE
  5
296
100
AcDbEntity
  8
0
100
AcDbLine
 10
189.929382
 20
223.605083
 30
0.0
 11
189.929382
 21
222.758073
 31
0.0
  0
LINE
  5
297
100
AcDbEntity
  8
0
100
AcDbLine
 10
189.986371
 20
224.257819
 30
0.0
 11
189.899365
 21
223.260708
 31
0.0
  0
LINE
  5
298
100
AcDbEntity
  8
0
100
AcDbLine
 10
191.659382
 20
224.178083
 30
0.0
 11
191.079365
 21
224.178083
 31
0.0
  0
ARC
  5
299
100
AcDbEntity
  8
0
100
AcDbCircle
 10
191.659382
 20
224.378083
 30
0.0
 40
0.2
100
AcDbArc
 50
270.0
 51
0.0
  0
LINE
  5
29A
100
AcDbEntity
  8
0
100
AcDbLine
 10
190.849353
 20
223.985036
 30
0.0
 11
190.567526
 21
224.320839
 31
0.0
  0
LINE
  5
29B
100
AcDbEntity
  8
0
100
AcDbLine
 10
190.813401
 20
223.562031
 30
0.0
 11
191.04301
 21
223.754701
 31
0.0
  0
LINE
  5
29C
100
AcDbEntity
  8
0
100
AcDbLine
 10
190.620385
 20
223.792042
 30
0.0
 11
190.849353
 21
223.985036
 31
0.0
  0
LINE
  5
29D
100
AcDbEntity
  8
0
100
AcDbLine
 10
190.813401
 20
223.562031
 30
0.0
 11
190.620385
 21
223.792042
 31
0.0
  0
LINE
  5
29E
100
AcDbEntity
  8
0
100
AcDbLine
 10
191.079682
 20
224.177707
 30
0.0
 11
190.796548
 21
224.514064
 31
0.0
  0
ARC
  5
29F
100
AcDbEntity
  8
0
100
AcDbCircle
 10
190.85017
 20
223.984512
 30
0.0
 40
0.3
100
AcDbArc
 50
310.000801
 51
40.08953
  0
LINE
  5
2A0
100
AcDbEntity
  8
0
100
AcDbLine
 10
189.929382
 20
222.758073
 30
0.0
 11
191.029382
 21
221.658103
 31
0.0
  0
LINE
  5
2A1
100
AcDbEntity
  8
0
100
AcDbLine
 10
190.229419
 20
222.882147
 30
0.0
 11
191.329382
 21
221.782173
 31
0.0
  0
ARC
  5
2A2
100
AcDbEntity
  8
0
100
AcDbCircle
 10
190.44463
 20
224.217832
 30
0.0
 40
0.46
100
AcDbArc
 50
40.08953
 51
175.0131
  0
ARC
  5
2A3
100
AcDbEntity
  8
0
100
AcDbCircle
 10
190.444969
 20
224.217982
 30
0.0
 40
0.16
100
AcDbArc
 50
40.005416
 51
177.62463
  0
LINE
  5
2A4
100
AcDbEntity
  8
0
100
AcDbLine
 10
189.700122
 20
223.078093
 30
0.0
 11
187.481637
 21
223.078093
 31
0.0
  0
LINE
  5
2A5
100
AcDbEntity
  8
0
100
AcDbLine
 10
197.559382
 20
235.628093
 30
0.0
 11
192.659382
 21
235.628093
 31
0.0
  0
LINE
  5
2A6
100
AcDbEntity
  8
0
100
AcDbLine
 10
197.559382
 20
244.628093
 30
0.0
 11
192.659382
 21
244.628093
 31
0.0
  0
LINE
  5
2A7
100
AcDbEntity
  8
0
100
AcDbLine
 10
202.409382
 20
248.128093
 30
0.0
 11
202.409382
 21
248.128193
 31
0.0
  0
LINE
  5
2A8
100
AcDbEntity
  8
0
100
AcDbLine
 10
199.159382
 20
248.128093
 30
0.0
 11
199.159482
 21
248.128093
 31
0.0
  0
LINE
  5
2A9
100
AcDbEntity
  8
0
100
AcDbLine
 10
205.659382
 20
248.128093
 30
0.0
 11
205.659382
 21
231.128093
 31
0.0
  0
LINE
  5
2AA
100
AcDbEntity
  8
0
100
AcDbLine
 10
205.659382
 20
231.128093
 30
0.0
 11
237.659382
 21
231.128093
 31
0.0
  0
CIRCLE
  5
2AB
100
AcDbEntity
  8
0
100
AcDbCircle
 10
225.959382
 20
220.628093
 30
0.0
 40
3.96875
  0
LINE
  5
2AC
100
AcDbEntity
  8
0
100
AcDbLine
 10
220.059382
 20
213.628093
 30
0.0
 11
231.859382
 21
213.628093
 31
0.0
  0
LINE
  5
2AD
100
AcDbEntity
  8
0
100
AcDbLine
 10
220.059382
 20
227.128093
 30
0.0
 11
233.459382
 21
227.128093
 31
0.0
  0
ARC
  5
2AE
100
AcDbEntity
  8
0
100
AcDbCircle
 10
220.059382
 20
225.528093
 30
0.0
 40
1.6
100
AcDbArc
 50
90.0
 51
180.0
  0
ARC
  5
2AF
100
AcDbEntity
  8
0
100
AcDbCircle
 10
220.800425
 20
217.978083
 30
0.0
 40
0.2
100
AcDbArc
 50
90.0
 51
160.030412
  0
LINE
  5
2B0
100
AcDbEntity
  8
0
100
AcDbLine
 10
218.989382
 20
221.782173
 30
0.0
 11
218.989382
 21
217.978083
 31
0.0
  0
LINE
  5
2B1
100
AcDbEntity
  8
0
100
AcDbLine
 10
219.289382
 20
221.658103
 30
0.0
 11
219.289382
 21
217.978083
 31
0.0
  0
LINE
  5
2B2
100
AcDbEntity
  8
0
100
AcDbLine
 10
220.800425
 20
218.178083
 30
0.0
 11
222.837135
 21
218.178083
 31
0.0
  0
LINE
  5
2B3
100
AcDbEntity
  8
0
100
AcDbLine
 10
220.241372
 20
217.025173
 30
0.0
 11
220.61245
 21
218.046387
 31
0.0
  0
LINE
  5
2B4
100
AcDbEntity
  8
0
100
AcDbLine
 10
219.159332
 20
217.378073
 30
0.0
 11
219.533392
 21
217.004043
 31
0.0
  0
ARC
  5
2B5
100
AcDbEntity
  8
0
100
AcDbCircle
 10
219.289382
 20
217.978083
 30
0.0
 40
0.3
100
AcDbArc
 50
180.0
 51
270.0
  0
LINE
  5
2B6
100
AcDbEntity
  8
0
100
AcDbLine
 10
219.909382
 20
217.978083
 30
0.0
 11
219.289382
 21
217.978083
 31
0.0
  0
LINE
  5
2B7
100
AcDbEntity
  8
0
100
AcDbLine
 10
219.909382
 20
217.678083
 30
0.0
 11
219.909382
 21
217.978083
 31
0.0
  0
LINE
  5
2B8
100
AcDbEntity
  8
0
100
AcDbLine
 10
219.289382
 20
217.678083
 30
0.0
 11
219.909382
 21
217.678083
 31
0.0
  0
ARC
  5
2B9
100
AcDbEntity
  8
0
100
AcDbCircle
 10
218.659382
 20
217.178073
 30
0.0
 40
0.2
100
AcDbArc
 50
90.0
 51
180.0
  0
LINE
  5
2BA
100
AcDbEntity
  8
0
100
AcDbLine
 10
218.659382
 20
217.378073
 30
0.0
 11
219.159332
 21
217.378073
 31
0.0
  0
ARC
  5
2BB
100
AcDbEntity
  8
0
100
AcDbCircle
 10
220.059382
 20
215.228093
 30
0.0
 40
1.6
100
AcDbArc
 50
180.0
 51
270.0
  0
ARC
  5
2BC
100
AcDbEntity
  8
0
100
AcDbCircle
 10
219.957382
 20
217.428083
 30
0.0
 40
0.599648
100
AcDbArc
 50
225.002298
 51
272.827891
  0
ARC
  5
2BD
100
AcDbEntity
  8
0
100
AcDbCircle
 10
219.959382
 20
217.128073
 30
0.0
 40
0.300178
100
AcDbArc
 50
265.491391
 51
340.030412
  0
LINE
  5
2BE
100
AcDbEntity
  8
0
100
AcDbLine
 10
220.618642
 20
223.078093
 30
0.0
 11
222.837127
 21
223.078093
 31
0.0
  0
LINE
  5
2BF
100
AcDbEntity
  8
0
100
AcDbLine
 10
220.332393
 20
224.257819
 30
0.0
 11
220.419399
 21
223.260708
 31
0.0
  0
LINE
  5
2C0
100
AcDbEntity
  8
0
100
AcDbLine
 10
220.389382
 20
223.605083
 30
0.0
 11
220.389382
 21
222.758073
 31
0.0
  0
LINE
  5
2C1
100
AcDbEntity
  8
0
100
AcDbLine
 10
220.033658
 20
224.224613
 30
0.0
 11
220.089346
 21
222.882147
 31
0.0
  0
ARC
  5
2C2
100
AcDbEntity
  8
0
100
AcDbCircle
 10
220.618642
 20
223.278093
 30
0.0
 40
0.2
100
AcDbArc
 50
184.9869
 51
270.0
  0
ARC
  5
2C3
100
AcDbEntity
  8
0
100
AcDbCircle
 10
219.468594
 20
223.984512
 30
0.0
 40
0.3
100
AcDbArc
 50
139.91047
 51
229.999199
  0
LINE
  5
2C4
100
AcDbEntity
  8
0
100
AcDbLine
 10
219.239082
 20
224.177707
 30
0.0
 11
219.522216
 21
224.514064
 31
0.0
  0
LINE
  5
2C5
100
AcDbEntity
  8
0
100
AcDbLine
 10
219.505363
 20
223.562031
 30
0.0
 11
219.69838
 21
223.792042
 31
0.0
  0
LINE
  5
2C6
100
AcDbEntity
  8
0
100
AcDbLine
 10
219.69838
 20
223.792042
 30
0.0
 11
219.469411
 21
223.985036
 31
0.0
  0
LINE
  5
2C7
100
AcDbEntity
  8
0
100
AcDbLine
 10
219.505363
 20
223.562031
 30
0.0
 11
219.275754
 21
223.754701
 31
0.0
  0
LINE
  5
2C8
100
AcDbEntity
  8
0
100
AcDbLine
 10
219.469411
 20
223.985036
 30
0.0
 11
219.751238
 21
224.320839
 31
0.0
  0
ARC
  5
2C9
100
AcDbEntity
  8
0
100
AcDbCircle
 10
218.659382
 20
224.378083
 30
0.0
 40
0.2
100
AcDbArc
 50
180.0
 51
270.0
  0
LINE
  5
2CA
100
AcDbEntity
  8
0
100
AcDbLine
 10
218.659382
 20
224.178083
 30
0.0
 11
219.239399
 21
224.178083
 31
0.0
  0
ARC
  5
2CB
100
AcDbEntity
  8
0
100
AcDbCircle
 10
219.873795
 20
224.217982
 30
0.0
 40
0.16
100
AcDbArc
 50
2.37537
 51
139.994584
  0
ARC
  5
2CC
100
AcDbEntity
  8
0
100
AcDbCircle
 10
219.874134
 20
224.217832
 30
0.0
 40
0.46
100
AcDbArc
 50
4.9869
 51
139.91047
  0
LINE
  5
2CD
100
AcDbEntity
  8
0
100
AcDbLine
 10
220.089346
 20
222.882147
 30
0.0
 11
218.989382
 21
221.782173
 31
0.0
  0
LINE
  5
2CE
100
AcDbEntity
  8
0
100
AcDbLine
 10
220.389382
 20
222.758073
 30
0.0
 11
219.289382
 21
221.658103
 31
0.0
  0
ARC
  5
2CF
100
AcDbEntity
  8
0
100
AcDbCircle
 10
231.859382
 20
225.528093
 30
0.0
 40
1.6
100
AcDbArc
 50
0.0
 51
90.0
  0
LINE
  5
2D0
100
AcDbEntity
  8
0
100
AcDbLine
 10
232.929382
 20
221.782173
 30
0.0
 11
232.929382
 21
217.978083
 31
0.0
  0
LINE
  5
2D1
100
AcDbEntity
  8
0
100
AcDbLine
 10
232.629382
 20
221.658103
 30
0.0
 11
232.629382
 21
217.978083
 31
0.0
  0
ARC
  5
2D2
100
AcDbEntity
  8
0
100
AcDbCircle
 10
231.118339
 20
217.978083
 30
0.0
 40
0.2
100
AcDbArc
 50
19.969588
 51
90.0
  0
LINE
  5
2D3
100
AcDbEntity
  8
0
100
AcDbLine
 10
233.259382
 20
217.378073
 30
0.0
 11
232.759432
 21
217.378073
 31
0.0
  0
ARC
  5
2D4
100
AcDbEntity
  8
0
100
AcDbCircle
 10
231.859382
 20
215.228093
 30
0.0
 40
1.6
100
AcDbArc
 50
270.0
 51
0.0
  0
ARC
  5
2D5
100
AcDbEntity
  8
0
100
AcDbCircle
 10
232.629382
 20
217.978083
 30
0.0
 40
0.3
100
AcDbArc
 50
270.0
 51
0.0
  0
LINE
  5
2D6
100
AcDbEntity
  8
0
100
AcDbLine
 10
232.759432
 20
217.378073
 30
0.0
 11
232.385372
 21
217.004043
 31
0.0
  0
LINE
  5
2D7
100
AcDbEntity
  8
0
100
AcDbLine
 10
231.677392
 20
217.025173
 30
0.0
 11
231.306314
 21
218.046387
 31
0.0
  0
LINE
  5
2D8
100
AcDbEntity
  8
0
100
AcDbLine
 10
232.009382
 20
217.678083
 30
0.0
 11
232.009382
 21
217.978083
 31
0.0
  0
LINE
  5
2D9
100
AcDbEntity
  8
0
100
AcDbLine
 10
232.629382
 20
217.678083
 30
0.0
 11
232.009382
 21
217.678083
 31
0.0
  0
LINE
  5
2DA
100
AcDbEntity
  8
0
100
AcDbLine
 10
232.009382
 20
217.978083
 30
0.0
 11
232.629382
 21
217.978083
 31
0.0
  0
ARC
  5
2DB
100
AcDbEntity
  8
0
100
AcDbCircle
 10
231.959382
 20
217.128073
 30
0.0
 40
0.300178
100
AcDbArc
 50
199.969588
 51
274.508609
  0
ARC
  5
2DC
100
AcDbEntity
  8
0
100
AcDbCircle
 10
231.961382
 20
217.428083
 30
0.0
 40
0.599648
100
AcDbArc
 50
267.172109
 51
314.997702
  0
LINE
  5
2DD
100
AcDbEntity
  8
0
100
AcDbLine
 10
231.118339
 20
218.178083
 30
0.0
 11
229.081629
 21
218.178083
 31
0.0
  0
ARC
  5
2DE
100
AcDbEntity
  8
0
100
AcDbCircle
 10
233.259382
 20
217.178073
 30
0.0
 40
0.2
100
AcDbArc
 50
0.0
 51
90.0
  0
LINE
  5
2DF
100
AcDbEntity
  8
0
100
AcDbLine
 10
233.259382
 20
224.178083
 30
0.0
 11
232.679365
 21
224.178083
 31
0.0
  0
LINE
  5
2E0
100
AcDbEntity
  8
0
100
AcDbLine
 10
232.679682
 20
224.177707
 30
0.0
 11
232.396548
 21
224.514064
 31
0.0
  0
ARC
  5
2E1
100
AcDbEntity
  8
0
100
AcDbCircle
 10
232.45017
 20
223.984512
 30
0.0
 40
0.3
100
AcDbArc
 50
310.000801
 51
40.08953
  0
LINE
  5
2E2
100
AcDbEntity
  8
0
100
AcDbLine
 10
232.413401
 20
223.562031
 30
0.0
 11
232.64301
 21
223.754701
 31
0.0
  0
LINE
  5
2E3
100
AcDbEntity
  8
0
100
AcDbLine
 10
232.220385
 20
223.792042
 30
0.0
 11
232.449353
 21
223.985036
 31
0.0
  0
LINE
  5
2E4
100
AcDbEntity
  8
0
100
AcDbLine
 10
232.413401
 20
223.562031
 30
0.0
 11
232.220385
 21
223.792042
 31
0.0
  0
LINE
  5
2E5
100
AcDbEntity
  8
0
100
AcDbLine
 10
231.586371
 20
224.257819
 30
0.0
 11
231.499365
 21
223.260708
 31
0.0
  0
ARC
  5
2E6
100
AcDbEntity
  8
0
100
AcDbCircle
 10
232.044969
 20
224.217982
 30
0.0
 40
0.16
100
AcDbArc
 50
40.005416
 51
177.62463
  0
ARC
  5
2E7
100
AcDbEntity
  8
0
100
AcDbCircle
 10
231.300122
 20
223.278093
 30
0.0
 40
0.2
100
AcDbArc
 50
270.0
 51
355.0131
  0
LINE
  5
2E8
100
AcDbEntity
  8
0
100
AcDbLine
 10
231.885106
 20
224.224613
 30
0.0
 11
231.829419
 21
222.882147
 31
0.0
  0
LINE
  5
2E9
100
AcDbEntity
  8
0
100
AcDbLine
 10
231.529382
 20
223.605083
 30
0.0
 11
231.529382
 21
222.758073
 31
0.0
  0
ARC
  5
2EA
100
AcDbEntity
  8
0
100
AcDbCircle
 10
232.04463
 20
224.217832
 30
0.0
 40
0.46
100
AcDbArc
 50
40.08953
 51
175.0131
  0
LINE
  5
2EB
100
AcDbEntity
  8
0
100
AcDbLine
 10
232.449353
 20
223.985036
 30
0.0
 11
232.167526
 21
224.320839
 31
0.0
  0
LINE
  5
2EC
100
AcDbEntity
  8
0
100
AcDbLine
 10
231.829419
 20
222.882147
 30
0.0
 11
232.929382
 21
221.782173
 31
0.0
  0
LINE
  5
2ED
100
AcDbEntity
  8
0
100
AcDbLine
 10
231.529382
 20
222.758073
 30
0.0
 11
232.629382
 21
221.658103
 31
0.0
  0
LINE
  5
2EE
100
AcDbEntity
  8
0
100
AcDbLine
 10
231.300122
 20
223.078093
 30
0.0
 11
229.081637
 21
223.078093
 31
0.0
  0
LINE
  5
2EF
100
AcDbEntity
  8
0
100
AcDbLine
 10
233.459382
 20
223.528093
 30
0.0
 11
235.659382
 21
223.528093
 31
0.0
  0
ARC
  5
2F0
100
AcDbEntity
  8
0
100
AcDbCircle
 10
233.259382
 20
224.378083
 30
0.0
 40
0.2
100
AcDbArc
 50
270.0
 51
0.0
  0
LINE
  5
2F1
100
AcDbEntity
  8
0
100
AcDbLine
 10
235.659382
 20
227.128093
 30
0.0
 11
237.659382
 21
227.128093
 31
0.0
  0
LINE
  5
2F2
100
AcDbEntity
  8
0
100
AcDbLine
 10
233.459382
 20
228.628093
 30
0.0
 11
235.659382
 21
228.628093
 31
0.0
  0
CIRCLE
  5
2F3
100
AcDbEntity
  8
CENTER
  6
CENTER
 62
     1
100
AcDbCircle
 10
398.164615
 20
201.128093
 30
0.0
 40
39.0
  0
LINE
  5
2F4
100
AcDbEntity
  8
CENTER
  6
CENTER
 62
     1
100
AcDbLine
 10
398.164615
 20
256.158954
 30
0.0
 11
398.164615
 21
146.097233
 31
0.0
  0
CIRCLE
  5
2F5
100
AcDbEntity
  8
0
100
AcDbCircle
 10
398.164615
 20
201.128093
 30
0.0
 40
30.0
  0
CIRCLE
  5
2F6
100
AcDbEntity
  8
0
100
AcDbCircle
 10
398.164615
 20
201.128093
 30
0.0
 40
12.5
  0
CIRCLE
  5
2F7
100
AcDbEntity
  8
0
100
AcDbCircle
 10
398.164615
 20
201.128093
 30
0.0
 40
26.0
  0
CIRCLE
  5
2F8
100
AcDbEntity
  8
0
100
AcDbCircle
 10
398.164615
 20
201.128093
 30
0.0
 40
47.0
  0
LINE
  5
2F9
100
AcDbEntity
  8
CENTER
  6
CENTER
 62
     1
100
AcDbLine
 10
343.133755
 20
201.128093
 30
0.0
 11
453.195476
 21
201.128093
 31
0.0
  0
CIRCLE
  5
2FA
100
AcDbEntity
  8
0
100
AcDbCircle
 10
359.164615
 20
201.128093
 30
0.0
 40
4.25
  0
CIRCLE
  5
2FB
100
AcDbEntity
  8
0
100
AcDbCircle
 10
359.164615
 20
201.128093
 30
0.0
 40
7.0
  0
CIRCLE
  5
2FC
100
AcDbEntity
  8
0
100
AcDbCircle
 10
437.164615
 20
201.128093
 30
0.0
 40
4.25
  0
CIRCLE
  5
2FD
100
AcDbEntity
  8
0
100
AcDbCircle
 10
437.164615
 20
201.128093
 30
0.0
 40
7.0
  0
CIRCLE
  5
2FE
100
AcDbEntity
  8
0
100
AcDbCircle
 10
398.164615
 20
162.128093
 30
0.0
 40
4.25
  0
CIRCLE
  5
2FF
100
AcDbEntity
  8
0
100
AcDbCircle
 10
398.164615
 20
162.128093
 30
0.0
 40
7.0
  0
CIRCLE
  5
300
100
AcDbEntity
  8
0
100
AcDbCircle
 10
398.164615
 20
240.128093
 30
0.0
 40
4.25
  0
CIRCLE
  5
301
100
AcDbEntity
  8
0
100
AcDbCircle
 10
398.164615
 20
240.128093
 30
0.0
 40
7.0
  0
ENDSEC
  0
SECTION
  2
OBJECTS
  0
DICTIONARY
  5
186
100
AcDbDictionary
  3
ACAD_GROUP
350
187
  3
ACAD_LAYOUT
350
193
  3
ACAD_MLINESTYLE
350
190
  3
ACAD_PLOTSETTINGS
350
192
  3
ACAD_PLOTSTYLENAME
350
188
  3
ACDBHEADERROUNDTRIPXREC
350
30E
  3
AcDbVariableDictionary
350
337
  0
DICTIONARY
  5
30C
100
AcDbDictionary
280
     1
  3
ACAD_XREC_ROUNDTRIP
360
30D
  0
DICTIONARY
  5
308
100
AcDbDictionary
280
     1
  3
ACAD_XREC_ROUNDTRIP
360
309
  0
DICTIONARY
  5
30A
100
AcDbDictionary
280
     1
  3
ACAD_XREC_ROUNDTRIP
360
30B
  0
DICTIONARY
  5
335
100
AcDbDictionary
280
     1
  3
ACAD_XREC_ROUNDTRIP
360
336
  0
DICTIONARY
  5
304
100
AcDbDictionary
280
     1
  3
ACAD_LAYOUTSELFREF
360
334
  3
ACAD_XREC_ROUNDTRIP
360
305
  0
DICTIONARY
  5
306
100
AcDbDictionary
280
     1
  3
ACAD_LAYOUTSELFREF
360
333
  3
ACAD_XREC_ROUNDTRIP
360
307
  0
DICTIONARY
  5
187
102
{ACAD_REACTORS
330
186
102
}
100
AcDbDictionary
  0
DICTIONARY
  5
193
102
{ACAD_XDICTIONARY
360
331
102
}
102
{ACAD_REACTORS
330
186
102
}
100
AcDbDictionary
  3
MODEL
350
19B
  3
ﾚｲｱｳﾄ1
350
197
  0
DICTIONARY
  5
190
102
{ACAD_XDICTIONARY
360
32F
102
}
102
{ACAD_REACTORS
330
186
102
}
100
AcDbDictionary
  3
STANDARD
350
191
  0
DICTIONARY
  5
192
102
{ACAD_REACTORS
330
186
102
}
100
AcDbDictionary
  0
ACAD_PROXY_OBJECT
  5
188
102
{ACAD_REACTORS
330
186
102
}
100
AcDbProxyObject
 90
      499
 91
      500
 93
       86
310
405010041939BDC9B585B0
350
189
340
189
 94
        0
  0
DICTIONARY
  5
30E
102
{ACAD_REACTORS
330
186
102
}
100
AcDbDictionary
  3
CEPSNTYPE
350
318
  3
DIMSTYLEDATA
350
31C
  3
FINGERPRINTGUID
350
319
  3
HYPERLINKBASE
350
311
  3
INSUNITS
350
317
  3
LAYOUTDICT
350
313
  3
LWETCUNION
350
316
  3
PLOTSETDICT
350
314
  3
PLOTSTYLNAMDICT
350
315
  3
PSVPSCALE
350
31B
  3
PUCSBASE
350
31F
  3
PUCSORGBACK
350
325
  3
PUCSORGBOTTOM
350
321
  3
PUCSORGFRONT
350
324
  3
PUCSORGLEFT
350
322
  3
PUCSORGRIGHT
350
323
  3
PUCSORGTOP
350
320
  3
PUCSORTHOREF
350
31D
  3
PUCSORTHOVIEW
350
31E
  3
STYLESHEET
350
312
  3
TSTACKALIGN
350
30F
  3
TSTACKSIZE
350
310
  3
UCSBASE
350
328
  3
UCSORGBACK
350
32E
  3
UCSORGBOTTOM
350
32A
  3
UCSORGFRONT
350
32D
  3
UCSORGLEFT
350
32B
  3
UCSORGRIGHT
350
32C
  3
UCSORGTOP
350
329
  3
UCSORTHOREF
350
326
  3
UCSORTHOVIEW
350
327
  3
VERSIONGUID
350
31A
  0
DICTIONARY
  5
337
102
{ACAD_REACTORS
330
186
102
}
100
AcDbDictionary
  3
DIMASSOC
350
338
  0
XRECORD
  5
30D
102
{ACAD_REACTORS
330
30C
102
}
100
AcDbXrecord
102
EXTNAMES
  1
*ACTIVE
  2
*Active
102
UCS
 74
     0
 71
     0
 10
0.0
 20
0.0
 30
0.0
 10
1.0
 20
0.0
 30
0.0
 10
0.0
 20
1.0
 30
0.0
146
0.0
 79
     0
102
VIEW
281
     0
  0
XRECORD
  5
309
102
{ACAD_REACTORS
330
308
102
}
100
AcDbXrecord
102
EXTNAMES
  1
BYBLOCK
  2
ByBlock
  0
XRECORD
  5
30B
102
{ACAD_REACTORS
330
30A
102
}
100
AcDbXrecord
102
EXTNAMES
  1
BYLAYER
  2
ByLayer
  0
XRECORD
  5
336
102
{ACAD_REACTORS
330
335
102
}
100
AcDbXrecord
102
ACADR14ROUNDTRIP
1000
DSTYLE
1002
{
1070
   279
 70
     2
1002
}
  0
XRECORD
  5
334
102
{ACAD_REACTORS
330
304
102
}
100
AcDbXrecord
340
198
  0
XRECORD
  5
305
102
{ACAD_REACTORS
330
304
102
}
100
AcDbXrecord
102
EXTNAMES
  1
*MODEL_SPACE
  2
*Model_Space
  0
XRECORD
  5
333
102
{ACAD_REACTORS
330
306
102
}
100
AcDbXrecord
340
194
  0
XRECORD
  5
307
102
{ACAD_REACTORS
330
306
102
}
100
AcDbXrecord
102
EXTNAMES
  1
*PAPER_SPACE
  2
*Paper_Space
  0
DICTIONARY
  5
331
100
AcDbDictionary
280
     1
  3
ACAD_XREC_ROUNDTRIP
360
332
  0
ACAD_PROXY_OBJECT
  5
19B
102
{ACAD_REACTORS
330
193
102
}
100
AcDbProxyObject
 90
      499
 91
      502
 93
      836
310
932433A5C50524F4752414D2046494C45535C4D4454365C706C6F74746572735C526F6C616E64204458592D313235302E7063332C01AAAAAAAAA5A69054D6F64656C901A800000000000000000000000000000000000000000000A1000000000000008902A6A6AAAA4
330
198
330
0
340
0
340
0
 94
        0
  0
ACAD_PROXY_OBJECT
  5
197
102
{ACAD_REACTORS
330
193
102
}
100
AcDbProxyObject
 90
      499
 91
      502
 93
     1244
310
932433A5C50524F4752414D2046494C45535C4D4454365C706C6F74746572735C526F6C616E64204458592D313235302E7063332C00AAAAAA416AA59106906DAB2B1B3C431406A800000000000000000000000000000000000000000101E900000000000241C902A6A6A10232D5E076BC5510408CB5781DAF154410232D5E0
310
76BC5510408CB5781DAF15C410232D5E076BC5710408CB5781DAF15C40
330
194
330
0
340
0
340
0
 94
        0
  0
DICTIONARY
  5
32F
100
AcDbDictionary
280
     1
  3
ACAD_XREC_ROUNDTRIP
360
330
  0
MLINESTYLE
  5
191
102
{ACAD_REACTORS
330
190
102
}
100
AcDbMlineStyle
  2
STANDARD
 70
     0
  3

 62
   256
 51
90.0
 52
90.0
 71
     2
 49
0.5
 62
   256
  6
BYLAYER
 49
-0.5
 62
   256
  6
BYLAYER
  0
ACAD_PROXY_OBJECT
  5
189
102
{ACAD_REACTORS
330
188
102
}
100
AcDbProxyObject
 90
      499
 91
      501
 93
        0
 94
        0
  0
XRECORD
  5
318
102
{ACAD_REACTORS
330
30E
102
}
100
AcDbXrecord
 90
        0
  0
XRECORD
  5
31C
102
{ACAD_REACTORS
330
30E
102
}
100
AcDbXrecord
1000
DSTYLE
1002
{
1070
   341
340
1A8
1070
   342
340
1A8
1002
}
  0
XRECORD
  5
319
102
{ACAD_REACTORS
330
30E
102
}
100
AcDbXrecord
  1
{CEDDB18C-692E-4AB2-A8DD-29A32E0DBF66}
  0
XRECORD
  5
311
102
{ACAD_REACTORS
330
30E
102
}
100
AcDbXrecord
  1

  0
XRECORD
  5
317
102
{ACAD_REACTORS
330
30E
102
}
100
AcDbXrecord
 90
        0
  0
XRECORD
  5
313
102
{ACAD_REACTORS
330
30E
102
}
100
AcDbXrecord
340
193
  0
XRECORD
  5
316
102
{ACAD_REACTORS
330
30E
102
}
100
AcDbXrecord
 90
    10781
  0
XRECORD
  5
314
102
{ACAD_REACTORS
330
30E
102
}
100
AcDbXrecord
340
192
  0
XRECORD
  5
315
102
{ACAD_REACTORS
330
30E
102
}
100
AcDbXrecord
340
188
  0
XRECORD
  5
31B
102
{ACAD_REACTORS
330
30E
102
}
100
AcDbXrecord
 40
0.0
  0
XRECORD
  5
31F
102
{ACAD_REACTORS
330
30E
102
}
100
AcDbXrecord
340
0
  0
XRECORD
  5
325
102
{ACAD_REACTORS
330
30E
102
}
100
AcDbXrecord
 10
0.0
 20
0.0
 30
0.0
  0
XRECORD
  5
321
102
{ACAD_REACTORS
330
30E
102
}
100
AcDbXrecord
 10
0.0
 20
0.0
 30
0.0
  0
XRECORD
  5
324
102
{ACAD_REACTORS
330
30E
102
}
100
AcDbXrecord
 10
0.0
 20
0.0
 30
0.0
  0
XRECORD
  5
322
102
{ACAD_REACTORS
330
30E
102
}
100
AcDbXrecord
 10
0.0
 20
0.0
 30
0.0
  0
XRECORD
  5
323
102
{ACAD_REACTORS
330
30E
102
}
100
AcDbXrecord
 10
0.0
 20
0.0
 30
0.0
  0
XRECORD
  5
320
102
{ACAD_REACTORS
330
30E
102
}
100
AcDbXrecord
 10
0.0
 20
0.0
 30
0.0
  0
XRECORD
  5
31D
102
{ACAD_REACTORS
330
30E
102
}
100
AcDbXrecord
340
0
  0
XRECORD
  5
31E
102
{ACAD_REACTORS
330
30E
102
}
100
AcDbXrecord
 70
     0
  0
XRECORD
  5
312
102
{ACAD_REACTORS
330
30E
102
}
100
AcDbXrecord
  1

  0
XRECORD
  5
30F
102
{ACAD_REACTORS
330
30E
102
}
100
AcDbXrecord
 90
        1
  0
XRECORD
  5
310
102
{ACAD_REACTORS
330
30E
102
}
100
AcDbXrecord
 90
       70
  0
XRECORD
  5
328
102
{ACAD_REACTORS
330
30E
102
}
100
AcDbXrecord
340
0
  0
XRECORD
  5
32E
102
{ACAD_REACTORS
330
30E
102
}
100
AcDbXrecord
 10
0.0
 20
0.0
 30
0.0
  0
XRECORD
  5
32A
102
{ACAD_REACTORS
330
30E
102
}
100
AcDbXrecord
 10
0.0
 20
0.0
 30
0.0
  0
XRECORD
  5
32D
102
{ACAD_REACTORS
330
30E
102
}
100
AcDbXrecord
 10
0.0
 20
0.0
 30
0.0
  0
XRECORD
  5
32B
102
{ACAD_REACTORS
330
30E
102
}
100
AcDbXrecord
 10
0.0
 20
0.0
 30
0.0
  0
XRECORD
  5
32C
102
{ACAD_REACTORS
330
30E
102
}
100
AcDbXrecord
 10
0.0
 20
0.0
 30
0.0
  0
XRECORD
  5
329
102
{ACAD_REACTORS
330
30E
102
}
100
AcDbXrecord
 10
0.0
 20
0.0
 30
0.0
  0
XRECORD
  5
326
102
{ACAD_REACTORS
330
30E
102
}
100
AcDbXrecord
340
0
  0
XRECORD
  5
327
102
{ACAD_REACTORS
330
30E
102
}
100
AcDbXrecord
 70
     0
  0
XRECORD
  5
31A
102
{ACAD_REACTORS
330
30E
102
}
100
AcDbXrecord
  1
{420D821F-8A21-46E1-8C90-506C47980BAD}
  0
DICTIONARYVAR
  5
338
102
{ACAD_REACTORS
330
337
102
}
100
DictionaryVariables
280
     0
  1
1
  0
XRECORD
  5
332
102
{ACAD_REACTORS
330
331
102
}
100
AcDbXrecord
102
EXTNAMES
  1
MODEL
  2
Model
  0
XRECORD
  5
330
102
{ACAD_REACTORS
330
32F
102
}
100
AcDbXrecord
102
EXTNAMES
  1
STANDARD
  2
Standard
  0
ENDSEC
  0
EOF
