  0
SECTION
  2
HEADER
  9
$ACADVER
  1
AC1014
  9
$ACADMAINTVER
 70
     0
  9
$DWGCODEPAGE
  3
ANSI_932
  9
$INSBASE
 10
0.0
 20
0.0
 30
0.0
  9
$EXTMIN
 10
63.773218
 20
70.343304
 30
0.0
  9
$EXTMAX
 10
227.3736
 20
134.215301
 30
0.0
  9
$LIMMIN
 10
0.0
 20
0.0
  9
$LIMMAX
 10
297.0
 20
210.0
  9
$ORTHOMODE
 70
     0
  9
$REGENMODE
 70
     1
  9
$FILLMODE
 70
     1
  9
$QTEXTMODE
 70
     0
  9
$MIRRTEXT
 70
     1
  9
$DRAGMODE
 70
     2
  9
$LTSCALE
 40
0.25
  9
$OSMODE
 70
    37
  9
$ATTMODE
 70
     1
  9
$TEXTSIZE
 40
4.0
  9
$TRACEWID
 40
1.0
  9
$TEXTSTYLE
  7
STANDARD
  9
$CLAYER
  8
0
  9
$CELTYPE
  6
BYLAYER
  9
$CECOLOR
 62
   256
  9
$CELTSCALE
 40
1.0
  9
$DELOBJ
 70
     1
  9
$DISPSILH
 70
     0
  9
$DIMSCALE
 40
1.0
  9
$DIMASZ
 40
3.0
  9
$DIMEXO
 40
1.0
  9
$DIMDLI
 40
10.0
  9
$DIMRND
 40
0.0
  9
$DIMDLE
 40
0.0
  9
$DIMEXE
 40
1.0
  9
$DIMTP
 40
0.0
  9
$DIMTM
 40
0.0
  9
$DIMTXT
 40
3.2
  9
$DIMCEN
 40
0.0
  9
$DIMTSZ
 40
0.0
  9
$DIMTOL
 70
     0
  9
$DIMLIM
 70
     0
  9
$DIMTIH
 70
     0
  9
$DIMTOH
 70
     0
  9
$DIMSE1
 70
     0
  9
$DIMSE2
 70
     0
  9
$DIMTAD
 70
     3
  9
$DIMZIN
 70
     8
  9
$DIMBLK
  1
ARROW
  9
$DIMASO
 70
     1
  9
$DIMSHO
 70
     1
  9
$DIMPOST
  1

  9
$DIMAPOST
  1

  9
$DIMALT
 70
     0
  9
$DIMALTD
 70
     2
  9
$DIMALTF
 40
0.04
  9
$DIMLFAC
 40
1.0
  9
$DIMTOFL
 70
     1
  9
$DIMTVP
 40
1.0
  9
$DIMTIX
 70
     0
  9
$DIMSOXD
 70
     0
  9
$DIMSAH
 70
     0
  9
$DIMBLK1
  1

  9
$DIMBLK2
  1

  9
$DIMSTYLE
  2
AA1
  9
$DIMCLRD
 70
     0
  9
$DIMCLRE
 70
     0
  9
$DIMCLRT
 70
     0
  9
$DIMTFAC
 40
0.6
  9
$DIMGAP
 40
1.0
  9
$DIMJUST
 70
     0
  9
$DIMSD1
 70
     0
  9
$DIMSD2
 70
     0
  9
$DIMTOLJ
 70
     1
  9
$DIMTZIN
 70
     0
  9
$DIMALTZ
 70
     0
  9
$DIMALTTZ
 70
     0
  9
$DIMFIT
 70
     3
  9
$DIMUPT
 70
     0
  9
$DIMUNIT
 70
     2
  9
$DIMDEC
 70
     4
  9
$DIMTDEC
 70
     4
  9
$DIMALTU
 70
     2
  9
$DIMALTTD
 70
     2
  9
$DIMTXSTY
  7
STANDARD
  9
$DIMAUNIT
 70
     0
  9
$LUNITS
 70
     2
  9
$LUPREC
 70
     2
  9
$SKETCHINC
 40
1.0
  9
$FILLETRAD
 40
10.0
  9
$AUNITS
 70
     0
  9
$AUPREC
 70
     0
  9
$MENU
  1
acad
  9
$ELEVATION
 40
0.0
  9
$PELEVATION
 40
0.0
  9
$THICKNESS
 40
0.0
  9
$LIMCHECK
 70
     0
  9
$BLIPMODE
 70
     0
  9
$CHAMFERA
 40
0.0
  9
$CHAMFERB
 40
0.0
  9
$CHAMFERC
 40
0.0
  9
$CHAMFERD
 40
0.0
  9
$SKPOLY
 70
     0
  9
$TDCREATE
 40
2451466.514246875
  9
$TDUPDATE
 40
2452821.787685532
  9
$TDINDWG
 40
0.0003451389
  9
$TDUSRTIMER
 40
0.0003451389
  9
$USRTIMER
 70
     1
  9
$ANGBASE
 50
0.0
  9
$ANGDIR
 70
     0
  9
$PDMODE
 70
     1
  9
$PDSIZE
 40
0.0
  9
$PLINEWID
 40
0.0
  9
$COORDS
 70
     1
  9
$SPLFRAME
 70
     0
  9
$SPLINETYPE
 70
     6
  9
$SPLINESEGS
 70
     8
  9
$ATTDIA
 70
     0
  9
$ATTREQ
 70
     1
  9
$HANDLING
 70
     1
  9
$HANDSEED
  5
34A
  9
$SURFTAB1
 70
     6
  9
$SURFTAB2
 70
     6
  9
$SURFTYPE
 70
     6
  9
$SURFU
 70
     6
  9
$SURFV
 70
     6
  9
$UCSNAME
  2

  9
$UCSORG
 10
0.0
 20
0.0
 30
0.0
  9
$UCSXDIR
 10
1.0
 20
0.0
 30
0.0
  9
$UCSYDIR
 10
0.0
 20
1.0
 30
0.0
  9
$PUCSNAME
  2

  9
$PUCSORG
 10
0.0
 20
0.0
 30
0.0
  9
$PUCSXDIR
 10
1.0
 20
0.0
 30
0.0
  9
$PUCSYDIR
 10
0.0
 20
1.0
 30
0.0
  9
$USERI1
 70
     0
  9
$USERI2
 70
     0
  9
$USERI3
 70
     0
  9
$USERI4
 70
     0
  9
$USERI5
 70
     0
  9
$USERR1
 40
0.0
  9
$USERR2
 40
0.0
  9
$USERR3
 40
0.0
  9
$USERR4
 40
0.0
  9
$USERR5
 40
0.0
  9
$WORLDVIEW
 70
     1
  9
$SHADEDGE
 70
     3
  9
$SHADEDIF
 70
    70
  9
$TILEMODE
 70
     1
  9
$MAXACTVP
 70
    16
  9
$PINSBASE
 10
0.0
 20
0.0
 30
0.0
  9
$PLIMCHECK
 70
     0
  9
$PEXTMIN
 10
1.000000E+20
 20
1.000000E+20
 30
1.000000E+20
  9
$PEXTMAX
 10
-1.000000E+20
 20
-1.000000E+20
 30
-1.000000E+20
  9
$PLIMMIN
 10
0.0
 20
0.0
  9
$PLIMMAX
 10
420.0
 20
297.0
  9
$UNITMODE
 70
     0
  9
$VISRETAIN
 70
     0
  9
$PLINEGEN
 70
     0
  9
$PSLTSCALE
 70
     0
  9
$TREEDEPTH
 70
  3020
  9
$PICKSTYLE
 70
     1
  9
$CMLSTYLE
  2
STANDARD
  9
$CMLJUST
 70
     0
  9
$CMLSCALE
 40
1.0
  9
$PROXYGRAPHICS
 70
     1
  9
$MEASUREMENT
 70
     0
  0
ENDSEC
  0
SECTION
  2
CLASSES
  0
CLASS
  1
ACDBDICTIONARYWDFLT
  2
AcDbDictionaryWithDefault
  3
AutoCAD 2000
 90
        0
280
     0
281
     0
  0
CLASS
  1
ACDBPLACEHOLDER
  2
AcDbPlaceHolder
  3
AutoCAD 2000
 90
        0
280
     0
281
     0
  0
CLASS
  1
LAYOUT
  2
AcDbLayout
  3
AutoCAD 2000
 90
        0
280
     0
281
     0
  0
CLASS
  1
DICTIONARYVAR
  2
AcDbDictionaryVar
  3
"AutoCAD"
 90
        0
280
     0
281
     0
  0
CLASS
  1
LONG_TRANSACTION
  2
AcDbLongTransaction
  3
AutoCAD 2000
 90
        0
280
     0
281
     0
  0
CLASS
  1
LWPOLYLINE
  2
AcDbPolyline
  3
"AutoCAD"
 90
        0
280
     0
281
     1
  0
CLASS
  1
HATCH
  2
AcDbHatch
  3
"ACAD_SEDONA"
 90
        0
280
     0
281
     1
  0
CLASS
  1
XRECORD
  2
AcDbXrecord
  3
"<Built In>"
 90
        0
280
     0
281
     0
  0
ENDSEC
  0
SECTION
  2
TABLES
  0
TABLE
  2
VPORT
  5
189
100
AcDbSymbolTable
 70
     1
  0
VPORT
  5
311
102
{ACAD_XDICTIONARY
360
31A
102
}
100
AcDbSymbolTableRecord
100
AcDbViewportTableRecord
  2
*ACTIVE
 70
     0
 10
0.0
 20
0.0
 11
1.0
 21
1.0
 12
148.500001
 22
153.221306
 13
0.0
 23
0.0
 14
10.0
 24
10.0
 15
0.0
 25
0.0
 16
0.0
 26
0.0
 36
1.0
 17
0.0
 27
0.0
 37
0.0
 40
337.317527
 41
1.570997
 42
50.0
 43
0.0
 44
0.0
 50
0.0
 51
0.0
 71
     0
 72
   100
 73
     1
 74
     0
 75
     0
 76
     0
 77
     0
 78
     1
  0
ENDTAB
  0
TABLE
  2
LTYPE
  5
186
100
AcDbSymbolTable
 70
     2
  0
LTYPE
  5
194
102
{ACAD_XDICTIONARY
360
316
102
}
100
AcDbSymbolTableRecord
100
AcDbLinetypeTableRecord
  2
BYBLOCK
 70
     0
  3

 72
    65
 73
     0
 40
0.0
  0
LTYPE
  5
195
102
{ACAD_XDICTIONARY
360
318
102
}
100
AcDbSymbolTableRecord
100
AcDbLinetypeTableRecord
  2
BYLAYER
 70
     0
  3

 72
    65
 73
     0
 40
0.0
  0
LTYPE
  5
196
100
AcDbSymbolTableRecord
100
AcDbLinetypeTableRecord
  2
CONTINUOUS
 70
     0
  3
Solid line
 72
    65
 73
     0
 40
0.0
  0
LTYPE
  5
1A4
100
AcDbSymbolTableRecord
100
AcDbLinetypeTableRecord
  2
CENTER
 70
     0
  3
____ _ ____ _ ____ _ ____ _ ____ _ ____ _ ____ 
 72
    65
 73
     4
 40
50.8
 49
31.75
 74
     0
 49
-6.35
 74
     0
 49
6.35
 74
     0
 49
-6.35
 74
     0
  0
ENDTAB
  0
TABLE
  2
LAYER
  5
183
100
AcDbSymbolTable
 70
     3
  0
LAYER
  5
191
100
AcDbSymbolTableRecord
100
AcDbLayerTableRecord
  2
0
 70
     0
 62
     7
  6
CONTINUOUS
  0
LAYER
  5
1A5
100
AcDbSymbolTableRecord
100
AcDbLayerTableRecord
  2
DIMENSION
 70
     0
 62
    -4
  6
CONTINUOUS
  0
LAYER
  5
1A6
100
AcDbSymbolTableRecord
100
AcDbLayerTableRecord
  2
CENTER
 70
     0
 62
     1
  6
CENTER
  0
ENDTAB
  0
TABLE
  2
STYLE
  5
184
100
AcDbSymbolTable
 70
     1
  0
STYLE
  5
192
100
AcDbSymbolTableRecord
100
AcDbTextStyleTableRecord
  2
STANDARD
 70
     0
 40
0.0
 41
1.0
 50
0.0
 71
     0
 42
4.0
  3
txt
  4

  0
ENDTAB
  0
TABLE
  2
VIEW
  5
187
100
AcDbSymbolTable
 70
     0
  0
ENDTAB
  0
TABLE
  2
UCS
  5
188
100
AcDbSymbolTable
 70
     0
  0
ENDTAB
  0
TABLE
  2
APPID
  5
18A
100
AcDbSymbolTable
 70
     1
  0
APPID
  5
193
100
AcDbSymbolTableRecord
100
AcDbRegAppTableRecord
  2
ACAD
 70
     0
  0
ENDTAB
  0
TABLE
  2
DIMSTYLE
  5
18B
100
AcDbSymbolTable
 70
     1
  0
DIMSTYLE
105
1A7
102
{ACAD_XDICTIONARY
360
343
102
}
100
AcDbSymbolTableRecord
100
AcDbDimStyleTableRecord
  2
AA1
 70
     0
  3

  4

  5

  6

  7

 40
1.0
 41
3.0
 42
1.0
 43
10.0
 44
1.0
 45
0.0
 46
0.0
 47
0.0
 48
0.0
140
3.2
141
0.0
142
0.0
143
0.04
144
1.0
145
1.0
146
0.6
147
0.0
 71
     0
 72
     0
 73
     0
 74
     0
 75
     0
 76
     0
 77
     0
 78
     8
170
     0
171
     2
172
     1
173
     0
174
     0
175
     0
176
     0
177
     0
178
     0
270
     2
271
     2
272
     2
273
     2
274
     2
340
192
275
     0
280
     0
281
     0
282
     0
283
     1
284
     8
285
     8
286
     8
287
     5
288
     0
  0
ENDTAB
  0
TABLE
  2
BLOCK_RECORD
  5
182
100
AcDbSymbolTable
 70
     3
  0
BLOCK_RECORD
  5
19F
102
{ACAD_XDICTIONARY
360
312
102
}
100
AcDbSymbolTableRecord
100
AcDbBlockTableRecord
  2
*MODEL_SPACE
  0
BLOCK_RECORD
  5
19B
102
{ACAD_XDICTIONARY
360
314
102
}
100
AcDbSymbolTableRecord
100
AcDbBlockTableRecord
  2
*PAPER_SPACE
  0
BLOCK_RECORD
  5
1A9
100
AcDbSymbolTableRecord
100
AcDbBlockTableRecord
  2
$MODEL_SPACE
  0
BLOCK_RECORD
  5
1AC
100
AcDbSymbolTableRecord
100
AcDbBlockTableRecord
  2
$PAPER_SPACE
  0
BLOCK_RECORD
  5
1AF
100
AcDbSymbolTableRecord
100
AcDbBlockTableRecord
  2
ARROW
  0
ENDTAB
  0
ENDSEC
  0
SECTION
  2
BLOCKS
  0
BLOCK
  5
1A0
100
AcDbEntity
  8
0
100
AcDbBlockBegin
  2
*MODEL_SPACE
 70
     0
 10
0.0
 20
0.0
 30
0.0
  3
*MODEL_SPACE
  1

  0
ENDBLK
  5
1A1
100
AcDbEntity
  8
0
100
AcDbBlockEnd
  0
BLOCK
  5
19C
100
AcDbEntity
 67
     1
  8
0
100
AcDbBlockBegin
  2
*PAPER_SPACE
 70
     0
 10
0.0
 20
0.0
 30
0.0
  3
*PAPER_SPACE
  1

  0
ENDBLK
  5
19D
100
AcDbEntity
 67
     1
  8
0
100
AcDbBlockEnd
  0
BLOCK
  5
1AA
100
AcDbEntity
  8
0
100
AcDbBlockBegin
  2
$MODEL_SPACE
 70
     0
 10
0.0
 20
0.0
 30
0.0
  3
$MODEL_SPACE
  1

  0
ENDBLK
  5
1AB
100
AcDbEntity
  8
0
100
AcDbBlockEnd
  0
BLOCK
  5
1AD
100
AcDbEntity
  8
0
100
AcDbBlockBegin
  2
$PAPER_SPACE
 70
     0
 10
0.0
 20
0.0
 30
0.0
  3
$PAPER_SPACE
  1

  0
ENDBLK
  5
1AE
100
AcDbEntity
  8
0
100
AcDbBlockEnd
  0
BLOCK
  5
1B0
100
AcDbEntity
  8
0
100
AcDbBlockBegin
  2
ARROW
 70
     0
 10
0.0
 20
0.0
 30
0.0
  3
ARROW
  1

  0
LINE
  5
1B1
100
AcDbEntity
  8
DIMENSION
100
AcDbLine
 10
0.0
 20
0.0
 30
0.0
 11
-1.0
 21
0.176327
 31
0.0
  0
LINE
  5
1B2
100
AcDbEntity
  8
DIMENSION
100
AcDbLine
 10
0.0
 20
0.0
 30
0.0
 11
-1.0
 21
-0.176327
 31
0.0
  0
LINE
  5
1B3
100
AcDbEntity
  8
DIMENSION
100
AcDbLine
 10
-1.0
 20
0.0
 30
0.0
 11
0.0
 21
0.0
 31
0.0
  0
ENDBLK
  5
1B4
100
AcDbEntity
  8
0
100
AcDbBlockEnd
  0
ENDSEC
  0
SECTION
  2
ENTITIES
  0
LINE
  5
1B5
100
AcDbEntity
  8
0
100
AcDbLine
 10
80.326299
 20
88.279302
 30
0.0
 11
80.326299
 21
116.279302
 31
0.0
  0
LINE
  5
1B6
100
AcDbEntity
  8
0
100
AcDbLine
 10
70.026299
 20
117.979302
 30
0.0
 11
70.026299
 21
86.579302
 31
0.0
  0
LINE
  5
1B7
100
AcDbEntity
  8
0
100
AcDbLine
 10
71.326299
 20
117.979302
 30
0.0
 11
71.326299
 21
86.579302
 31
0.0
  0
LINE
  5
1B8
100
AcDbEntity
  8
0
100
AcDbLine
 10
111.926299
 20
117.979302
 30
0.0
 11
111.926299
 21
86.579302
 31
0.0
  0
LINE
  5
1B9
100
AcDbEntity
  8
0
100
AcDbLine
 10
110.626299
 20
117.979302
 30
0.0
 11
110.626299
 21
86.579302
 31
0.0
  0
LINE
  5
1BA
100
AcDbEntity
  8
0
100
AcDbLine
 10
113.476299
 20
84.279302
 30
0.0
 11
113.476299
 21
120.279302
 31
0.0
  0
LINE
  5
1BB
100
AcDbEntity
  8
0
100
AcDbLine
 10
101.626299
 20
88.279302
 30
0.0
 11
101.626299
 21
116.279302
 31
0.0
  0
LINE
  5
1BC
100
AcDbEntity
  8
0
100
AcDbLine
 10
68.476299
 20
84.279302
 30
0.0
 11
68.476299
 21
120.279302
 31
0.0
  0
LINE
  5
1BF
100
AcDbEntity
  8
CENTER
  6
CENTER
 62
     1
100
AcDbLine
 10
63.773218
 20
102.279302
 30
0.0
 11
117.447811
 21
102.279302
 31
0.0
  0
LINE
  5
1C0
100
AcDbEntity
  8
0
100
AcDbLine
 10
91.476299
 20
84.279302
 30
0.0
 11
113.476299
 21
84.279302
 31
0.0
  0
ARC
  5
1C1
100
AcDbEntity
  8
0
100
AcDbCircle
 10
102.626299
 20
88.279302
 30
0.0
 40
1.0
100
AcDbArc
 50
180.0
 51
270.0
  0
LINE
  5
1C2
100
AcDbEntity
  8
0
100
AcDbLine
 10
101.726299
 20
89.829322
 30
0.0
 11
102.186314
 21
89.829322
 31
0.0
  0
ARC
  5
1C3
100
AcDbEntity
  8
0
100
AcDbCircle
 10
102.259299
 20
93.729312
 30
0.0
 40
0.2
100
AcDbArc
 50
90.0
 51
180.0
  0
LINE
  5
1C4
100
AcDbEntity
  8
0
100
AcDbLine
 10
101.826299
 20
94.129322
 30
0.0
 11
102.126299
 21
94.129322
 31
0.0
  0
ARC
  5
1C5
100
AcDbEntity
  8
0
100
AcDbCircle
 10
102.626299
 20
96.279302
 30
0.0
 40
1.0
100
AcDbArc
 50
90.0
 51
180.0
  0
LINE
  5
1C6
100
AcDbEntity
  8
0
100
AcDbLine
 10
102.809279
 20
90.596242
 30
0.0
 11
102.059279
 21
91.346232
 31
0.0
  0
LINE
  5
1C7
100
AcDbEntity
  8
0
100
AcDbLine
 10
79.326299
 20
97.279302
 30
0.0
 11
72.326299
 21
97.279302
 31
0.0
  0
LINE
  5
1C8
100
AcDbEntity
  8
0
100
AcDbLine
 10
79.144452
 20
94.397734
 30
0.0
 11
78.87613
 21
93.66087
 31
0.0
  0
ARC
  5
1C9
100
AcDbEntity
  8
0
100
AcDbCircle
 10
78.688202
 20
93.729302
 30
0.0
 40
0.2
100
AcDbArc
 50
270.0
 51
339.991395
  0
ARC
  5
1CA
100
AcDbEntity
  8
0
100
AcDbCircle
 10
78.823708
 20
90.429322
 30
0.0
 40
0.1
100
AcDbArc
 50
4.996761
 51
89.999501
  0
LINE
  5
1CB
100
AcDbEntity
  8
0
100
AcDbLine
 10
79.326299
 20
87.279302
 30
0.0
 11
71.326299
 21
87.279302
 31
0.0
  0
LINE
  5
1CC
100
AcDbEntity
  8
0
100
AcDbLine
 10
68.476299
 20
84.279302
 30
0.0
 11
83.476299
 21
84.279302
 31
0.0
  0
LINE
  5
1CD
100
AcDbEntity
  8
0
100
AcDbLine
 10
71.326299
 20
86.579302
 30
0.0
 11
70.026299
 21
86.579302
 31
0.0
  0
LINE
  5
1CE
100
AcDbEntity
  8
0
100
AcDbLine
 10
70.026299
 20
87.279302
 30
0.0
 11
68.476299
 21
87.279302
 31
0.0
  0
ARC
  5
1CF
100
AcDbEntity
  8
0
100
AcDbCircle
 10
72.326299
 20
88.279302
 30
0.0
 40
1.0
100
AcDbArc
 50
180.0
 51
270.0
  0
ARC
  5
1D0
100
AcDbEntity
  8
0
100
AcDbCircle
 10
72.326299
 20
96.279302
 30
0.0
 40
1.0
100
AcDbArc
 50
90.0
 51
180.0
  0
LINE
  5
1D1
100
AcDbEntity
  8
0
100
AcDbLine
 10
72.964397
 20
93.529302
 30
0.0
 11
73.97688
 21
93.529302
 31
0.0
  0
LINE
  5
1D2
100
AcDbEntity
  8
0
100
AcDbLine
 10
72.828889
 20
90.529322
 30
0.0
 11
73.976879
 21
90.529332
 31
0.0
  0
LINE
  5
1D3
100
AcDbEntity
  8
0
100
AcDbLine
 10
71.959299
 20
91.429312
 30
0.0
 11
71.959299
 21
93.729312
 31
0.0
  0
LINE
  5
1D4
100
AcDbEntity
  8
0
100
AcDbLine
 10
71.759299
 20
91.346322
 30
0.0
 11
71.759299
 21
93.729312
 31
0.0
  0
LINE
  5
1D5
100
AcDbEntity
  8
0
100
AcDbLine
 10
71.326299
 20
89.079302
 30
0.0
 11
70.026299
 21
89.079302
 31
0.0
  0
LINE
  5
1D6
100
AcDbEntity
  8
0
100
AcDbLine
 10
72.192309
 20
90.086342
 30
0.0
 11
72.039319
 21
89.958352
 31
0.0
  0
LINE
  5
1D7
100
AcDbEntity
  8
0
100
AcDbLine
 10
72.064299
 20
90.239322
 30
0.0
 11
72.192289
 21
90.086342
 31
0.0
  0
ARC
  5
1D8
100
AcDbEntity
  8
0
100
AcDbCircle
 10
72.365752
 20
89.724636
 30
0.0
 40
0.3
100
AcDbArc
 50
219.997066
 51
355.003239
  0
LINE
  5
1D9
100
AcDbEntity
  8
0
100
AcDbLine
 10
72.039299
 20
89.958332
 30
0.0
 11
72.289626
 21
89.659982
 31
0.0
  0
ARC
  5
1DA
100
AcDbEntity
  8
0
100
AcDbCircle
 10
72.366232
 20
89.724258
 30
0.0
 40
0.1
100
AcDbArc
 50
219.997846
 51
357.180182
  0
ARC
  5
1DB
100
AcDbEntity
  8
0
100
AcDbCircle
 10
71.426299
 20
89.729322
 30
0.0
 40
0.1
100
AcDbArc
 50
90.0
 51
180.0
  0
LINE
  5
1DC
100
AcDbEntity
  8
0
100
AcDbLine
 10
72.064299
 20
90.239322
 30
0.0
 11
71.911214
 21
90.111265
 31
0.0
  0
LINE
  5
1DD
100
AcDbEntity
  8
0
100
AcDbLine
 10
71.886324
 20
89.829311
 30
0.0
 11
72.135929
 21
89.531812
 31
0.0
  0
ARC
  5
1DE
100
AcDbEntity
  8
0
100
AcDbCircle
 10
72.039539
 20
89.957861
 30
0.0
 40
0.2
100
AcDbArc
 50
129.912973
 51
219.997066
  0
LINE
  5
1DF
100
AcDbEntity
  8
0
100
AcDbLine
 10
71.426299
 20
89.829322
 30
0.0
 11
71.886314
 21
89.829322
 31
0.0
  0
LINE
  5
1E0
100
AcDbEntity
  8
0
100
AcDbLine
 10
72.509279
 20
90.596242
 30
0.0
 11
71.759279
 21
91.346232
 31
0.0
  0
LINE
  5
1E1
100
AcDbEntity
  8
0
100
AcDbLine
 10
72.709279
 20
90.679312
 30
0.0
 11
71.959279
 21
91.429312
 31
0.0
  0
ARC
  5
1E2
100
AcDbEntity
  8
0
100
AcDbCircle
 10
72.82889
 20
90.429322
 30
0.0
 40
0.1
100
AcDbArc
 50
90.000499
 51
175.003239
  0
LINE
  5
1E3
100
AcDbEntity
  8
0
100
AcDbLine
 10
72.709299
 20
90.209312
 30
0.0
 11
72.709299
 21
90.679312
 31
0.0
  0
LINE
  5
1E4
100
AcDbEntity
  8
0
100
AcDbLine
 10
72.466111
 20
89.719338
 30
0.0
 11
72.509309
 21
90.596362
 31
0.0
  0
LINE
  5
1E5
100
AcDbEntity
  8
0
100
AcDbLine
 10
72.664612
 20
89.698506
 30
0.0
 11
72.72927
 21
90.438032
 31
0.0
  0
LINE
  5
1E6
100
AcDbEntity
  8
0
100
AcDbLine
 10
72.409299
 20
93.729312
 30
0.0
 11
71.959299
 21
93.729312
 31
0.0
  0
LINE
  5
1E7
100
AcDbEntity
  8
0
100
AcDbLine
 10
71.959299
 20
93.929312
 30
0.0
 11
72.409299
 21
93.929312
 31
0.0
  0
ARC
  5
1E8
100
AcDbEntity
  8
0
100
AcDbCircle
 10
72.25513
 20
94.329302
 30
0.0
 40
0.2
100
AcDbArc
 50
90.0
 51
140.004968
  0
LINE
  5
1E9
100
AcDbEntity
  8
0
100
AcDbLine
 10
72.409299
 20
93.929312
 30
0.0
 11
72.409299
 21
93.729332
 31
0.0
  0
LINE
  5
1EA
100
AcDbEntity
  8
0
100
AcDbLine
 10
72.508146
 20
94.397734
 30
0.0
 11
72.776468
 21
93.66087
 31
0.0
  0
ARC
  5
1EB
100
AcDbEntity
  8
0
100
AcDbCircle
 10
72.320218
 20
94.329302
 30
0.0
 40
0.2
100
AcDbArc
 50
20.008605
 51
90.0
  0
LINE
  5
1EC
100
AcDbEntity
  8
0
100
AcDbLine
 10
72.25513
 20
94.529302
 30
0.0
 11
72.320218
 21
94.529302
 31
0.0
  0
ARC
  5
1ED
100
AcDbEntity
  8
0
100
AcDbCircle
 10
72.964397
 20
93.729302
 30
0.0
 40
0.2
100
AcDbArc
 50
200.008605
 51
270.0
  0
ARC
  5
1EE
100
AcDbEntity
  8
0
100
AcDbCircle
 10
71.959299
 20
93.729312
 30
0.0
 40
0.2
100
AcDbArc
 50
90.0
 51
180.0
  0
ARC
  5
1EF
100
AcDbEntity
  8
0
100
AcDbCircle
 10
71.526299
 20
94.329322
 30
0.0
 40
0.2
100
AcDbArc
 50
180.0
 51
270.0
  0
LINE
  5
1F0
100
AcDbEntity
  8
0
100
AcDbLine
 10
71.526299
 20
94.129322
 30
0.0
 11
71.826299
 21
94.129322
 31
0.0
  0
LINE
  5
1F1
100
AcDbEntity
  8
0
100
AcDbLine
 10
71.826319
 20
94.129352
 30
0.0
 11
72.10191
 21
94.457846
 31
0.0
  0
CIRCLE
  5
1F2
100
AcDbEntity
  8
0
100
AcDbCircle
 10
75.826299
 20
92.029302
 30
0.0
 40
2.38125
  0
LINE
  5
1F3
100
AcDbEntity
  8
0
100
AcDbLine
 10
78.823709
 20
90.529322
 30
0.0
 11
77.675719
 21
90.529332
 31
0.0
  0
LINE
  5
1F4
100
AcDbEntity
  8
0
100
AcDbLine
 10
78.688202
 20
93.529302
 30
0.0
 11
77.675718
 21
93.529302
 31
0.0
  0
LINE
  5
1F5
100
AcDbEntity
  8
CENTER
  6
CENTER
 62
     1
100
AcDbLine
 10
82.476299
 20
79.279302
 30
0.0
 11
92.476299
 21
79.279302
 31
0.0
  0
LINE
  5
1F6
100
AcDbEntity
  8
0
100
AcDbLine
 10
83.476299
 20
74.279302
 30
0.0
 11
91.476299
 21
74.279302
 31
0.0
  0
LINE
  5
1F7
100
AcDbEntity
  8
0
100
AcDbLine
 10
91.476299
 20
75.279302
 30
0.0
 11
87.376299
 21
75.279302
 31
0.0
  0
LINE
  5
1F8
100
AcDbEntity
  8
0
100
AcDbLine
 10
91.476299
 20
83.279302
 30
0.0
 11
87.376299
 21
83.279302
 31
0.0
  0
LINE
  5
1F9
100
AcDbEntity
  8
0
100
AcDbLine
 10
87.376299
 20
75.279302
 30
0.0
 11
87.376299
 21
83.279302
 31
0.0
  0
LINE
  5
1FA
100
AcDbEntity
  8
0
100
AcDbLine
 10
83.476299
 20
74.279302
 30
0.0
 11
83.476299
 21
84.279302
 31
0.0
  0
LINE
  5
1FB
100
AcDbEntity
  8
0
100
AcDbLine
 10
87.376299
 20
77.029302
 30
0.0
 11
83.476299
 21
77.029302
 31
0.0
  0
LINE
  5
1FC
100
AcDbEntity
  8
0
100
AcDbLine
 10
87.376299
 20
81.529302
 30
0.0
 11
83.476299
 21
81.529302
 31
0.0
  0
ARC
  5
1FD
100
AcDbEntity
  8
0
100
AcDbCircle
 10
79.326299
 20
88.279302
 30
0.0
 40
1.0
100
AcDbArc
 50
270.0
 51
360.0
  0
LINE
  5
1FE
100
AcDbEntity
  8
0
100
AcDbLine
 10
91.476299
 20
74.279302
 30
0.0
 11
91.476299
 21
84.279302
 31
0.0
  0
LINE
  5
1FF
100
AcDbEntity
  8
0
100
AcDbLine
 10
80.326299
 20
90.279302
 30
0.0
 11
101.626299
 21
90.279302
 31
0.0
  0
ARC
  5
200
100
AcDbEntity
  8
0
100
AcDbCircle
 10
79.326299
 20
96.279302
 30
0.0
 40
1.0
100
AcDbArc
 50
360.0
 51
90.0
  0
LINE
  5
201
100
AcDbEntity
  8
0
100
AcDbLine
 10
79.693299
 20
91.429312
 30
0.0
 11
79.693299
 21
93.729312
 31
0.0
  0
LINE
  5
202
100
AcDbEntity
  8
0
100
AcDbLine
 10
79.893299
 20
91.346322
 30
0.0
 11
79.893299
 21
93.729312
 31
0.0
  0
ARC
  5
203
100
AcDbEntity
  8
0
100
AcDbCircle
 10
79.613059
 20
89.957861
 30
0.0
 40
0.2
100
AcDbArc
 50
320.002934
 51
50.087027
  0
LINE
  5
204
100
AcDbEntity
  8
0
100
AcDbLine
 10
78.987986
 20
89.698506
 30
0.0
 11
78.923328
 21
90.438032
 31
0.0
  0
LINE
  5
205
100
AcDbEntity
  8
0
100
AcDbLine
 10
79.186487
 20
89.719338
 30
0.0
 11
79.143289
 21
90.596362
 31
0.0
  0
LINE
  5
206
100
AcDbEntity
  8
0
100
AcDbLine
 10
78.943299
 20
90.209312
 30
0.0
 11
78.943299
 21
90.679312
 31
0.0
  0
LINE
  5
207
100
AcDbEntity
  8
0
100
AcDbLine
 10
79.766275
 20
89.829311
 30
0.0
 11
79.516669
 21
89.531812
 31
0.0
  0
LINE
  5
208
100
AcDbEntity
  8
0
100
AcDbLine
 10
79.588299
 20
90.239322
 30
0.0
 11
79.741384
 21
90.111265
 31
0.0
  0
LINE
  5
209
100
AcDbEntity
  8
0
100
AcDbLine
 10
79.613299
 20
89.958332
 30
0.0
 11
79.362973
 21
89.659982
 31
0.0
  0
LINE
  5
20A
100
AcDbEntity
  8
0
100
AcDbLine
 10
79.588299
 20
90.239322
 30
0.0
 11
79.460309
 21
90.086342
 31
0.0
  0
LINE
  5
20B
100
AcDbEntity
  8
0
100
AcDbLine
 10
79.460289
 20
90.086342
 30
0.0
 11
79.613279
 21
89.958352
 31
0.0
  0
LINE
  5
20C
100
AcDbEntity
  8
0
100
AcDbLine
 10
78.943319
 20
90.679312
 30
0.0
 11
79.693319
 21
91.429312
 31
0.0
  0
ARC
  5
20D
100
AcDbEntity
  8
0
100
AcDbCircle
 10
79.286366
 20
89.724258
 30
0.0
 40
0.1
100
AcDbArc
 50
182.819818
 51
320.002154
  0
ARC
  5
20E
100
AcDbEntity
  8
0
100
AcDbCircle
 10
79.286846
 20
89.724636
 30
0.0
 40
0.3
100
AcDbArc
 50
184.996761
 51
320.002934
  0
ARC
  5
20F
100
AcDbEntity
  8
0
100
AcDbCircle
 10
80.226299
 20
89.729322
 30
0.0
 40
0.1
100
AcDbArc
 50
360.0
 51
90.0
  0
LINE
  5
210
100
AcDbEntity
  8
0
100
AcDbLine
 10
80.226299
 20
89.829322
 30
0.0
 11
79.766284
 21
89.829322
 31
0.0
  0
LINE
  5
211
100
AcDbEntity
  8
0
100
AcDbLine
 10
79.143319
 20
90.596242
 30
0.0
 11
79.893319
 21
91.346232
 31
0.0
  0
LINE
  5
212
100
AcDbEntity
  8
0
100
AcDbLine
 10
79.826279
 20
94.129352
 30
0.0
 11
79.550688
 21
94.457846
 31
0.0
  0
LINE
  5
213
100
AcDbEntity
  8
0
100
AcDbLine
 10
79.243299
 20
93.929312
 30
0.0
 11
79.243299
 21
93.729332
 31
0.0
  0
ARC
  5
214
100
AcDbEntity
  8
0
100
AcDbCircle
 10
79.397468
 20
94.329302
 30
0.0
 40
0.2
100
AcDbArc
 50
39.995032
 51
90.0
  0
LINE
  5
215
100
AcDbEntity
  8
0
100
AcDbLine
 10
79.397468
 20
94.529302
 30
0.0
 11
79.33238
 21
94.529302
 31
0.0
  0
ARC
  5
216
100
AcDbEntity
  8
0
100
AcDbCircle
 10
79.33238
 20
94.329302
 30
0.0
 40
0.2
100
AcDbArc
 50
90.0
 51
159.991395
  0
LINE
  5
217
100
AcDbEntity
  8
0
100
AcDbLine
 10
79.693299
 20
93.929312
 30
0.0
 11
79.243299
 21
93.929312
 31
0.0
  0
LINE
  5
218
100
AcDbEntity
  8
0
100
AcDbLine
 10
79.243299
 20
93.729312
 30
0.0
 11
79.693299
 21
93.729312
 31
0.0
  0
ARC
  5
219
100
AcDbEntity
  8
0
100
AcDbCircle
 10
80.126299
 20
94.329322
 30
0.0
 40
0.2
100
AcDbArc
 50
270.0
 51
360.0
  0
ARC
  5
21A
100
AcDbEntity
  8
0
100
AcDbCircle
 10
79.693299
 20
93.729312
 30
0.0
 40
0.2
100
AcDbArc
 50
360.0
 51
90.0
  0
LINE
  5
21B
100
AcDbEntity
  8
0
100
AcDbLine
 10
80.126299
 20
94.129322
 30
0.0
 11
79.826299
 21
94.129322
 31
0.0
  0
LINE
  5
21C
100
AcDbEntity
  8
0
100
AcDbLine
 10
102.059299
 20
91.346322
 30
0.0
 11
102.059299
 21
93.729312
 31
0.0
  0
ARC
  5
21D
100
AcDbEntity
  8
0
100
AcDbCircle
 10
101.726299
 20
89.729322
 30
0.0
 40
0.1
100
AcDbArc
 50
90.0
 51
180.0
  0
ARC
  5
21E
100
AcDbEntity
  8
0
100
AcDbCircle
 10
101.826299
 20
94.329322
 30
0.0
 40
0.2
100
AcDbArc
 50
180.0
 51
270.0
  0
LINE
  5
21F
100
AcDbEntity
  8
0
100
AcDbLine
 10
102.626299
 20
87.279302
 30
0.0
 11
110.626299
 21
87.279302
 31
0.0
  0
LINE
  5
220
100
AcDbEntity
  8
0
100
AcDbLine
 10
110.626299
 20
86.579302
 30
0.0
 11
111.926299
 21
86.579302
 31
0.0
  0
ARC
  5
221
100
AcDbEntity
  8
0
100
AcDbCircle
 10
109.626299
 20
88.279302
 30
0.0
 40
1.0
100
AcDbArc
 50
270.0
 51
0.0
  0
LINE
  5
222
100
AcDbEntity
  8
0
100
AcDbLine
 10
111.926299
 20
87.279302
 30
0.0
 11
113.476299
 21
87.279302
 31
0.0
  0
ARC
  5
223
100
AcDbEntity
  8
0
100
AcDbCircle
 10
109.626299
 20
96.279302
 30
0.0
 40
1.0
100
AcDbArc
 50
0.0
 51
90.0
  0
CIRCLE
  5
224
100
AcDbEntity
  8
0
100
AcDbCircle
 10
106.126299
 20
92.029302
 30
0.0
 40
2.38125
  0
LINE
  5
225
100
AcDbEntity
  8
0
100
AcDbLine
 10
102.259299
 20
91.429312
 30
0.0
 11
102.259299
 21
93.729312
 31
0.0
  0
LINE
  5
226
100
AcDbEntity
  8
0
100
AcDbLine
 10
103.128889
 20
90.529322
 30
0.0
 11
104.276879
 21
90.529332
 31
0.0
  0
ARC
  5
227
100
AcDbEntity
  8
0
100
AcDbCircle
 10
103.12889
 20
90.429322
 30
0.0
 40
0.1
100
AcDbArc
 50
90.000499
 51
175.003239
  0
LINE
  5
228
100
AcDbEntity
  8
0
100
AcDbLine
 10
102.964612
 20
89.698506
 30
0.0
 11
103.02927
 21
90.438032
 31
0.0
  0
LINE
  5
229
100
AcDbEntity
  8
0
100
AcDbLine
 10
102.766111
 20
89.719338
 30
0.0
 11
102.809309
 21
90.596362
 31
0.0
  0
LINE
  5
22A
100
AcDbEntity
  8
0
100
AcDbLine
 10
103.009299
 20
90.209312
 30
0.0
 11
103.009299
 21
90.679312
 31
0.0
  0
ARC
  5
22B
100
AcDbEntity
  8
0
100
AcDbCircle
 10
102.339539
 20
89.957861
 30
0.0
 40
0.2
100
AcDbArc
 50
129.912973
 51
219.997066
  0
LINE
  5
22C
100
AcDbEntity
  8
0
100
AcDbLine
 10
102.186324
 20
89.829311
 30
0.0
 11
102.435929
 21
89.531812
 31
0.0
  0
LINE
  5
22D
100
AcDbEntity
  8
0
100
AcDbLine
 10
102.364299
 20
90.239322
 30
0.0
 11
102.211214
 21
90.111265
 31
0.0
  0
LINE
  5
22E
100
AcDbEntity
  8
0
100
AcDbLine
 10
102.339299
 20
89.958332
 30
0.0
 11
102.589626
 21
89.659982
 31
0.0
  0
LINE
  5
22F
100
AcDbEntity
  8
0
100
AcDbLine
 10
102.364299
 20
90.239322
 30
0.0
 11
102.492289
 21
90.086342
 31
0.0
  0
LINE
  5
230
100
AcDbEntity
  8
0
100
AcDbLine
 10
102.492309
 20
90.086342
 30
0.0
 11
102.339319
 21
89.958352
 31
0.0
  0
LINE
  5
231
100
AcDbEntity
  8
0
100
AcDbLine
 10
103.009279
 20
90.679312
 30
0.0
 11
102.259279
 21
91.429312
 31
0.0
  0
ARC
  5
232
100
AcDbEntity
  8
0
100
AcDbCircle
 10
102.666232
 20
89.724258
 30
0.0
 40
0.1
100
AcDbArc
 50
219.997846
 51
357.180182
  0
ARC
  5
233
100
AcDbEntity
  8
0
100
AcDbCircle
 10
102.665752
 20
89.724636
 30
0.0
 40
0.3
100
AcDbArc
 50
219.997066
 51
355.003239
  0
LINE
  5
234
100
AcDbEntity
  8
0
100
AcDbLine
 10
103.264397
 20
93.529302
 30
0.0
 11
104.27688
 21
93.529302
 31
0.0
  0
LINE
  5
235
100
AcDbEntity
  8
0
100
AcDbLine
 10
102.808146
 20
94.397734
 30
0.0
 11
103.076468
 21
93.66087
 31
0.0
  0
LINE
  5
236
100
AcDbEntity
  8
0
100
AcDbLine
 10
102.709299
 20
93.929312
 30
0.0
 11
102.709299
 21
93.729332
 31
0.0
  0
ARC
  5
237
100
AcDbEntity
  8
0
100
AcDbCircle
 10
103.264397
 20
93.729302
 30
0.0
 40
0.2
100
AcDbArc
 50
200.008605
 51
270.0
  0
ARC
  5
238
100
AcDbEntity
  8
0
100
AcDbCircle
 10
102.55513
 20
94.329302
 30
0.0
 40
0.2
100
AcDbArc
 50
90.0
 51
140.004968
  0
LINE
  5
239
100
AcDbEntity
  8
0
100
AcDbLine
 10
102.126319
 20
94.129352
 30
0.0
 11
102.40191
 21
94.457846
 31
0.0
  0
LINE
  5
23A
100
AcDbEntity
  8
0
100
AcDbLine
 10
102.55513
 20
94.529302
 30
0.0
 11
102.620218
 21
94.529302
 31
0.0
  0
ARC
  5
23B
100
AcDbEntity
  8
0
100
AcDbCircle
 10
102.620218
 20
94.329302
 30
0.0
 40
0.2
100
AcDbArc
 50
20.008605
 51
90.0
  0
LINE
  5
23C
100
AcDbEntity
  8
0
100
AcDbLine
 10
102.259299
 20
93.929312
 30
0.0
 11
102.709299
 21
93.929312
 31
0.0
  0
LINE
  5
23D
100
AcDbEntity
  8
0
100
AcDbLine
 10
102.709299
 20
93.729312
 30
0.0
 11
102.259299
 21
93.729312
 31
0.0
  0
LINE
  5
23E
100
AcDbEntity
  8
0
100
AcDbLine
 10
109.993299
 20
91.429312
 30
0.0
 11
109.993299
 21
93.729312
 31
0.0
  0
LINE
  5
23F
100
AcDbEntity
  8
0
100
AcDbLine
 10
110.193299
 20
91.346322
 30
0.0
 11
110.193299
 21
93.729312
 31
0.0
  0
LINE
  5
240
100
AcDbEntity
  8
0
100
AcDbLine
 10
110.626299
 20
89.079302
 30
0.0
 11
111.926299
 21
89.079302
 31
0.0
  0
LINE
  5
241
100
AcDbEntity
  8
0
100
AcDbLine
 10
109.760289
 20
90.086342
 30
0.0
 11
109.913279
 21
89.958352
 31
0.0
  0
LINE
  5
242
100
AcDbEntity
  8
0
100
AcDbLine
 10
109.888299
 20
90.239322
 30
0.0
 11
109.760309
 21
90.086342
 31
0.0
  0
ARC
  5
243
100
AcDbEntity
  8
0
100
AcDbCircle
 10
109.586846
 20
89.724636
 30
0.0
 40
0.3
100
AcDbArc
 50
184.996761
 51
320.002934
  0
LINE
  5
244
100
AcDbEntity
  8
0
100
AcDbLine
 10
109.913299
 20
89.958332
 30
0.0
 11
109.662973
 21
89.659982
 31
0.0
  0
ARC
  5
245
100
AcDbEntity
  8
0
100
AcDbCircle
 10
109.586366
 20
89.724258
 30
0.0
 40
0.1
100
AcDbArc
 50
182.819818
 51
320.002154
  0
ARC
  5
246
100
AcDbEntity
  8
0
100
AcDbCircle
 10
110.526299
 20
89.729322
 30
0.0
 40
0.1
100
AcDbArc
 50
0.0
 51
90.0
  0
LINE
  5
247
100
AcDbEntity
  8
0
100
AcDbLine
 10
109.888299
 20
90.239322
 30
0.0
 11
110.041384
 21
90.111265
 31
0.0
  0
LINE
  5
248
100
AcDbEntity
  8
0
100
AcDbLine
 10
110.066275
 20
89.829311
 30
0.0
 11
109.816669
 21
89.531812
 31
0.0
  0
ARC
  5
249
100
AcDbEntity
  8
0
100
AcDbCircle
 10
109.913059
 20
89.957861
 30
0.0
 40
0.2
100
AcDbArc
 50
320.002934
 51
50.087027
  0
LINE
  5
24A
100
AcDbEntity
  8
0
100
AcDbLine
 10
110.526299
 20
89.829322
 30
0.0
 11
110.066284
 21
89.829322
 31
0.0
  0
LINE
  5
24B
100
AcDbEntity
  8
0
100
AcDbLine
 10
109.443319
 20
90.596242
 30
0.0
 11
110.193319
 21
91.346232
 31
0.0
  0
LINE
  5
24C
100
AcDbEntity
  8
0
100
AcDbLine
 10
109.243319
 20
90.679312
 30
0.0
 11
109.993319
 21
91.429312
 31
0.0
  0
ARC
  5
24D
100
AcDbEntity
  8
0
100
AcDbCircle
 10
109.123708
 20
90.429322
 30
0.0
 40
0.1
100
AcDbArc
 50
4.996761
 51
89.999501
  0
LINE
  5
24E
100
AcDbEntity
  8
0
100
AcDbLine
 10
109.123709
 20
90.529322
 30
0.0
 11
107.975719
 21
90.529332
 31
0.0
  0
LINE
  5
24F
100
AcDbEntity
  8
0
100
AcDbLine
 10
109.243299
 20
90.209312
 30
0.0
 11
109.243299
 21
90.679312
 31
0.0
  0
LINE
  5
250
100
AcDbEntity
  8
0
100
AcDbLine
 10
109.486487
 20
89.719338
 30
0.0
 11
109.443289
 21
90.596362
 31
0.0
  0
LINE
  5
251
100
AcDbEntity
  8
0
100
AcDbLine
 10
109.287986
 20
89.698506
 30
0.0
 11
109.223328
 21
90.438032
 31
0.0
  0
LINE
  5
252
100
AcDbEntity
  8
0
100
AcDbLine
 10
109.543299
 20
93.729312
 30
0.0
 11
109.993299
 21
93.729312
 31
0.0
  0
LINE
  5
253
100
AcDbEntity
  8
0
100
AcDbLine
 10
109.993299
 20
93.929312
 30
0.0
 11
109.543299
 21
93.929312
 31
0.0
  0
ARC
  5
254
100
AcDbEntity
  8
0
100
AcDbCircle
 10
109.697468
 20
94.329302
 30
0.0
 40
0.2
100
AcDbArc
 50
39.995032
 51
90.0
  0
LINE
  5
255
100
AcDbEntity
  8
0
100
AcDbLine
 10
109.543299
 20
93.929312
 30
0.0
 11
109.543299
 21
93.729332
 31
0.0
  0
LINE
  5
256
100
AcDbEntity
  8
0
100
AcDbLine
 10
109.444452
 20
94.397734
 30
0.0
 11
109.17613
 21
93.66087
 31
0.0
  0
ARC
  5
257
100
AcDbEntity
  8
0
100
AcDbCircle
 10
109.63238
 20
94.329302
 30
0.0
 40
0.2
100
AcDbArc
 50
90.0
 51
159.991395
  0
LINE
  5
258
100
AcDbEntity
  8
0
100
AcDbLine
 10
109.697468
 20
94.529302
 30
0.0
 11
109.63238
 21
94.529302
 31
0.0
  0
ARC
  5
259
100
AcDbEntity
  8
0
100
AcDbCircle
 10
108.988202
 20
93.729302
 30
0.0
 40
0.2
100
AcDbArc
 50
270.0
 51
339.991395
  0
ARC
  5
25A
100
AcDbEntity
  8
0
100
AcDbCircle
 10
109.993299
 20
93.729312
 30
0.0
 40
0.2
100
AcDbArc
 50
0.0
 51
90.0
  0
ARC
  5
25B
100
AcDbEntity
  8
0
100
AcDbCircle
 10
110.426299
 20
94.329322
 30
0.0
 40
0.2
100
AcDbArc
 50
270.0
 51
0.0
  0
LINE
  5
25C
100
AcDbEntity
  8
0
100
AcDbLine
 10
110.426299
 20
94.129322
 30
0.0
 11
110.126299
 21
94.129322
 31
0.0
  0
LINE
  5
25D
100
AcDbEntity
  8
0
100
AcDbLine
 10
110.126279
 20
94.129352
 30
0.0
 11
109.850688
 21
94.457846
 31
0.0
  0
LINE
  5
25E
100
AcDbEntity
  8
0
100
AcDbLine
 10
108.988202
 20
93.529302
 30
0.0
 11
107.975718
 21
93.529302
 31
0.0
  0
LINE
  5
25F
100
AcDbEntity
  8
0
100
AcDbLine
 10
102.626299
 20
97.279302
 30
0.0
 11
109.626299
 21
97.279302
 31
0.0
  0
LINE
  5
260
100
AcDbEntity
  8
0
100
AcDbLine
 10
91.476299
 20
120.279302
 30
0.0
 11
113.476299
 21
120.279302
 31
0.0
  0
LINE
  5
261
100
AcDbEntity
  8
0
100
AcDbLine
 10
101.726299
 20
114.729282
 30
0.0
 11
102.186314
 21
114.729282
 31
0.0
  0
LINE
  5
262
100
AcDbEntity
  8
0
100
AcDbLine
 10
101.826299
 20
110.429282
 30
0.0
 11
102.126299
 21
110.429282
 31
0.0
  0
ARC
  5
263
100
AcDbEntity
  8
0
100
AcDbCircle
 10
102.259299
 20
110.829292
 30
0.0
 40
0.2
100
AcDbArc
 50
180.0
 51
270.0
  0
LINE
  5
264
100
AcDbEntity
  8
0
100
AcDbLine
 10
102.809279
 20
113.962362
 30
0.0
 11
102.059279
 21
113.212372
 31
0.0
  0
ARC
  5
265
100
AcDbEntity
  8
0
100
AcDbCircle
 10
102.626299
 20
108.279302
 30
0.0
 40
1.0
100
AcDbArc
 50
180.0
 51
270.0
  0
ARC
  5
266
100
AcDbEntity
  8
0
100
AcDbCircle
 10
102.626299
 20
116.279302
 30
0.0
 40
1.0
100
AcDbArc
 50
90.0
 51
180.0
  0
ARC
  5
267
100
AcDbEntity
  8
0
100
AcDbCircle
 10
78.823708
 20
114.129282
 30
0.0
 40
0.1
100
AcDbArc
 50
270.000499
 51
355.003239
  0
LINE
  5
268
100
AcDbEntity
  8
0
100
AcDbLine
 10
79.326299
 20
117.279302
 30
0.0
 11
71.326299
 21
117.279302
 31
0.0
  0
ARC
  5
269
100
AcDbEntity
  8
0
100
AcDbCircle
 10
78.688202
 20
110.829302
 30
0.0
 40
0.2
100
AcDbArc
 50
20.008605
 51
90.0
  0
LINE
  5
26A
100
AcDbEntity
  8
0
100
AcDbLine
 10
79.144452
 20
110.16087
 30
0.0
 11
78.87613
 21
110.897734
 31
0.0
  0
LINE
  5
26B
100
AcDbEntity
  8
0
100
AcDbLine
 10
79.326299
 20
107.279302
 30
0.0
 11
72.326299
 21
107.279302
 31
0.0
  0
LINE
  5
26C
100
AcDbEntity
  8
0
100
AcDbLine
 10
68.476299
 20
120.279302
 30
0.0
 11
83.476299
 21
120.279302
 31
0.0
  0
LINE
  5
26D
100
AcDbEntity
  8
0
100
AcDbLine
 10
71.759299
 20
113.212282
 30
0.0
 11
71.759299
 21
110.829292
 31
0.0
  0
CIRCLE
  5
26E
100
AcDbEntity
  8
0
100
AcDbCircle
 10
75.826299
 20
112.529302
 30
0.0
 40
2.38125
  0
LINE
  5
26F
100
AcDbEntity
  8
0
100
AcDbLine
 10
72.709279
 20
113.879292
 30
0.0
 11
71.959279
 21
113.129292
 31
0.0
  0
LINE
  5
270
100
AcDbEntity
  8
0
100
AcDbLine
 10
72.964397
 20
111.029302
 30
0.0
 11
73.97688
 21
111.029302
 31
0.0
  0
ARC
  5
271
100
AcDbEntity
  8
0
100
AcDbCircle
 10
72.326299
 20
108.279302
 30
0.0
 40
1.0
100
AcDbArc
 50
180.0
 51
270.0
  0
LINE
  5
272
100
AcDbEntity
  8
0
100
AcDbLine
 10
71.959299
 20
113.129292
 30
0.0
 11
71.959299
 21
110.829292
 31
0.0
  0
LINE
  5
273
100
AcDbEntity
  8
0
100
AcDbLine
 10
71.826319
 20
110.429252
 30
0.0
 11
72.10191
 21
110.100758
 31
0.0
  0
LINE
  5
274
100
AcDbEntity
  8
0
100
AcDbLine
 10
71.526299
 20
110.429282
 30
0.0
 11
71.826299
 21
110.429282
 31
0.0
  0
ARC
  5
275
100
AcDbEntity
  8
0
100
AcDbCircle
 10
71.526299
 20
110.229282
 30
0.0
 40
0.2
100
AcDbArc
 50
90.0
 51
180.0
  0
ARC
  5
276
100
AcDbEntity
  8
0
100
AcDbCircle
 10
71.959299
 20
110.829292
 30
0.0
 40
0.2
100
AcDbArc
 50
180.0
 51
270.0
  0
ARC
  5
277
100
AcDbEntity
  8
0
100
AcDbCircle
 10
72.964397
 20
110.829302
 30
0.0
 40
0.2
100
AcDbArc
 50
90.0
 51
159.991395
  0
LINE
  5
278
100
AcDbEntity
  8
0
100
AcDbLine
 10
72.25513
 20
110.029302
 30
0.0
 11
72.320218
 21
110.029302
 31
0.0
  0
ARC
  5
279
100
AcDbEntity
  8
0
100
AcDbCircle
 10
72.320218
 20
110.229302
 30
0.0
 40
0.2
100
AcDbArc
 50
270.0
 51
339.991395
  0
LINE
  5
27A
100
AcDbEntity
  8
0
100
AcDbLine
 10
72.508146
 20
110.16087
 30
0.0
 11
72.776468
 21
110.897734
 31
0.0
  0
LINE
  5
27B
100
AcDbEntity
  8
0
100
AcDbLine
 10
72.409299
 20
110.629292
 30
0.0
 11
72.409299
 21
110.829272
 31
0.0
  0
ARC
  5
27C
100
AcDbEntity
  8
0
100
AcDbCircle
 10
72.25513
 20
110.229302
 30
0.0
 40
0.2
100
AcDbArc
 50
219.995032
 51
270.0
  0
LINE
  5
27D
100
AcDbEntity
  8
0
100
AcDbLine
 10
71.959299
 20
110.629292
 30
0.0
 11
72.409299
 21
110.629292
 31
0.0
  0
LINE
  5
27E
100
AcDbEntity
  8
0
100
AcDbLine
 10
72.409299
 20
110.829292
 30
0.0
 11
71.959299
 21
110.829292
 31
0.0
  0
LINE
  5
27F
100
AcDbEntity
  8
0
100
AcDbLine
 10
78.688202
 20
111.029302
 30
0.0
 11
77.675718
 21
111.029302
 31
0.0
  0
LINE
  5
280
100
AcDbEntity
  8
0
100
AcDbLine
 10
72.828889
 20
114.029282
 30
0.0
 11
73.976879
 21
114.029272
 31
0.0
  0
ARC
  5
281
100
AcDbEntity
  8
0
100
AcDbCircle
 10
72.326299
 20
116.279302
 30
0.0
 40
1.0
100
AcDbArc
 50
90.0
 51
180.0
  0
LINE
  5
282
100
AcDbEntity
  8
0
100
AcDbLine
 10
71.326299
 20
115.479302
 30
0.0
 11
70.026299
 21
115.479302
 31
0.0
  0
LINE
  5
283
100
AcDbEntity
  8
0
100
AcDbLine
 10
70.026299
 20
117.279302
 30
0.0
 11
68.476299
 21
117.279302
 31
0.0
  0
LINE
  5
284
100
AcDbEntity
  8
0
100
AcDbLine
 10
71.426299
 20
114.729282
 30
0.0
 11
71.886314
 21
114.729282
 31
0.0
  0
ARC
  5
285
100
AcDbEntity
  8
0
100
AcDbCircle
 10
72.039539
 20
114.600744
 30
0.0
 40
0.2
100
AcDbArc
 50
140.002934
 51
230.087027
  0
LINE
  5
286
100
AcDbEntity
  8
0
100
AcDbLine
 10
71.886324
 20
114.729293
 30
0.0
 11
72.135929
 21
115.026793
 31
0.0
  0
LINE
  5
287
100
AcDbEntity
  8
0
100
AcDbLine
 10
72.064299
 20
114.319282
 30
0.0
 11
71.911214
 21
114.44734
 31
0.0
  0
ARC
  5
288
100
AcDbEntity
  8
0
100
AcDbCircle
 10
71.426299
 20
114.829282
 30
0.0
 40
0.1
100
AcDbArc
 50
180.0
 51
270.0
  0
LINE
  5
289
100
AcDbEntity
  8
0
100
AcDbLine
 10
72.664612
 20
114.860098
 30
0.0
 11
72.72927
 21
114.120572
 31
0.0
  0
LINE
  5
28A
100
AcDbEntity
  8
0
100
AcDbLine
 10
72.466111
 20
114.839266
 30
0.0
 11
72.509309
 21
113.962242
 31
0.0
  0
LINE
  5
28B
100
AcDbEntity
  8
0
100
AcDbLine
 10
72.709299
 20
114.349292
 30
0.0
 11
72.709299
 21
113.879292
 31
0.0
  0
ARC
  5
28C
100
AcDbEntity
  8
0
100
AcDbCircle
 10
72.366232
 20
114.834347
 30
0.0
 40
0.1
100
AcDbArc
 50
2.819818
 51
140.002154
  0
ARC
  5
28D
100
AcDbEntity
  8
0
100
AcDbCircle
 10
72.82889
 20
114.129282
 30
0.0
 40
0.1
100
AcDbArc
 50
184.996761
 51
269.999501
  0
LINE
  5
28E
100
AcDbEntity
  8
0
100
AcDbLine
 10
72.039299
 20
114.600272
 30
0.0
 11
72.289626
 21
114.898622
 31
0.0
  0
ARC
  5
28F
100
AcDbEntity
  8
0
100
AcDbCircle
 10
72.365752
 20
114.833968
 30
0.0
 40
0.3
100
AcDbArc
 50
4.996761
 51
140.002934
  0
LINE
  5
290
100
AcDbEntity
  8
0
100
AcDbLine
 10
72.064299
 20
114.319282
 30
0.0
 11
72.192289
 21
114.472262
 31
0.0
  0
LINE
  5
291
100
AcDbEntity
  8
0
100
AcDbLine
 10
72.192309
 20
114.472262
 30
0.0
 11
72.039319
 21
114.600252
 31
0.0
  0
LINE
  5
292
100
AcDbEntity
  8
0
100
AcDbLine
 10
72.509279
 20
113.962362
 30
0.0
 11
71.759279
 21
113.212372
 31
0.0
  0
LINE
  5
293
100
AcDbEntity
  8
0
100
AcDbLine
 10
71.326299
 20
117.979302
 30
0.0
 11
70.026299
 21
117.979302
 31
0.0
  0
LINE
  5
294
100
AcDbEntity
  8
0
100
AcDbLine
 10
78.823709
 20
114.029282
 30
0.0
 11
77.675719
 21
114.029272
 31
0.0
  0
LINE
  5
295
100
AcDbEntity
  8
0
100
AcDbLine
 10
91.476299
 20
130.279302
 30
0.0
 11
91.476299
 21
120.279302
 31
0.0
  0
LINE
  5
296
100
AcDbEntity
  8
0
100
AcDbLine
 10
87.376299
 20
129.279302
 30
0.0
 11
87.376299
 21
121.279302
 31
0.0
  0
LINE
  5
297
100
AcDbEntity
  8
0
100
AcDbLine
 10
83.476299
 20
130.279302
 30
0.0
 11
83.476299
 21
120.279302
 31
0.0
  0
LINE
  5
298
100
AcDbEntity
  8
0
100
AcDbLine
 10
80.326299
 20
114.279302
 30
0.0
 11
101.626299
 21
114.279302
 31
0.0
  0
LINE
  5
299
100
AcDbEntity
  8
0
100
AcDbLine
 10
91.476299
 20
121.279302
 30
0.0
 11
87.376299
 21
121.279302
 31
0.0
  0
LINE
  5
29A
100
AcDbEntity
  8
0
100
AcDbLine
 10
78.943319
 20
113.879292
 30
0.0
 11
79.693319
 21
113.129292
 31
0.0
  0
LINE
  5
29B
100
AcDbEntity
  8
0
100
AcDbLine
 10
79.893299
 20
113.212282
 30
0.0
 11
79.893299
 21
110.829292
 31
0.0
  0
ARC
  5
29C
100
AcDbEntity
  8
0
100
AcDbCircle
 10
79.326299
 20
108.279302
 30
0.0
 40
1.0
100
AcDbArc
 50
270.0
 51
0.0
  0
LINE
  5
29D
100
AcDbEntity
  8
0
100
AcDbLine
 10
79.826279
 20
110.429252
 30
0.0
 11
79.550688
 21
110.100758
 31
0.0
  0
LINE
  5
29E
100
AcDbEntity
  8
0
100
AcDbLine
 10
79.693299
 20
113.129292
 30
0.0
 11
79.693299
 21
110.829292
 31
0.0
  0
LINE
  5
29F
100
AcDbEntity
  8
0
100
AcDbLine
 10
79.243299
 20
110.829292
 30
0.0
 11
79.693299
 21
110.829292
 31
0.0
  0
LINE
  5
2A0
100
AcDbEntity
  8
0
100
AcDbLine
 10
79.397468
 20
110.029302
 30
0.0
 11
79.33238
 21
110.029302
 31
0.0
  0
ARC
  5
2A1
100
AcDbEntity
  8
0
100
AcDbCircle
 10
79.397468
 20
110.229302
 30
0.0
 40
0.2
100
AcDbArc
 50
270.0
 51
320.004968
  0
LINE
  5
2A2
100
AcDbEntity
  8
0
100
AcDbLine
 10
79.693299
 20
110.629292
 30
0.0
 11
79.243299
 21
110.629292
 31
0.0
  0
ARC
  5
2A3
100
AcDbEntity
  8
0
100
AcDbCircle
 10
79.33238
 20
110.229302
 30
0.0
 40
0.2
100
AcDbArc
 50
200.008605
 51
270.0
  0
LINE
  5
2A4
100
AcDbEntity
  8
0
100
AcDbLine
 10
79.243299
 20
110.629292
 30
0.0
 11
79.243299
 21
110.829272
 31
0.0
  0
ARC
  5
2A5
100
AcDbEntity
  8
0
100
AcDbCircle
 10
80.126299
 20
110.229282
 30
0.0
 40
0.2
100
AcDbArc
 50
0.0
 51
90.0
  0
ARC
  5
2A6
100
AcDbEntity
  8
0
100
AcDbCircle
 10
79.693299
 20
110.829292
 30
0.0
 40
0.2
100
AcDbArc
 50
270.0
 51
0.0
  0
LINE
  5
2A7
100
AcDbEntity
  8
0
100
AcDbLine
 10
80.126299
 20
110.429282
 30
0.0
 11
79.826299
 21
110.429282
 31
0.0
  0
ARC
  5
2A8
100
AcDbEntity
  8
0
100
AcDbCircle
 10
79.326299
 20
116.279302
 30
0.0
 40
1.0
100
AcDbArc
 50
0.0
 51
90.0
  0
ARC
  5
2A9
100
AcDbEntity
  8
0
100
AcDbCircle
 10
79.613059
 20
114.600744
 30
0.0
 40
0.2
100
AcDbArc
 50
309.912973
 51
39.997066
  0
LINE
  5
2AA
100
AcDbEntity
  8
0
100
AcDbLine
 10
78.943299
 20
114.349292
 30
0.0
 11
78.943299
 21
113.879292
 31
0.0
  0
LINE
  5
2AB
100
AcDbEntity
  8
0
100
AcDbLine
 10
79.186487
 20
114.839266
 30
0.0
 11
79.143289
 21
113.962242
 31
0.0
  0
LINE
  5
2AC
100
AcDbEntity
  8
0
100
AcDbLine
 10
78.987986
 20
114.860098
 30
0.0
 11
78.923328
 21
114.120572
 31
0.0
  0
LINE
  5
2AD
100
AcDbEntity
  8
0
100
AcDbLine
 10
79.460289
 20
114.472262
 30
0.0
 11
79.613279
 21
114.600252
 31
0.0
  0
LINE
  5
2AE
100
AcDbEntity
  8
0
100
AcDbLine
 10
79.588299
 20
114.319282
 30
0.0
 11
79.460309
 21
114.472262
 31
0.0
  0
LINE
  5
2AF
100
AcDbEntity
  8
0
100
AcDbLine
 10
79.613299
 20
114.600272
 30
0.0
 11
79.362973
 21
114.898622
 31
0.0
  0
LINE
  5
2B0
100
AcDbEntity
  8
0
100
AcDbLine
 10
79.588299
 20
114.319282
 30
0.0
 11
79.741384
 21
114.44734
 31
0.0
  0
LINE
  5
2B1
100
AcDbEntity
  8
0
100
AcDbLine
 10
79.766275
 20
114.729293
 30
0.0
 11
79.516669
 21
115.026793
 31
0.0
  0
ARC
  5
2B2
100
AcDbEntity
  8
0
100
AcDbCircle
 10
79.286846
 20
114.833968
 30
0.0
 40
0.3
100
AcDbArc
 50
39.997066
 51
175.003239
  0
ARC
  5
2B3
100
AcDbEntity
  8
0
100
AcDbCircle
 10
79.286366
 20
114.834347
 30
0.0
 40
0.1
100
AcDbArc
 50
39.997846
 51
177.180182
  0
ARC
  5
2B4
100
AcDbEntity
  8
0
100
AcDbCircle
 10
80.226299
 20
114.829282
 30
0.0
 40
0.1
100
AcDbArc
 50
270.0
 51
0.0
  0
LINE
  5
2B5
100
AcDbEntity
  8
0
100
AcDbLine
 10
80.226299
 20
114.729282
 30
0.0
 11
79.766284
 21
114.729282
 31
0.0
  0
LINE
  5
2B6
100
AcDbEntity
  8
0
100
AcDbLine
 10
79.143319
 20
113.962362
 30
0.0
 11
79.893319
 21
113.212372
 31
0.0
  0
LINE
  5
2B7
100
AcDbEntity
  8
0
100
AcDbLine
 10
102.059299
 20
113.212282
 30
0.0
 11
102.059299
 21
110.829292
 31
0.0
  0
ARC
  5
2B8
100
AcDbEntity
  8
0
100
AcDbCircle
 10
101.826299
 20
110.229282
 30
0.0
 40
0.2
100
AcDbArc
 50
90.0
 51
180.0
  0
ARC
  5
2B9
100
AcDbEntity
  8
0
100
AcDbCircle
 10
101.726299
 20
114.829282
 30
0.0
 40
0.1
100
AcDbArc
 50
180.0
 51
270.0
  0
LINE
  5
2BA
100
AcDbEntity
  8
CENTER
  6
CENTER
 62
     1
100
AcDbLine
 10
82.476299
 20
125.279302
 30
0.0
 11
92.476299
 21
125.279302
 31
0.0
  0
LINE
  5
2BB
100
AcDbEntity
  8
0
100
AcDbLine
 10
91.476299
 20
129.279302
 30
0.0
 11
87.376299
 21
129.279302
 31
0.0
  0
LINE
  5
2BC
100
AcDbEntity
  8
0
100
AcDbLine
 10
83.476299
 20
130.279302
 30
0.0
 11
91.476299
 21
130.279302
 31
0.0
  0
LINE
  5
2BD
100
AcDbEntity
  8
0
100
AcDbLine
 10
87.376299
 20
127.529302
 30
0.0
 11
83.476299
 21
127.529302
 31
0.0
  0
LINE
  5
2BE
100
AcDbEntity
  8
0
100
AcDbLine
 10
87.376299
 20
123.029302
 30
0.0
 11
83.476299
 21
123.029302
 31
0.0
  0
LINE
  5
2BF
100
AcDbEntity
  8
0
100
AcDbLine
 10
85.476299
 20
130.279302
 30
0.0
 11
85.476299
 21
130.279402
 31
0.0
  0
LINE
  5
2C0
100
AcDbEntity
  8
0
100
AcDbLine
 10
87.476299
 20
130.279302
 30
0.0
 11
87.476399
 21
130.279302
 31
0.0
  0
LINE
  5
2C1
100
AcDbEntity
  8
0
100
AcDbLine
 10
110.193299
 20
113.212282
 30
0.0
 11
110.193299
 21
110.829292
 31
0.0
  0
CIRCLE
  5
2C2
100
AcDbEntity
  8
0
100
AcDbCircle
 10
106.126299
 20
112.529302
 30
0.0
 40
2.38125
  0
LINE
  5
2C3
100
AcDbEntity
  8
0
100
AcDbLine
 10
109.243319
 20
113.879292
 30
0.0
 11
109.993319
 21
113.129292
 31
0.0
  0
LINE
  5
2C4
100
AcDbEntity
  8
0
100
AcDbLine
 10
103.009279
 20
113.879292
 30
0.0
 11
102.259279
 21
113.129292
 31
0.0
  0
LINE
  5
2C5
100
AcDbEntity
  8
0
100
AcDbLine
 10
102.626299
 20
107.279302
 30
0.0
 11
109.626299
 21
107.279302
 31
0.0
  0
ARC
  5
2C6
100
AcDbEntity
  8
0
100
AcDbCircle
 10
103.264397
 20
110.829302
 30
0.0
 40
0.2
100
AcDbArc
 50
90.0
 51
159.991395
  0
LINE
  5
2C7
100
AcDbEntity
  8
0
100
AcDbLine
 10
102.259299
 20
113.129292
 30
0.0
 11
102.259299
 21
110.829292
 31
0.0
  0
LINE
  5
2C8
100
AcDbEntity
  8
0
100
AcDbLine
 10
102.709299
 20
110.829292
 30
0.0
 11
102.259299
 21
110.829292
 31
0.0
  0
LINE
  5
2C9
100
AcDbEntity
  8
0
100
AcDbLine
 10
102.55513
 20
110.029302
 30
0.0
 11
102.620218
 21
110.029302
 31
0.0
  0
LINE
  5
2CA
100
AcDbEntity
  8
0
100
AcDbLine
 10
102.126319
 20
110.429252
 30
0.0
 11
102.40191
 21
110.100758
 31
0.0
  0
ARC
  5
2CB
100
AcDbEntity
  8
0
100
AcDbCircle
 10
102.55513
 20
110.229302
 30
0.0
 40
0.2
100
AcDbArc
 50
219.995032
 51
270.0
  0
LINE
  5
2CC
100
AcDbEntity
  8
0
100
AcDbLine
 10
102.259299
 20
110.629292
 30
0.0
 11
102.709299
 21
110.629292
 31
0.0
  0
ARC
  5
2CD
100
AcDbEntity
  8
0
100
AcDbCircle
 10
102.620218
 20
110.229302
 30
0.0
 40
0.2
100
AcDbArc
 50
270.0
 51
339.991395
  0
LINE
  5
2CE
100
AcDbEntity
  8
0
100
AcDbLine
 10
102.709299
 20
110.629292
 30
0.0
 11
102.709299
 21
110.829272
 31
0.0
  0
LINE
  5
2CF
100
AcDbEntity
  8
0
100
AcDbLine
 10
102.808146
 20
110.16087
 30
0.0
 11
103.076468
 21
110.897734
 31
0.0
  0
LINE
  5
2D0
100
AcDbEntity
  8
0
100
AcDbLine
 10
103.264397
 20
111.029302
 30
0.0
 11
104.27688
 21
111.029302
 31
0.0
  0
ARC
  5
2D1
100
AcDbEntity
  8
0
100
AcDbCircle
 10
109.626299
 20
108.279302
 30
0.0
 40
1.0
100
AcDbArc
 50
270.0
 51
0.0
  0
LINE
  5
2D2
100
AcDbEntity
  8
0
100
AcDbLine
 10
109.993299
 20
113.129292
 30
0.0
 11
109.993299
 21
110.829292
 31
0.0
  0
LINE
  5
2D3
100
AcDbEntity
  8
0
100
AcDbLine
 10
110.126279
 20
110.429252
 30
0.0
 11
109.850688
 21
110.100758
 31
0.0
  0
LINE
  5
2D4
100
AcDbEntity
  8
0
100
AcDbLine
 10
110.426299
 20
110.429282
 30
0.0
 11
110.126299
 21
110.429282
 31
0.0
  0
ARC
  5
2D5
100
AcDbEntity
  8
0
100
AcDbCircle
 10
110.426299
 20
110.229282
 30
0.0
 40
0.2
100
AcDbArc
 50
0.0
 51
90.0
  0
ARC
  5
2D6
100
AcDbEntity
  8
0
100
AcDbCircle
 10
109.993299
 20
110.829292
 30
0.0
 40
0.2
100
AcDbArc
 50
270.0
 51
0.0
  0
ARC
  5
2D7
100
AcDbEntity
  8
0
100
AcDbCircle
 10
108.988202
 20
110.829302
 30
0.0
 40
0.2
100
AcDbArc
 50
20.008605
 51
90.0
  0
LINE
  5
2D8
100
AcDbEntity
  8
0
100
AcDbLine
 10
108.988202
 20
111.029302
 30
0.0
 11
107.975718
 21
111.029302
 31
0.0
  0
LINE
  5
2D9
100
AcDbEntity
  8
0
100
AcDbLine
 10
109.697468
 20
110.029302
 30
0.0
 11
109.63238
 21
110.029302
 31
0.0
  0
ARC
  5
2DA
100
AcDbEntity
  8
0
100
AcDbCircle
 10
109.63238
 20
110.229302
 30
0.0
 40
0.2
100
AcDbArc
 50
200.008605
 51
270.0
  0
LINE
  5
2DB
100
AcDbEntity
  8
0
100
AcDbLine
 10
109.444452
 20
110.16087
 30
0.0
 11
109.17613
 21
110.897734
 31
0.0
  0
LINE
  5
2DC
100
AcDbEntity
  8
0
100
AcDbLine
 10
109.543299
 20
110.629292
 30
0.0
 11
109.543299
 21
110.829272
 31
0.0
  0
ARC
  5
2DD
100
AcDbEntity
  8
0
100
AcDbCircle
 10
109.697468
 20
110.229302
 30
0.0
 40
0.2
100
AcDbArc
 50
270.0
 51
320.004968
  0
LINE
  5
2DE
100
AcDbEntity
  8
0
100
AcDbLine
 10
109.993299
 20
110.629292
 30
0.0
 11
109.543299
 21
110.629292
 31
0.0
  0
LINE
  5
2DF
100
AcDbEntity
  8
0
100
AcDbLine
 10
109.543299
 20
110.829292
 30
0.0
 11
109.993299
 21
110.829292
 31
0.0
  0
LINE
  5
2E0
100
AcDbEntity
  8
0
100
AcDbLine
 10
102.626299
 20
117.279302
 30
0.0
 11
110.626299
 21
117.279302
 31
0.0
  0
LINE
  5
2E1
100
AcDbEntity
  8
0
100
AcDbLine
 10
103.009299
 20
114.349292
 30
0.0
 11
103.009299
 21
113.879292
 31
0.0
  0
LINE
  5
2E2
100
AcDbEntity
  8
0
100
AcDbLine
 10
102.766111
 20
114.839266
 30
0.0
 11
102.809309
 21
113.962242
 31
0.0
  0
LINE
  5
2E3
100
AcDbEntity
  8
0
100
AcDbLine
 10
102.964612
 20
114.860098
 30
0.0
 11
103.02927
 21
114.120572
 31
0.0
  0
ARC
  5
2E4
100
AcDbEntity
  8
0
100
AcDbCircle
 10
103.12889
 20
114.129282
 30
0.0
 40
0.1
100
AcDbArc
 50
184.996761
 51
269.999501
  0
LINE
  5
2E5
100
AcDbEntity
  8
0
100
AcDbLine
 10
102.492309
 20
114.472262
 30
0.0
 11
102.339319
 21
114.600252
 31
0.0
  0
LINE
  5
2E6
100
AcDbEntity
  8
0
100
AcDbLine
 10
102.364299
 20
114.319282
 30
0.0
 11
102.492289
 21
114.472262
 31
0.0
  0
LINE
  5
2E7
100
AcDbEntity
  8
0
100
AcDbLine
 10
102.339299
 20
114.600272
 30
0.0
 11
102.589626
 21
114.898622
 31
0.0
  0
LINE
  5
2E8
100
AcDbEntity
  8
0
100
AcDbLine
 10
102.364299
 20
114.319282
 30
0.0
 11
102.211214
 21
114.44734
 31
0.0
  0
LINE
  5
2E9
100
AcDbEntity
  8
0
100
AcDbLine
 10
102.186324
 20
114.729293
 30
0.0
 11
102.435929
 21
115.026793
 31
0.0
  0
ARC
  5
2EA
100
AcDbEntity
  8
0
100
AcDbCircle
 10
102.339539
 20
114.600744
 30
0.0
 40
0.2
100
AcDbArc
 50
140.002934
 51
230.087027
  0
ARC
  5
2EB
100
AcDbEntity
  8
0
100
AcDbCircle
 10
102.665752
 20
114.833968
 30
0.0
 40
0.3
100
AcDbArc
 50
4.996761
 51
140.002934
  0
ARC
  5
2EC
100
AcDbEntity
  8
0
100
AcDbCircle
 10
102.666232
 20
114.834347
 30
0.0
 40
0.1
100
AcDbArc
 50
2.819818
 51
140.002154
  0
LINE
  5
2ED
100
AcDbEntity
  8
0
100
AcDbLine
 10
103.128889
 20
114.029282
 30
0.0
 11
104.276879
 21
114.029272
 31
0.0
  0
ARC
  5
2EE
100
AcDbEntity
  8
0
100
AcDbCircle
 10
109.626299
 20
116.279302
 30
0.0
 40
1.0
100
AcDbArc
 50
0.0
 51
90.0
  0
LINE
  5
2EF
100
AcDbEntity
  8
0
100
AcDbLine
 10
110.626299
 20
115.479302
 30
0.0
 11
111.926299
 21
115.479302
 31
0.0
  0
LINE
  5
2F0
100
AcDbEntity
  8
0
100
AcDbLine
 10
110.526299
 20
114.729282
 30
0.0
 11
110.066284
 21
114.729282
 31
0.0
  0
ARC
  5
2F1
100
AcDbEntity
  8
0
100
AcDbCircle
 10
109.913059
 20
114.600744
 30
0.0
 40
0.2
100
AcDbArc
 50
309.912973
 51
39.997066
  0
LINE
  5
2F2
100
AcDbEntity
  8
0
100
AcDbLine
 10
110.066275
 20
114.729293
 30
0.0
 11
109.816669
 21
115.026793
 31
0.0
  0
LINE
  5
2F3
100
AcDbEntity
  8
0
100
AcDbLine
 10
109.888299
 20
114.319282
 30
0.0
 11
110.041384
 21
114.44734
 31
0.0
  0
ARC
  5
2F4
100
AcDbEntity
  8
0
100
AcDbCircle
 10
110.526299
 20
114.829282
 30
0.0
 40
0.1
100
AcDbArc
 50
270.0
 51
0.0
  0
LINE
  5
2F5
100
AcDbEntity
  8
0
100
AcDbLine
 10
109.287986
 20
114.860098
 30
0.0
 11
109.223328
 21
114.120572
 31
0.0
  0
LINE
  5
2F6
100
AcDbEntity
  8
0
100
AcDbLine
 10
109.486487
 20
114.839266
 30
0.0
 11
109.443289
 21
113.962242
 31
0.0
  0
LINE
  5
2F7
100
AcDbEntity
  8
0
100
AcDbLine
 10
109.243299
 20
114.349292
 30
0.0
 11
109.243299
 21
113.879292
 31
0.0
  0
ARC
  5
2F8
100
AcDbEntity
  8
0
100
AcDbCircle
 10
109.586366
 20
114.834347
 30
0.0
 40
0.1
100
AcDbArc
 50
39.997846
 51
177.180182
  0
ARC
  5
2F9
100
AcDbEntity
  8
0
100
AcDbCircle
 10
109.123708
 20
114.129282
 30
0.0
 40
0.1
100
AcDbArc
 50
270.000499
 51
355.003239
  0
LINE
  5
2FA
100
AcDbEntity
  8
0
100
AcDbLine
 10
109.123709
 20
114.029282
 30
0.0
 11
107.975719
 21
114.029272
 31
0.0
  0
LINE
  5
2FB
100
AcDbEntity
  8
0
100
AcDbLine
 10
109.913299
 20
114.600272
 30
0.0
 11
109.662973
 21
114.898622
 31
0.0
  0
ARC
  5
2FC
100
AcDbEntity
  8
0
100
AcDbCircle
 10
109.586846
 20
114.833968
 30
0.0
 40
0.3
100
AcDbArc
 50
39.997066
 51
175.003239
  0
LINE
  5
2FD
100
AcDbEntity
  8
0
100
AcDbLine
 10
109.888299
 20
114.319282
 30
0.0
 11
109.760309
 21
114.472262
 31
0.0
  0
LINE
  5
2FE
100
AcDbEntity
  8
0
100
AcDbLine
 10
109.760289
 20
114.472262
 30
0.0
 11
109.913279
 21
114.600252
 31
0.0
  0
LINE
  5
2FF
100
AcDbEntity
  8
0
100
AcDbLine
 10
109.443319
 20
113.962362
 30
0.0
 11
110.193319
 21
113.212372
 31
0.0
  0
LINE
  5
300
100
AcDbEntity
  8
0
100
AcDbLine
 10
111.926299
 20
117.279302
 30
0.0
 11
113.476299
 21
117.279302
 31
0.0
  0
LINE
  5
301
100
AcDbEntity
  8
0
100
AcDbLine
 10
110.626299
 20
117.979302
 30
0.0
 11
111.926299
 21
117.979302
 31
0.0
  0
CIRCLE
  5
302
100
AcDbEntity
  8
CENTER
  6
CENTER
 62
     1
100
AcDbCircle
 10
195.437601
 20
102.279302
 30
0.0
 40
23.0
  0
LINE
  5
303
100
AcDbEntity
  8
CENTER
  6
CENTER
 62
     1
100
AcDbLine
 10
195.437601
 20
134.215301
 30
0.0
 11
195.437601
 21
70.343304
 31
0.0
  0
CIRCLE
  5
304
100
AcDbEntity
  8
0
100
AcDbCircle
 10
195.437601
 20
102.279302
 30
0.0
 40
18.0
  0
CIRCLE
  5
305
100
AcDbEntity
  8
0
100
AcDbCircle
 10
218.437601
 20
102.279302
 30
0.0
 40
4.0
  0
CIRCLE
  5
306
100
AcDbEntity
  8
0
100
AcDbCircle
 10
172.437601
 20
102.279302
 30
0.0
 40
4.0
  0
CIRCLE
  5
307
100
AcDbEntity
  8
0
100
AcDbCircle
 10
195.437601
 20
102.279302
 30
0.0
 40
5.0
  0
CIRCLE
  5
308
100
AcDbEntity
  8
0
100
AcDbCircle
 10
195.437601
 20
102.279302
 30
0.0
 40
28.0
  0
LINE
  5
309
100
AcDbEntity
  8
CENTER
  6
CENTER
 62
     1
100
AcDbLine
 10
163.501603
 20
102.279302
 30
0.0
 11
227.3736
 21
102.279302
 31
0.0
  0
CIRCLE
  5
30A
100
AcDbEntity
  8
0
100
AcDbCircle
 10
195.437601
 20
79.279302
 30
0.0
 40
2.15
  0
CIRCLE
  5
30B
100
AcDbEntity
  8
0
100
AcDbCircle
 10
195.437601
 20
79.279302
 30
0.0
 40
4.0
  0
CIRCLE
  5
30C
100
AcDbEntity
  8
0
100
AcDbCircle
 10
172.437601
 20
102.279302
 30
0.0
 40
2.15
  0
CIRCLE
  5
30D
100
AcDbEntity
  8
0
100
AcDbCircle
 10
218.437601
 20
102.279302
 30
0.0
 40
2.15
  0
CIRCLE
  5
30E
100
AcDbEntity
  8
0
100
AcDbCircle
 10
195.437601
 20
125.279302
 30
0.0
 40
2.15
  0
CIRCLE
  5
30F
100
AcDbEntity
  8
0
100
AcDbCircle
 10
195.437601
 20
125.279302
 30
0.0
 40
4.0
  0
ENDSEC
  0
SECTION
  2
OBJECTS
  0
DICTIONARY
  5
18D
100
AcDbDictionary
  3
ACAD_GROUP
350
18E
  3
ACAD_LAYOUT
350
19A
  3
ACAD_MLINESTYLE
350
197
  3
ACAD_PLOTSETTINGS
350
199
  3
ACAD_PLOTSTYLENAME
350
18F
  3
ACDBHEADERROUNDTRIPXREC
350
31C
  3
AcDbVariableDictionary
350
345
  0
DICTIONARY
  5
31A
100
AcDbDictionary
280
     1
  3
ACAD_XREC_ROUNDTRIP
360
31B
  0
DICTIONARY
  5
316
100
AcDbDictionary
280
     1
  3
ACAD_XREC_ROUNDTRIP
360
317
  0
DICTIONARY
  5
318
100
AcDbDictionary
280
     1
  3
ACAD_XREC_ROUNDTRIP
360
319
  0
DICTIONARY
  5
343
100
AcDbDictionary
280
     1
  3
ACAD_XREC_ROUNDTRIP
360
344
  0
DICTIONARY
  5
312
100
AcDbDictionary
280
     1
  3
ACAD_LAYOUTSELFREF
360
342
  3
ACAD_XREC_ROUNDTRIP
360
313
  0
DICTIONARY
  5
314
100
AcDbDictionary
280
     1
  3
ACAD_LAYOUTSELFREF
360
341
  3
ACAD_XREC_ROUNDTRIP
360
315
  0
DICTIONARY
  5
18E
102
{ACAD_REACTORS
330
18D
102
}
100
AcDbDictionary
  0
DICTIONARY
  5
19A
102
{ACAD_XDICTIONARY
360
33F
102
}
102
{ACAD_REACTORS
330
18D
102
}
100
AcDbDictionary
  3
MODEL
350
1A2
  3
ﾚｲｱｳﾄ1
350
19E
  0
DICTIONARY
  5
197
102
{ACAD_XDICTIONARY
360
33D
102
}
102
{ACAD_REACTORS
330
18D
102
}
100
AcDbDictionary
  3
STANDARD
350
198
  0
DICTIONARY
  5
199
102
{ACAD_REACTORS
330
18D
102
}
100
AcDbDictionary
  0
ACAD_PROXY_OBJECT
  5
18F
102
{ACAD_REACTORS
330
18D
102
}
100
AcDbProxyObject
 90
      499
 91
      500
 93
       86
310
405010041939BDC9B585B0
350
190
340
190
 94
        0
  0
DICTIONARY
  5
31C
102
{ACAD_REACTORS
330
18D
102
}
100
AcDbDictionary
  3
CEPSNTYPE
350
326
  3
DIMSTYLEDATA
350
32A
  3
FINGERPRINTGUID
350
327
  3
HYPERLINKBASE
350
31F
  3
INSUNITS
350
325
  3
LAYOUTDICT
350
321
  3
LWETCUNION
350
324
  3
PLOTSETDICT
350
322
  3
PLOTSTYLNAMDICT
350
323
  3
PSVPSCALE
350
329
  3
PUCSBASE
350
32D
  3
PUCSORGBACK
350
333
  3
PUCSORGBOTTOM
350
32F
  3
PUCSORGFRONT
350
332
  3
PUCSORGLEFT
350
330
  3
PUCSORGRIGHT
350
331
  3
PUCSORGTOP
350
32E
  3
PUCSORTHOREF
350
32B
  3
PUCSORTHOVIEW
350
32C
  3
STYLESHEET
350
320
  3
TSTACKALIGN
350
31D
  3
TSTACKSIZE
350
31E
  3
UCSBASE
350
336
  3
UCSORGBACK
350
33C
  3
UCSORGBOTTOM
350
338
  3
UCSORGFRONT
350
33B
  3
UCSORGLEFT
350
339
  3
UCSORGRIGHT
350
33A
  3
UCSORGTOP
350
337
  3
UCSORTHOREF
350
334
  3
UCSORTHOVIEW
350
335
  3
VERSIONGUID
350
328
  0
DICTIONARY
  5
345
102
{ACAD_REACTORS
330
18D
102
}
100
AcDbDictionary
  3
DIMASSOC
350
346
  0
XRECORD
  5
31B
102
{ACAD_REACTORS
330
31A
102
}
100
AcDbXrecord
102
EXTNAMES
  1
*ACTIVE
  2
*Active
102
UCS
 74
     0
 71
     0
 10
0.0
 20
0.0
 30
0.0
 10
1.0
 20
0.0
 30
0.0
 10
0.0
 20
1.0
 30
0.0
146
0.0
 79
     0
102
VIEW
281
     0
  0
XRECORD
  5
317
102
{ACAD_REACTORS
330
316
102
}
100
AcDbXrecord
102
EXTNAMES
  1
BYBLOCK
  2
ByBlock
  0
XRECORD
  5
319
102
{ACAD_REACTORS
330
318
102
}
100
AcDbXrecord
102
EXTNAMES
  1
BYLAYER
  2
ByLayer
  0
XRECORD
  5
344
102
{ACAD_REACTORS
330
343
102
}
100
AcDbXrecord
102
ACADR14ROUNDTRIP
1000
DSTYLE
1002
{
1070
   279
 70
     2
1002
}
  0
XRECORD
  5
342
102
{ACAD_REACTORS
330
312
102
}
100
AcDbXrecord
340
19F
  0
XRECORD
  5
313
102
{ACAD_REACTORS
330
312
102
}
100
AcDbXrecord
102
EXTNAMES
  1
*MODEL_SPACE
  2
*Model_Space
  0
XRECORD
  5
341
102
{ACAD_REACTORS
330
314
102
}
100
AcDbXrecord
340
19B
  0
XRECORD
  5
315
102
{ACAD_REACTORS
330
314
102
}
100
AcDbXrecord
102
EXTNAMES
  1
*PAPER_SPACE
  2
*Paper_Space
  0
DICTIONARY
  5
33F
100
AcDbDictionary
280
     1
  3
ACAD_XREC_ROUNDTRIP
360
340
  0
ACAD_PROXY_OBJECT
  5
1A2
102
{ACAD_REACTORS
330
19A
102
}
100
AcDbProxyObject
 90
      499
 91
      502
 93
      836
310
932433A5C50524F4752414D2046494C45535C4D4454365C706C6F74746572735C526F6C616E64204458592D313235302E7063332C01AAAAAAAAA5A69054D6F64656C901A800000000000000000000000000000000000000000000A1000000000000008902A6A6AAAA0
330
19F
330
0
340
0
340
0
 94
        0
  0
ACAD_PROXY_OBJECT
  5
19E
102
{ACAD_REACTORS
330
19A
102
}
100
AcDbProxyObject
 90
      499
 91
      502
 93
     1244
310
932433A5C50524F4752414D2046494C45535C4D4454365C706C6F74746572735C526F6C616E64204458592D313235302E7063332C00AAAAAA416AA59106906DAB2B1B3C431406A800000000000000000000000000000000000000000101E900000000000241C902A6A6A10232D5E076BC5510408CB5781DAF154410232D5E0
310
76BC5510408CB5781DAF15C410232D5E076BC5710408CB5781DAF15C46
330
19B
330
0
340
0
340
0
 94
        0
  0
DICTIONARY
  5
33D
100
AcDbDictionary
280
     1
  3
ACAD_XREC_ROUNDTRIP
360
33E
  0
MLINESTYLE
  5
198
102
{ACAD_REACTORS
330
197
102
}
100
AcDbMlineStyle
  2
STANDARD
 70
     0
  3

 62
   256
 51
90.0
 52
90.0
 71
     2
 49
0.5
 62
   256
  6
BYLAYER
 49
-0.5
 62
   256
  6
BYLAYER
  0
ACAD_PROXY_OBJECT
  5
190
102
{ACAD_REACTORS
330
18F
102
}
100
AcDbProxyObject
 90
      499
 91
      501
 93
        0
 94
        0
  0
XRECORD
  5
326
102
{ACAD_REACTORS
330
31C
102
}
100
AcDbXrecord
 90
        0
  0
XRECORD
  5
32A
102
{ACAD_REACTORS
330
31C
102
}
100
AcDbXrecord
1000
DSTYLE
1002
{
1070
   341
340
1AF
1070
   342
340
1AF
1002
}
  0
XRECORD
  5
327
102
{ACAD_REACTORS
330
31C
102
}
100
AcDbXrecord
  1
{4518FD31-F05A-400E-946B-3850C8F7B54D}
  0
XRECORD
  5
31F
102
{ACAD_REACTORS
330
31C
102
}
100
AcDbXrecord
  1

  0
XRECORD
  5
325
102
{ACAD_REACTORS
330
31C
102
}
100
AcDbXrecord
 90
        0
  0
XRECORD
  5
321
102
{ACAD_REACTORS
330
31C
102
}
100
AcDbXrecord
340
19A
  0
XRECORD
  5
324
102
{ACAD_REACTORS
330
31C
102
}
100
AcDbXrecord
 90
    10781
  0
XRECORD
  5
322
102
{ACAD_REACTORS
330
31C
102
}
100
AcDbXrecord
340
199
  0
XRECORD
  5
323
102
{ACAD_REACTORS
330
31C
102
}
100
AcDbXrecord
340
18F
  0
XRECORD
  5
329
102
{ACAD_REACTORS
330
31C
102
}
100
AcDbXrecord
 40
0.0
  0
XRECORD
  5
32D
102
{ACAD_REACTORS
330
31C
102
}
100
AcDbXrecord
340
0
  0
XRECORD
  5
333
102
{ACAD_REACTORS
330
31C
102
}
100
AcDbXrecord
 10
0.0
 20
0.0
 30
0.0
  0
XRECORD
  5
32F
102
{ACAD_REACTORS
330
31C
102
}
100
AcDbXrecord
 10
0.0
 20
0.0
 30
0.0
  0
XRECORD
  5
332
102
{ACAD_REACTORS
330
31C
102
}
100
AcDbXrecord
 10
0.0
 20
0.0
 30
0.0
  0
XRECORD
  5
330
102
{ACAD_REACTORS
330
31C
102
}
100
AcDbXrecord
 10
0.0
 20
0.0
 30
0.0
  0
XRECORD
  5
331
102
{ACAD_REACTORS
330
31C
102
}
100
AcDbXrecord
 10
0.0
 20
0.0
 30
0.0
  0
XRECORD
  5
32E
102
{ACAD_REACTORS
330
31C
102
}
100
AcDbXrecord
 10
0.0
 20
0.0
 30
0.0
  0
XRECORD
  5
32B
102
{ACAD_REACTORS
330
31C
102
}
100
AcDbXrecord
340
0
  0
XRECORD
  5
32C
102
{ACAD_REACTORS
330
31C
102
}
100
AcDbXrecord
 70
     0
  0
XRECORD
  5
320
102
{ACAD_REACTORS
330
31C
102
}
100
AcDbXrecord
  1

  0
XRECORD
  5
31D
102
{ACAD_REACTORS
330
31C
102
}
100
AcDbXrecord
 90
        1
  0
XRECORD
  5
31E
102
{ACAD_REACTORS
330
31C
102
}
100
AcDbXrecord
 90
       70
  0
XRECORD
  5
336
102
{ACAD_REACTORS
330
31C
102
}
100
AcDbXrecord
340
0
  0
XRECORD
  5
33C
102
{ACAD_REACTORS
330
31C
102
}
100
AcDbXrecord
 10
0.0
 20
0.0
 30
0.0
  0
XRECORD
  5
338
102
{ACAD_REACTORS
330
31C
102
}
100
AcDbXrecord
 10
0.0
 20
0.0
 30
0.0
  0
XRECORD
  5
33B
102
{ACAD_REACTORS
330
31C
102
}
100
AcDbXrecord
 10
0.0
 20
0.0
 30
0.0
  0
XRECORD
  5
339
102
{ACAD_REACTORS
330
31C
102
}
100
AcDbXrecord
 10
0.0
 20
0.0
 30
0.0
  0
XRECORD
  5
33A
102
{ACAD_REACTORS
330
31C
102
}
100
AcDbXrecord
 10
0.0
 20
0.0
 30
0.0
  0
XRECORD
  5
337
102
{ACAD_REACTORS
330
31C
102
}
100
AcDbXrecord
 10
0.0
 20
0.0
 30
0.0
  0
XRECORD
  5
334
102
{ACAD_REACTORS
330
31C
102
}
100
AcDbXrecord
340
0
  0
XRECORD
  5
335
102
{ACAD_REACTORS
330
31C
102
}
100
AcDbXrecord
 70
     0
  0
XRECORD
  5
328
102
{ACAD_REACTORS
330
31C
102
}
100
AcDbXrecord
  1
{5A8D2561-A909-4756-81A5-7669600ADECB}
  0
DICTIONARYVAR
  5
346
102
{ACAD_REACTORS
330
345
102
}
100
DictionaryVariables
280
     0
  1
1
  0
XRECORD
  5
340
102
{ACAD_REACTORS
330
33F
102
}
100
AcDbXrecord
102
EXTNAMES
  1
MODEL
  2
Model
  0
XRECORD
  5
33E
102
{ACAD_REACTORS
330
33D
102
}
100
AcDbXrecord
102
EXTNAMES
  1
STANDARD
  2
Standard
  0
ENDSEC
  0
EOF
