  0
SECTION
  2
HEADER
  9
$ACADVER
  1
AC1014
  9
$ACADMAINTVER
 70
     0
  9
$DWGCODEPAGE
  3
ANSI_932
  9
$INSBASE
 10
0.0
 20
0.0
 30
0.0
  9
$EXTMIN
 10
98.5
 20
-3.5
 30
0.0
  9
$EXTMAX
 10
303.5
 20
103.5
 30
0.0
  9
$LIMMIN
 10
0.0
 20
0.0
  9
$LIMMAX
 10
420.0
 20
297.0
  9
$ORTHOMODE
 70
     1
  9
$REGENMODE
 70
     1
  9
$FILLMODE
 70
     1
  9
$QTEXTMODE
 70
     0
  9
$MIRRTEXT
 70
     1
  9
$DRAGMODE
 70
     2
  9
$LTSCALE
 40
1.0
  9
$OSMODE
 70
    37
  9
$ATTMODE
 70
     1
  9
$TEXTSIZE
 40
2.0
  9
$TRACEWID
 40
1.0
  9
$TEXTSTYLE
  7
STANDARD
  9
$CLAYER
  8
0
  9
$CELTYPE
  6
BYLAYER
  9
$CECOLOR
 62
   256
  9
$CELTSCALE
 40
1.0
  9
$DELOBJ
 70
     1
  9
$DISPSILH
 70
     0
  9
$DIMSCALE
 40
1.0
  9
$DIMASZ
 40
2.5
  9
$DIMEXO
 40
0.625
  9
$DIMDLI
 40
3.75
  9
$DIMRND
 40
0.0
  9
$DIMDLE
 40
0.0
  9
$DIMEXE
 40
1.25
  9
$DIMTP
 40
0.0
  9
$DIMTM
 40
0.0
  9
$DIMTXT
 40
2.5
  9
$DIMCEN
 40
2.5
  9
$DIMTSZ
 40
0.0
  9
$DIMTOL
 70
     0
  9
$DIMLIM
 70
     0
  9
$DIMTIH
 70
     0
  9
$DIMTOH
 70
     0
  9
$DIMSE1
 70
     0
  9
$DIMSE2
 70
     0
  9
$DIMTAD
 70
     1
  9
$DIMZIN
 70
     8
  9
$DIMBLK
  1

  9
$DIMASO
 70
     1
  9
$DIMSHO
 70
     1
  9
$DIMPOST
  1

  9
$DIMAPOST
  1

  9
$DIMALT
 70
     0
  9
$DIMALTD
 70
     4
  9
$DIMALTF
 40
0.0394
  9
$DIMLFAC
 40
1.0
  9
$DIMTOFL
 70
     1
  9
$DIMTVP
 40
0.0
  9
$DIMTIX
 70
     0
  9
$DIMSOXD
 70
     0
  9
$DIMSAH
 70
     0
  9
$DIMBLK1
  1

  9
$DIMBLK2
  1

  9
$DIMSTYLE
  2
STANDARD
  9
$DIMCLRD
 70
     0
  9
$DIMCLRE
 70
     0
  9
$DIMCLRT
 70
     0
  9
$DIMTFAC
 40
1.0
  9
$DIMGAP
 40
0.625
  9
$DIMJUST
 70
     0
  9
$DIMSD1
 70
     0
  9
$DIMSD2
 70
     0
  9
$DIMTOLJ
 70
     1
  9
$DIMTZIN
 70
     0
  9
$DIMALTZ
 70
     0
  9
$DIMALTTZ
 70
     0
  9
$DIMFIT
 70
     3
  9
$DIMUPT
 70
     0
  9
$DIMUNIT
 70
     2
  9
$DIMDEC
 70
     4
  9
$DIMTDEC
 70
     4
  9
$DIMALTU
 70
     2
  9
$DIMALTTD
 70
     2
  9
$DIMTXSTY
  7
STANDARD
  9
$DIMAUNIT
 70
     0
  9
$LUNITS
 70
     2
  9
$LUPREC
 70
     2
  9
$SKETCHINC
 40
1.0
  9
$FILLETRAD
 40
2.5
  9
$AUNITS
 70
     0
  9
$AUPREC
 70
     0
  9
$MENU
  1
.
  9
$ELEVATION
 40
0.0
  9
$PELEVATION
 40
0.0
  9
$THICKNESS
 40
0.0
  9
$LIMCHECK
 70
     0
  9
$BLIPMODE
 70
     0
  9
$CHAMFERA
 40
2.5
  9
$CHAMFERB
 40
2.5
  9
$CHAMFERC
 40
0.0
  9
$CHAMFERD
 40
0.0
  9
$SKPOLY
 70
     1
  9
$TDCREATE
 40
2452100.677694097
  9
$TDUPDATE
 40
2452821.785482754
  9
$TDINDWG
 40
0.0011598495
  9
$TDUSRTIMER
 40
0.0011591551
  9
$USRTIMER
 70
     1
  9
$ANGBASE
 50
0.0
  9
$ANGDIR
 70
     0
  9
$PDMODE
 70
     0
  9
$PDSIZE
 40
0.0
  9
$PLINEWID
 40
0.0
  9
$COORDS
 70
     1
  9
$SPLFRAME
 70
     0
  9
$SPLINETYPE
 70
     6
  9
$SPLINESEGS
 70
     8
  9
$ATTDIA
 70
     0
  9
$ATTREQ
 70
     1
  9
$HANDLING
 70
     1
  9
$HANDSEED
  5
2F5
  9
$SURFTAB1
 70
     6
  9
$SURFTAB2
 70
     6
  9
$SURFTYPE
 70
     6
  9
$SURFU
 70
     6
  9
$SURFV
 70
     6
  9
$UCSNAME
  2

  9
$UCSORG
 10
0.0
 20
0.0
 30
0.0
  9
$UCSXDIR
 10
1.0
 20
0.0
 30
0.0
  9
$UCSYDIR
 10
0.0
 20
1.0
 30
0.0
  9
$PUCSNAME
  2

  9
$PUCSORG
 10
0.0
 20
0.0
 30
0.0
  9
$PUCSXDIR
 10
1.0
 20
0.0
 30
0.0
  9
$PUCSYDIR
 10
0.0
 20
1.0
 30
0.0
  9
$USERI1
 70
     0
  9
$USERI2
 70
     0
  9
$USERI3
 70
     0
  9
$USERI4
 70
     0
  9
$USERI5
 70
     0
  9
$USERR1
 40
0.0
  9
$USERR2
 40
0.0
  9
$USERR3
 40
0.0
  9
$USERR4
 40
0.0
  9
$USERR5
 40
0.0
  9
$WORLDVIEW
 70
     1
  9
$SHADEDGE
 70
     3
  9
$SHADEDIF
 70
    70
  9
$TILEMODE
 70
     1
  9
$MAXACTVP
 70
    48
  9
$PINSBASE
 10
0.0
 20
0.0
 30
0.0
  9
$PLIMCHECK
 70
     0
  9
$PEXTMIN
 10
1.000000E+20
 20
1.000000E+20
 30
1.000000E+20
  9
$PEXTMAX
 10
-1.000000E+20
 20
-1.000000E+20
 30
-1.000000E+20
  9
$PLIMMIN
 10
0.0
 20
0.0
  9
$PLIMMAX
 10
420.0
 20
297.0
  9
$UNITMODE
 70
     0
  9
$VISRETAIN
 70
     1
  9
$PLINEGEN
 70
     0
  9
$PSLTSCALE
 70
     1
  9
$TREEDEPTH
 70
  3020
  9
$PICKSTYLE
 70
     1
  9
$CMLSTYLE
  2
STANDARD
  9
$CMLJUST
 70
     0
  9
$CMLSCALE
 40
1.0
  9
$PROXYGRAPHICS
 70
     1
  9
$MEASUREMENT
 70
     0
  0
ENDSEC
  0
SECTION
  2
CLASSES
  0
CLASS
  1
ACDBDICTIONARYWDFLT
  2
AcDbDictionaryWithDefault
  3
AutoCAD 2000
 90
        0
280
     0
281
     0
  0
CLASS
  1
ACDBPLACEHOLDER
  2
AcDbPlaceHolder
  3
AutoCAD 2000
 90
        0
280
     0
281
     0
  0
CLASS
  1
LAYOUT
  2
AcDbLayout
  3
AutoCAD 2000
 90
        0
280
     0
281
     0
  0
CLASS
  1
DICTIONARYVAR
  2
AcDbDictionaryVar
  3
"AutoCAD"
 90
        0
280
     0
281
     0
  0
CLASS
  1
LONG_TRANSACTION
  2
AcDbLongTransaction
  3
AutoCAD 2000
 90
        0
280
     0
281
     0
  0
CLASS
  1
LWPOLYLINE
  2
AcDbPolyline
  3
"AutoCAD"
 90
        0
280
     0
281
     1
  0
CLASS
  1
HATCH
  2
AcDbHatch
  3
"ACAD_SEDONA"
 90
        0
280
     0
281
     1
  0
CLASS
  1
XRECORD
  2
AcDbXrecord
  3
"<Built In>"
 90
        0
280
     0
281
     0
  0
ENDSEC
  0
SECTION
  2
TABLES
  0
TABLE
  2
VPORT
  5
23E
100
AcDbSymbolTable
 70
     1
  0
VPORT
  5
2BB
102
{ACAD_XDICTIONARY
360
2C4
102
}
100
AcDbSymbolTableRecord
100
AcDbViewportTableRecord
  2
*ACTIVE
 70
     0
 10
0.0
 20
0.0
 11
1.0
 21
1.0
 12
173.66627
 22
50.000886
 13
0.0
 23
0.0
 14
1.0
 24
1.0
 15
10.0
 25
10.0
 16
0.0
 26
0.0
 36
1.0
 17
0.0
 27
0.0
 37
0.0
 40
210.386685
 41
1.570997
 42
50.0
 43
0.0
 44
0.0
 50
0.0
 51
0.0
 71
     0
 72
   100
 73
     1
 74
     1
 75
     1
 76
     1
 77
     0
 78
     0
  0
ENDTAB
  0
TABLE
  2
LTYPE
  5
23B
100
AcDbSymbolTable
 70
     3
  0
LTYPE
  5
249
102
{ACAD_XDICTIONARY
360
2C0
102
}
100
AcDbSymbolTableRecord
100
AcDbLinetypeTableRecord
  2
BYBLOCK
 70
     0
  3

 72
    65
 73
     0
 40
0.0
  0
LTYPE
  5
24A
102
{ACAD_XDICTIONARY
360
2C2
102
}
100
AcDbSymbolTableRecord
100
AcDbLinetypeTableRecord
  2
BYLAYER
 70
     0
  3

 72
    65
 73
     0
 40
0.0
  0
LTYPE
  5
24B
100
AcDbSymbolTableRecord
100
AcDbLinetypeTableRecord
  2
CONTINUOUS
 70
     0
  3
Solid line
 72
    65
 73
     0
 40
0.0
  0
LTYPE
  5
259
100
AcDbSymbolTableRecord
100
AcDbLinetypeTableRecord
  2
CENTER
 70
     0
  3
Center ____ _ ____ _ ____ _ ____ _ ____ _ ____
 72
    65
 73
     4
 40
50.8
 49
31.75
 74
     0
 49
-6.35
 74
     0
 49
6.35
 74
     0
 49
-6.35
 74
     0
  0
LTYPE
  5
25A
100
AcDbSymbolTableRecord
100
AcDbLinetypeTableRecord
  2
DASHED
 70
     0
  3
Dashed __ __ __ __ __ __ __ __ __ __ __ __ __ _
 72
    65
 73
     2
 40
19.05
 49
12.7
 74
     0
 49
-6.35
 74
     0
  0
ENDTAB
  0
TABLE
  2
LAYER
  5
238
100
AcDbSymbolTable
 70
     2
  0
LAYER
  5
246
100
AcDbSymbolTableRecord
100
AcDbLayerTableRecord
  2
0
 70
     0
 62
     7
  6
CONTINUOUS
  0
LAYER
  5
25B
100
AcDbSymbolTableRecord
100
AcDbLayerTableRecord
  2
CENTER
 70
     0
 62
     1
  6
CENTER
  0
ENDTAB
  0
TABLE
  2
STYLE
  5
239
100
AcDbSymbolTable
 70
     1
  0
STYLE
  5
247
100
AcDbSymbolTableRecord
100
AcDbTextStyleTableRecord
  2
STANDARD
 70
     0
 40
0.0
 41
1.0
 50
0.0
 71
     0
 42
2.0
  3
txt.shx
  4

  0
ENDTAB
  0
TABLE
  2
VIEW
  5
23C
100
AcDbSymbolTable
 70
     0
  0
ENDTAB
  0
TABLE
  2
UCS
  5
23D
100
AcDbSymbolTable
 70
     0
  0
ENDTAB
  0
TABLE
  2
APPID
  5
23F
100
AcDbSymbolTable
 70
     8
  0
APPID
  5
248
100
AcDbSymbolTableRecord
100
AcDbRegAppTableRecord
  2
ACAD
 70
     0
  0
APPID
  5
25C
100
AcDbSymbolTableRecord
100
AcDbRegAppTableRecord
  2
GENIUS_GENCFG_13
 70
     0
  0
APPID
  5
25D
100
AcDbSymbolTableRecord
100
AcDbRegAppTableRecord
  2
GENIUS_GENCFG0_13
 70
     0
  0
APPID
  5
25E
100
AcDbSymbolTableRecord
100
AcDbRegAppTableRecord
  2
GENIUS_GENCFG1_13
 70
     0
  0
APPID
  5
25F
100
AcDbSymbolTableRecord
100
AcDbRegAppTableRecord
  2
GENIUS_GENCFG2_13
 70
     0
  0
APPID
  5
260
100
AcDbSymbolTableRecord
100
AcDbRegAppTableRecord
  2
GENIUS_GENCFG3_13
 70
     0
  0
APPID
  5
261
100
AcDbSymbolTableRecord
100
AcDbRegAppTableRecord
  2
GENIUS_GENCFG4_13
 70
     0
  0
APPID
  5
262
100
AcDbSymbolTableRecord
100
AcDbRegAppTableRecord
  2
GENIUS_GEVCFG0_13
 70
     0
  0
ENDTAB
  0
TABLE
  2
DIMSTYLE
  5
240
100
AcDbSymbolTable
 70
     1
  0
DIMSTYLE
105
263
102
{ACAD_XDICTIONARY
360
2EC
102
}
100
AcDbSymbolTableRecord
100
AcDbDimStyleTableRecord
  2
STANDARD
 70
     0
  3

  4

  5

  6

  7

 40
1.0
 41
2.5
 42
0.625
 43
3.75
 44
1.25
 45
0.0
 46
0.0
 47
0.0
 48
0.0
140
2.5
141
2.5
142
0.0
143
0.0394
144
1.0
145
0.0
146
1.0
147
0.625
 71
     0
 72
     0
 73
     0
 74
     0
 75
     0
 76
     0
 77
     1
 78
     8
170
     0
171
     4
172
     1
173
     0
174
     0
175
     0
176
     0
177
     0
178
     0
270
     2
271
     2
272
     2
273
     2
274
     4
340
247
275
     0
280
     0
281
     0
282
     0
283
     1
284
     8
285
     8
286
     8
287
     5
288
     0
  0
ENDTAB
  0
TABLE
  2
BLOCK_RECORD
  5
237
100
AcDbSymbolTable
 70
     2
  0
BLOCK_RECORD
  5
254
102
{ACAD_XDICTIONARY
360
2BC
102
}
100
AcDbSymbolTableRecord
100
AcDbBlockTableRecord
  2
*MODEL_SPACE
  0
BLOCK_RECORD
  5
250
102
{ACAD_XDICTIONARY
360
2BE
102
}
100
AcDbSymbolTableRecord
100
AcDbBlockTableRecord
  2
*PAPER_SPACE
  0
BLOCK_RECORD
  5
265
100
AcDbSymbolTableRecord
100
AcDbBlockTableRecord
  2
$MODEL_SPACE
  0
BLOCK_RECORD
  5
268
100
AcDbSymbolTableRecord
100
AcDbBlockTableRecord
  2
$PAPER_SPACE
  0
ENDTAB
  0
ENDSEC
  0
SECTION
  2
BLOCKS
  0
BLOCK
  5
255
100
AcDbEntity
  8
0
100
AcDbBlockBegin
  2
*MODEL_SPACE
 70
     0
 10
0.0
 20
0.0
 30
0.0
  3
*MODEL_SPACE
  1

  0
ENDBLK
  5
256
100
AcDbEntity
  8
0
100
AcDbBlockEnd
  0
BLOCK
  5
251
100
AcDbEntity
 67
     1
  8
0
100
AcDbBlockBegin
  2
*PAPER_SPACE
 70
     0
 10
0.0
 20
0.0
 30
0.0
  3
*PAPER_SPACE
  1

  0
ENDBLK
  5
252
100
AcDbEntity
 67
     1
  8
0
100
AcDbBlockEnd
  0
BLOCK
  5
266
100
AcDbEntity
  8
0
100
AcDbBlockBegin
  2
$MODEL_SPACE
 70
     0
 10
0.0
 20
0.0
 30
0.0
  3
$MODEL_SPACE
  1

  0
ENDBLK
  5
267
100
AcDbEntity
  8
0
100
AcDbBlockEnd
  0
BLOCK
  5
269
100
AcDbEntity
  8
0
100
AcDbBlockBegin
  2
$PAPER_SPACE
 70
     0
 10
0.0
 20
0.0
 30
0.0
  3
$PAPER_SPACE
  1

  0
ENDBLK
  5
26A
100
AcDbEntity
  8
0
100
AcDbBlockEnd
  0
ENDSEC
  0
SECTION
  2
ENTITIES
  0
LINE
  5
26B
100
AcDbEntity
  8
0
  6
DASHED
 62
     3
100
AcDbLine
 10
124.9
 20
13.0
 30
0.0
 11
124.9
 21
6.0
 31
0.0
  0
LINE
  5
26C
100
AcDbEntity
  8
0
100
AcDbLine
 10
133.0
 20
-2.0
 30
0.0
 11
133.0
 21
15.0
 31
0.0
  0
LINE
  5
26D
100
AcDbEntity
  8
0
100
AcDbLine
 10
120.0
 20
15.0
 30
0.0
 11
120.0
 21
-2.0
 31
0.0
  0
LINE
  5
26E
100
AcDbEntity
  8
0
  6
DASHED
 62
     3
100
AcDbLine
 10
133.0
 20
-1.0
 30
0.0
 11
124.9
 21
-1.0
 31
0.0
  0
LINE
  5
26F
100
AcDbEntity
  8
CENTER
100
AcDbLine
 10
134.5
 20
6.0
 30
0.0
 11
118.5
 21
6.0
 31
0.0
  0
LINE
  5
270
100
AcDbEntity
  8
0
  6
DASHED
 62
     3
100
AcDbLine
 10
124.9
 20
1.5
 30
0.0
 11
120.0
 21
1.5
 31
0.0
  0
LINE
  5
271
100
AcDbEntity
  8
0
  6
DASHED
 62
     3
100
AcDbLine
 10
124.9
 20
-1.0
 30
0.0
 11
124.9
 21
6.0
 31
0.0
  0
LINE
  5
272
100
AcDbEntity
  8
0
100
AcDbLine
 10
120.0
 20
-2.0
 30
0.0
 11
133.0
 21
-2.0
 31
0.0
  0
LINE
  5
273
100
AcDbEntity
  8
0
  6
DASHED
 62
     3
100
AcDbLine
 10
118.2
 20
77.5
 30
0.0
 11
151.8
 21
77.5
 31
0.0
  0
LINE
  5
274
100
AcDbEntity
  8
0
  6
DASHED
 62
     3
100
AcDbLine
 10
118.2
 20
22.5
 30
0.0
 11
151.8
 21
22.5
 31
0.0
  0
LINE
  5
275
100
AcDbEntity
  8
0
100
AcDbLine
 10
133.0
 20
15.0
 30
0.0
 11
170.0
 21
15.0
 31
0.0
  0
LINE
  5
276
100
AcDbEntity
  8
0
100
AcDbLine
 10
133.0
 20
85.0
 30
0.0
 11
170.0
 21
85.0
 31
0.0
  0
LINE
  5
277
100
AcDbEntity
  8
CENTER
100
AcDbLine
 10
98.5
 20
50.0
 30
0.0
 11
171.5
 21
50.0
 31
0.0
  0
LINE
  5
278
100
AcDbEntity
  8
0
  6
DASHED
 62
     3
100
AcDbLine
 10
124.9
 20
101.0
 30
0.0
 11
124.9
 21
94.0
 31
0.0
  0
LINE
  5
279
100
AcDbEntity
  8
0
100
AcDbLine
 10
133.0
 20
102.0
 30
0.0
 11
133.0
 21
85.0
 31
0.0
  0
LINE
  5
27A
100
AcDbEntity
  8
0
100
AcDbLine
 10
120.0
 20
85.0
 30
0.0
 11
120.0
 21
102.0
 31
0.0
  0
LINE
  5
27B
100
AcDbEntity
  8
0
100
AcDbLine
 10
100.0
 20
15.0
 30
0.0
 11
120.0
 21
15.0
 31
0.0
  0
LINE
  5
27C
100
AcDbEntity
  8
0
100
AcDbLine
 10
100.0
 20
85.0
 30
0.0
 11
120.0
 21
85.0
 31
0.0
  0
LINE
  5
27D
100
AcDbEntity
  8
0
  6
DASHED
 62
     3
100
AcDbLine
 10
118.2
 20
81.0
 30
0.0
 11
118.2
 21
19.0
 31
0.0
  0
LINE
  5
27E
100
AcDbEntity
  8
0
  6
DASHED
 62
     3
100
AcDbLine
 10
104.2
 20
82.55
 30
0.0
 11
104.2
 21
50.0
 31
0.0
  0
LINE
  5
27F
100
AcDbEntity
  8
0
  6
DASHED
 62
     3
100
AcDbLine
 10
102.52
 20
50.0
 30
0.0
 11
102.52
 21
82.55
 31
0.0
  0
LINE
  5
280
100
AcDbEntity
  8
0
100
AcDbLine
 10
100.0
 20
50.0
 30
0.0
 11
100.0
 21
85.0
 31
0.0
  0
LINE
  5
281
100
AcDbEntity
  8
0
  6
DASHED
 62
     3
100
AcDbLine
 10
102.52
 20
17.45
 30
0.0
 11
104.2
 21
17.45
 31
0.0
  0
LINE
  5
282
100
AcDbEntity
  8
0
  6
DASHED
 62
     3
100
AcDbLine
 10
100.0
 20
19.0
 30
0.0
 11
102.52
 21
19.0
 31
0.0
  0
LINE
  5
283
100
AcDbEntity
  8
0
  6
DASHED
 62
     3
100
AcDbLine
 10
104.2
 20
19.0
 30
0.0
 11
118.2
 21
19.0
 31
0.0
  0
LINE
  5
284
100
AcDbEntity
  8
0
  6
DASHED
 62
     3
100
AcDbLine
 10
104.2
 20
32.5
 30
0.0
 11
118.2
 21
32.5
 31
0.0
  0
LINE
  5
285
100
AcDbEntity
  8
0
  6
DASHED
 62
     3
100
AcDbLine
 10
102.52
 20
50.0
 30
0.0
 11
102.52
 21
17.45
 31
0.0
  0
LINE
  5
286
100
AcDbEntity
  8
0
  6
DASHED
 62
     3
100
AcDbLine
 10
104.2
 20
17.45
 30
0.0
 11
104.2
 21
50.0
 31
0.0
  0
LINE
  5
287
100
AcDbEntity
  8
0
100
AcDbLine
 10
100.0
 20
50.0
 30
0.0
 11
100.0
 21
15.0
 31
0.0
  0
LINE
  5
288
100
AcDbEntity
  8
0
  6
DASHED
 62
     3
100
AcDbLine
 10
104.2
 20
67.5
 30
0.0
 11
118.2
 21
67.5
 31
0.0
  0
LINE
  5
289
100
AcDbEntity
  8
0
  6
DASHED
 62
     3
100
AcDbLine
 10
104.2
 20
81.0
 30
0.0
 11
118.2
 21
81.0
 31
0.0
  0
LINE
  5
28A
100
AcDbEntity
  8
0
  6
DASHED
 62
     3
100
AcDbLine
 10
102.52
 20
82.55
 30
0.0
 11
104.2
 21
82.55
 31
0.0
  0
LINE
  5
28B
100
AcDbEntity
  8
0
  6
DASHED
 62
     3
100
AcDbLine
 10
100.0
 20
81.0
 30
0.0
 11
102.52
 21
81.0
 31
0.0
  0
LINE
  5
28C
100
AcDbEntity
  8
0
100
AcDbLine
 10
133.0
 20
85.0
 30
0.0
 11
133.0
 21
15.0
 31
0.0
  0
LINE
  5
28D
100
AcDbEntity
  8
0
100
AcDbLine
 10
120.0
 20
85.0
 30
0.0
 11
120.0
 21
15.0
 31
0.0
  0
LINE
  5
28E
100
AcDbEntity
  8
0
  6
DASHED
 62
     3
100
AcDbLine
 10
124.9
 20
10.5
 30
0.0
 11
120.0
 21
10.5
 31
0.0
  0
LINE
  5
28F
100
AcDbEntity
  8
0
  6
DASHED
 62
     3
100
AcDbLine
 10
133.0
 20
13.0
 30
0.0
 11
124.9
 21
13.0
 31
0.0
  0
LINE
  5
290
100
AcDbEntity
  8
0
  6
DASHED
 62
     3
100
AcDbLine
 10
133.0
 20
87.0
 30
0.0
 11
124.9
 21
87.0
 31
0.0
  0
LINE
  5
291
100
AcDbEntity
  8
0
  6
DASHED
 62
     3
100
AcDbLine
 10
124.9
 20
89.5
 30
0.0
 11
120.0
 21
89.5
 31
0.0
  0
LINE
  5
292
100
AcDbEntity
  8
0
  6
DASHED
 62
     3
100
AcDbLine
 10
124.9
 20
87.0
 30
0.0
 11
124.9
 21
94.0
 31
0.0
  0
LINE
  5
293
100
AcDbEntity
  8
0
  6
DASHED
 62
     3
100
AcDbLine
 10
124.9
 20
98.5
 30
0.0
 11
120.0
 21
98.5
 31
0.0
  0
LINE
  5
294
100
AcDbEntity
  8
CENTER
100
AcDbLine
 10
134.5
 20
94.0
 30
0.0
 11
118.5
 21
94.0
 31
0.0
  0
LINE
  5
295
100
AcDbEntity
  8
0
  6
DASHED
 62
     3
100
AcDbLine
 10
133.0
 20
101.0
 30
0.0
 11
124.9
 21
101.0
 31
0.0
  0
LINE
  5
296
100
AcDbEntity
  8
0
100
AcDbLine
 10
120.0
 20
102.0
 30
0.0
 11
133.0
 21
102.0
 31
0.0
  0
LINE
  5
297
100
AcDbEntity
  8
0
  6
DASHED
 62
     3
100
AcDbLine
 10
151.8
 20
81.0
 30
0.0
 11
151.8
 21
19.0
 31
0.0
  0
LINE
  5
298
100
AcDbEntity
  8
0
  6
DASHED
 62
     3
100
AcDbLine
 10
167.48
 20
50.0
 30
0.0
 11
167.48
 21
82.55
 31
0.0
  0
LINE
  5
299
100
AcDbEntity
  8
0
  6
DASHED
 62
     3
100
AcDbLine
 10
165.8
 20
82.55
 30
0.0
 11
165.8
 21
50.0
 31
0.0
  0
LINE
  5
29A
100
AcDbEntity
  8
0
100
AcDbLine
 10
170.0
 20
85.0
 30
0.0
 11
170.0
 21
50.0
 31
0.0
  0
LINE
  5
29B
100
AcDbEntity
  8
0
  6
DASHED
 62
     3
100
AcDbLine
 10
165.8
 20
17.45
 30
0.0
 11
165.8
 21
50.0
 31
0.0
  0
LINE
  5
29C
100
AcDbEntity
  8
0
  6
DASHED
 62
     3
100
AcDbLine
 10
167.48
 20
50.0
 30
0.0
 11
167.48
 21
17.45
 31
0.0
  0
LINE
  5
29D
100
AcDbEntity
  8
0
  6
DASHED
 62
     3
100
AcDbLine
 10
165.8
 20
32.5
 30
0.0
 11
151.8
 21
32.5
 31
0.0
  0
LINE
  5
29E
100
AcDbEntity
  8
0
  6
DASHED
 62
     3
100
AcDbLine
 10
165.8
 20
19.0
 30
0.0
 11
151.8
 21
19.0
 31
0.0
  0
LINE
  5
29F
100
AcDbEntity
  8
0
  6
DASHED
 62
     3
100
AcDbLine
 10
170.0
 20
19.0
 30
0.0
 11
167.48
 21
19.0
 31
0.0
  0
LINE
  5
2A0
100
AcDbEntity
  8
0
  6
DASHED
 62
     3
100
AcDbLine
 10
167.48
 20
17.45
 30
0.0
 11
165.8
 21
17.45
 31
0.0
  0
LINE
  5
2A1
100
AcDbEntity
  8
0
100
AcDbLine
 10
170.0
 20
15.0
 30
0.0
 11
170.0
 21
50.0
 31
0.0
  0
LINE
  5
2A2
100
AcDbEntity
  8
0
  6
DASHED
 62
     3
100
AcDbLine
 10
167.48
 20
82.55
 30
0.0
 11
165.8
 21
82.55
 31
0.0
  0
LINE
  5
2A3
100
AcDbEntity
  8
0
  6
DASHED
 62
     3
100
AcDbLine
 10
170.0
 20
81.0
 30
0.0
 11
167.48
 21
81.0
 31
0.0
  0
LINE
  5
2A4
100
AcDbEntity
  8
0
  6
DASHED
 62
     3
100
AcDbLine
 10
165.8
 20
81.0
 30
0.0
 11
151.8
 21
81.0
 31
0.0
  0
LINE
  5
2A5
100
AcDbEntity
  8
0
  6
DASHED
 62
     3
100
AcDbLine
 10
165.8
 20
67.5
 30
0.0
 11
151.8
 21
67.5
 31
0.0
  0
CIRCLE
  5
2A6
100
AcDbEntity
  8
0
100
AcDbCircle
 10
250.0
 20
50.0
 30
0.0
 40
52.0
  0
CIRCLE
  5
2A7
100
AcDbEntity
  8
CENTER
100
AcDbCircle
 10
250.0
 20
50.0
 30
0.0
 40
44.0
  0
CIRCLE
  5
2A8
100
AcDbEntity
  8
0
100
AcDbCircle
 10
250.0
 20
50.0
 30
0.0
 40
35.0
  0
CIRCLE
  5
2A9
100
AcDbEntity
  8
0
100
AcDbCircle
 10
250.0
 20
50.0
 30
0.0
 40
31.0
  0
LINE
  5
2AA
100
AcDbEntity
  8
CENTER
100
AcDbLine
 10
303.5
 20
50.0
 30
0.0
 11
196.5
 21
50.0
 31
0.0
  0
LINE
  5
2AB
100
AcDbEntity
  8
CENTER
100
AcDbLine
 10
250.0
 20
103.5
 30
0.0
 11
250.0
 21
-3.5
 31
0.0
  0
CIRCLE
  5
2AC
100
AcDbEntity
  8
0
100
AcDbCircle
 10
250.0
 20
6.0
 30
0.0
 40
4.5
  0
CIRCLE
  5
2AD
100
AcDbEntity
  8
0
100
AcDbCircle
 10
250.0
 20
6.0
 30
0.0
 40
7.0
  0
CIRCLE
  5
2AE
100
AcDbEntity
  8
0
100
AcDbCircle
 10
250.0
 20
94.0
 30
0.0
 40
7.0
  0
CIRCLE
  5
2AF
100
AcDbEntity
  8
0
100
AcDbCircle
 10
250.0
 20
94.0
 30
0.0
 40
4.5
  0
CIRCLE
  5
2B0
100
AcDbEntity
  8
0
100
AcDbCircle
 10
206.0
 20
50.0
 30
0.0
 40
7.0
  0
CIRCLE
  5
2B1
100
AcDbEntity
  8
0
100
AcDbCircle
 10
206.0
 20
50.0
 30
0.0
 40
4.5
  0
CIRCLE
  5
2B2
100
AcDbEntity
  8
0
100
AcDbCircle
 10
250.0
 20
50.0
 30
0.0
 40
17.5
  0
CIRCLE
  5
2B3
100
AcDbEntity
  8
0
100
AcDbCircle
 10
294.0
 20
50.0
 30
0.0
 40
7.0
  0
CIRCLE
  5
2B4
100
AcDbEntity
  8
0
100
AcDbCircle
 10
294.0
 20
50.0
 30
0.0
 40
4.5
  0
VIEWPORT
  5
2B9
102
{ACAD_XDICTIONARY
360
2EE
102
}
100
AcDbEntity
 67
     1
  8
0
100
AcDbViewport
 10
261.517699
 20
148.5
 30
0.0
 40
523.035398
 41
297.0
 68
    -1
 69
     1
1001
ACAD
1000
MVIEW
1002
{
1070
    16
1010
0.0
1020
0.0
1030
0.0
1010
0.0
1020
0.0
1030
1.0
1040
0.0
1040
297.0
1040
261.517699
1040
148.5
1040
50.0
1040
0.0
1040
0.0
1070
     0
1070
   100
1070
     1
1070
     1
1070
     0
1070
     0
1070
     0
1070
     0
1040
0.0
1040
0.0
1040
0.0
1040
1.0
1040
1.0
1040
10.0
1040
10.0
1070
     0
1002
{
1002
}
1002
}
  0
ENDSEC
  0
SECTION
  2
OBJECTS
  0
DICTIONARY
  5
242
100
AcDbDictionary
  3
ACAD_GROUP
350
243
  3
ACAD_LAYOUT
350
24F
  3
ACAD_MLINESTYLE
350
24C
  3
ACAD_PLOTSETTINGS
350
24E
  3
ACAD_PLOTSTYLENAME
350
244
  3
ACDBHEADERROUNDTRIPXREC
350
2C6
  3
AcDbVariableDictionary
350
2F0
  0
DICTIONARY
  5
2C4
100
AcDbDictionary
280
     1
  3
ACAD_XREC_ROUNDTRIP
360
2C5
  0
DICTIONARY
  5
2C0
100
AcDbDictionary
280
     1
  3
ACAD_XREC_ROUNDTRIP
360
2C1
  0
DICTIONARY
  5
2C2
100
AcDbDictionary
280
     1
  3
ACAD_XREC_ROUNDTRIP
360
2C3
  0
DICTIONARY
  5
2EC
100
AcDbDictionary
280
     1
  3
ACAD_XREC_ROUNDTRIP
360
2ED
  0
DICTIONARY
  5
2BC
100
AcDbDictionary
280
     1
  3
ACAD_LAYOUTSELFREF
360
2EB
  3
ACAD_XREC_ROUNDTRIP
360
2BD
  0
DICTIONARY
  5
2BE
100
AcDbDictionary
280
     1
  3
ACAD_LAYOUTSELFREF
360
2EA
  3
ACAD_XREC_ROUNDTRIP
360
2BF
  0
DICTIONARY
  5
2EE
100
AcDbDictionary
280
     1
  3
ACAD_XREC_ROUNDTRIP
360
2EF
  0
DICTIONARY
  5
243
102
{ACAD_REACTORS
330
242
102
}
100
AcDbDictionary
  0
DICTIONARY
  5
24F
102
{ACAD_XDICTIONARY
360
2E8
102
}
102
{ACAD_REACTORS
330
242
102
}
100
AcDbDictionary
  3
MODEL
350
257
  3
ﾚｲｱｳﾄ1
350
253
  0
DICTIONARY
  5
24C
102
{ACAD_XDICTIONARY
360
2E6
102
}
102
{ACAD_REACTORS
330
242
102
}
100
AcDbDictionary
  3
STANDARD
350
24D
  0
DICTIONARY
  5
24E
102
{ACAD_REACTORS
330
242
102
}
100
AcDbDictionary
  0
ACAD_PROXY_OBJECT
  5
244
102
{ACAD_REACTORS
330
242
102
}
100
AcDbProxyObject
 90
      499
 91
      500
 93
       86
310
405010041939BDC9B585B1
350
245
340
245
 94
        0
  0
DICTIONARY
  5
2C6
102
{ACAD_REACTORS
330
242
102
}
100
AcDbDictionary
  3
CEPSNTYPE
350
2D0
  3
FINGERPRINTGUID
350
2D1
  3
HYPERLINKBASE
350
2C9
  3
INSUNITS
350
2CF
  3
LAYOUTDICT
350
2CB
  3
LWETCUNION
350
2CE
  3
PLOTSETDICT
350
2CC
  3
PLOTSTYLNAMDICT
350
2CD
  3
PSVPSCALE
350
2D3
  3
PUCSBASE
350
2D6
  3
PUCSORGBACK
350
2DC
  3
PUCSORGBOTTOM
350
2D8
  3
PUCSORGFRONT
350
2DB
  3
PUCSORGLEFT
350
2D9
  3
PUCSORGRIGHT
350
2DA
  3
PUCSORGTOP
350
2D7
  3
PUCSORTHOREF
350
2D4
  3
PUCSORTHOVIEW
350
2D5
  3
STYLESHEET
350
2CA
  3
TSTACKALIGN
350
2C7
  3
TSTACKSIZE
350
2C8
  3
UCSBASE
350
2DF
  3
UCSORGBACK
350
2E5
  3
UCSORGBOTTOM
350
2E1
  3
UCSORGFRONT
350
2E4
  3
UCSORGLEFT
350
2E2
  3
UCSORGRIGHT
350
2E3
  3
UCSORGTOP
350
2E0
  3
UCSORTHOREF
350
2DD
  3
UCSORTHOVIEW
350
2DE
  3
VERSIONGUID
350
2D2
  0
DICTIONARY
  5
2F0
102
{ACAD_REACTORS
330
242
102
}
100
AcDbDictionary
  3
DIMASSOC
350
2F1
  0
XRECORD
  5
2C5
102
{ACAD_REACTORS
330
2C4
102
}
100
AcDbXrecord
102
EXTNAMES
  1
*ACTIVE
  2
*Active
102
UCS
 74
     0
 71
     0
 10
0.0
 20
0.0
 30
0.0
 10
1.0
 20
0.0
 30
0.0
 10
0.0
 20
1.0
 30
0.0
146
0.0
 79
     0
102
VIEW
281
     0
  0
XRECORD
  5
2C1
102
{ACAD_REACTORS
330
2C0
102
}
100
AcDbXrecord
102
EXTNAMES
  1
BYBLOCK
  2
ByBlock
  0
XRECORD
  5
2C3
102
{ACAD_REACTORS
330
2C2
102
}
100
AcDbXrecord
102
EXTNAMES
  1
BYLAYER
  2
ByLayer
  0
XRECORD
  5
2ED
102
{ACAD_REACTORS
330
2EC
102
}
100
AcDbXrecord
102
ACADR14ROUNDTRIP
1000
DSTYLE
1002
{
1070
   279
 70
     2
1002
}
  0
XRECORD
  5
2EB
102
{ACAD_REACTORS
330
2BC
102
}
100
AcDbXrecord
340
254
  0
XRECORD
  5
2BD
102
{ACAD_REACTORS
330
2BC
102
}
100
AcDbXrecord
102
EXTNAMES
  1
*MODEL_SPACE
  2
*Model_Space
  0
XRECORD
  5
2EA
102
{ACAD_REACTORS
330
2BE
102
}
100
AcDbXrecord
340
250
  0
XRECORD
  5
2BF
102
{ACAD_REACTORS
330
2BE
102
}
100
AcDbXrecord
102
EXTNAMES
  1
*PAPER_SPACE
  2
*Paper_Space
  0
XRECORD
  5
2EF
102
{ACAD_REACTORS
330
2EE
102
}
100
AcDbXrecord
102
UCS
 74
     0
 71
     0
 10
0.0
 20
0.0
 30
0.0
 10
0.0
 20
0.0
 30
0.0
 10
0.0
 20
0.0
 30
0.0
146
0.0
 79
     0
102
VIEW
281
     0
102
NEWVIEWCONTROL
280
     4
  0
DICTIONARY
  5
2E8
100
AcDbDictionary
280
     1
  3
ACAD_XREC_ROUNDTRIP
360
2E9
  0
ACAD_PROXY_OBJECT
  5
257
102
{ACAD_REACTORS
330
24F
102
}
100
AcDbProxyObject
 90
      499
 91
      502
 93
      836
310
932433A5C50524F4752414D2046494C45535C4D4454365C706C6F74746572735C526F6C616E64204458592D313235302E7063332C01AAAAAAAAA5A69054D6F64656C901A800000000000000000000000000000000000000000000A1000000000000008902A6A6AAAA0
330
254
330
0
340
0
340
0
 94
        0
  0
ACAD_PROXY_OBJECT
  5
253
102
{ACAD_REACTORS
330
24F
102
}
100
AcDbProxyObject
 90
      499
 91
      502
 93
     1252
310
932433A5C50524F4752414D2046494C45535C4D4454365C706C6F74746572735C526F6C616E64204458592D313235302E7063332C00AAAAAA416AA59106906DAB2B1B3C43140501A800000000000000000000000000000000000000000101E900000000000241C902A6A6A10232D5E076BC5510408CB5781DAF154410232D5
310
E076BC5510408CB5781DAF15C410232D5E076BC5710408CB5781DAF15C40
330
250
330
2B9
340
0
340
0
 94
        0
  0
DICTIONARY
  5
2E6
100
AcDbDictionary
280
     1
  3
ACAD_XREC_ROUNDTRIP
360
2E7
  0
MLINESTYLE
  5
24D
102
{ACAD_REACTORS
330
24C
102
}
100
AcDbMlineStyle
  2
STANDARD
 70
     0
  3

 62
   256
 51
90.0
 52
90.0
 71
     2
 49
0.5
 62
   256
  6
BYLAYER
 49
-0.5
 62
   256
  6
BYLAYER
  0
ACAD_PROXY_OBJECT
  5
245
102
{ACAD_REACTORS
330
244
102
}
100
AcDbProxyObject
 90
      499
 91
      501
 93
        0
 94
        0
  0
XRECORD
  5
2D0
102
{ACAD_REACTORS
330
2C6
102
}
100
AcDbXrecord
 90
        0
  0
XRECORD
  5
2D1
102
{ACAD_REACTORS
330
2C6
102
}
100
AcDbXrecord
  1
{D4B0B538-BE64-445B-8B51-7FC5C99145AB}
  0
XRECORD
  5
2C9
102
{ACAD_REACTORS
330
2C6
102
}
100
AcDbXrecord
  1

  0
XRECORD
  5
2CF
102
{ACAD_REACTORS
330
2C6
102
}
100
AcDbXrecord
 90
        0
  0
XRECORD
  5
2CB
102
{ACAD_REACTORS
330
2C6
102
}
100
AcDbXrecord
340
24F
  0
XRECORD
  5
2CE
102
{ACAD_REACTORS
330
2C6
102
}
100
AcDbXrecord
 90
    10781
  0
XRECORD
  5
2CC
102
{ACAD_REACTORS
330
2C6
102
}
100
AcDbXrecord
340
24E
  0
XRECORD
  5
2CD
102
{ACAD_REACTORS
330
2C6
102
}
100
AcDbXrecord
340
244
  0
XRECORD
  5
2D3
102
{ACAD_REACTORS
330
2C6
102
}
100
AcDbXrecord
 40
0.0
  0
XRECORD
  5
2D6
102
{ACAD_REACTORS
330
2C6
102
}
100
AcDbXrecord
340
0
  0
XRECORD
  5
2DC
102
{ACAD_REACTORS
330
2C6
102
}
100
AcDbXrecord
 10
0.0
 20
0.0
 30
0.0
  0
XRECORD
  5
2D8
102
{ACAD_REACTORS
330
2C6
102
}
100
AcDbXrecord
 10
0.0
 20
0.0
 30
0.0
  0
XRECORD
  5
2DB
102
{ACAD_REACTORS
330
2C6
102
}
100
AcDbXrecord
 10
0.0
 20
0.0
 30
0.0
  0
XRECORD
  5
2D9
102
{ACAD_REACTORS
330
2C6
102
}
100
AcDbXrecord
 10
0.0
 20
0.0
 30
0.0
  0
XRECORD
  5
2DA
102
{ACAD_REACTORS
330
2C6
102
}
100
AcDbXrecord
 10
0.0
 20
0.0
 30
0.0
  0
XRECORD
  5
2D7
102
{ACAD_REACTORS
330
2C6
102
}
100
AcDbXrecord
 10
0.0
 20
0.0
 30
0.0
  0
XRECORD
  5
2D4
102
{ACAD_REACTORS
330
2C6
102
}
100
AcDbXrecord
340
0
  0
XRECORD
  5
2D5
102
{ACAD_REACTORS
330
2C6
102
}
100
AcDbXrecord
 70
     0
  0
XRECORD
  5
2CA
102
{ACAD_REACTORS
330
2C6
102
}
100
AcDbXrecord
  1

  0
XRECORD
  5
2C7
102
{ACAD_REACTORS
330
2C6
102
}
100
AcDbXrecord
 90
        1
  0
XRECORD
  5
2C8
102
{ACAD_REACTORS
330
2C6
102
}
100
AcDbXrecord
 90
       70
  0
XRECORD
  5
2DF
102
{ACAD_REACTORS
330
2C6
102
}
100
AcDbXrecord
340
0
  0
XRECORD
  5
2E5
102
{ACAD_REACTORS
330
2C6
102
}
100
AcDbXrecord
 10
0.0
 20
0.0
 30
0.0
  0
XRECORD
  5
2E1
102
{ACAD_REACTORS
330
2C6
102
}
100
AcDbXrecord
 10
0.0
 20
0.0
 30
0.0
  0
XRECORD
  5
2E4
102
{ACAD_REACTORS
330
2C6
102
}
100
AcDbXrecord
 10
0.0
 20
0.0
 30
0.0
  0
XRECORD
  5
2E2
102
{ACAD_REACTORS
330
2C6
102
}
100
AcDbXrecord
 10
0.0
 20
0.0
 30
0.0
  0
XRECORD
  5
2E3
102
{ACAD_REACTORS
330
2C6
102
}
100
AcDbXrecord
 10
0.0
 20
0.0
 30
0.0
  0
XRECORD
  5
2E0
102
{ACAD_REACTORS
330
2C6
102
}
100
AcDbXrecord
 10
0.0
 20
0.0
 30
0.0
  0
XRECORD
  5
2DD
102
{ACAD_REACTORS
330
2C6
102
}
100
AcDbXrecord
340
0
  0
XRECORD
  5
2DE
102
{ACAD_REACTORS
330
2C6
102
}
100
AcDbXrecord
 70
     0
  0
XRECORD
  5
2D2
102
{ACAD_REACTORS
330
2C6
102
}
100
AcDbXrecord
  1
{A270B960-3CBF-45EE-9A25-DFD95CF1F636}
  0
DICTIONARYVAR
  5
2F1
102
{ACAD_REACTORS
330
2F0
102
}
100
DictionaryVariables
280
     0
  1
1
  0
XRECORD
  5
2E9
102
{ACAD_REACTORS
330
2E8
102
}
100
AcDbXrecord
102
EXTNAMES
  1
MODEL
  2
Model
  0
XRECORD
  5
2E7
102
{ACAD_REACTORS
330
2E6
102
}
100
AcDbXrecord
102
EXTNAMES
  1
STANDARD
  2
Standard
  0
ENDSEC
  0
EOF
