  0
SECTION
  2
HEADER
  9
$ACADVER
  1
AC1014
  9
$ACADMAINTVER
 70
     0
  9
$DWGCODEPAGE
  3
ANSI_932
  9
$INSBASE
 10
0.0
 20
0.0
 30
0.0
  9
$EXTMIN
 10
189.511482
 20
169.954845
 30
0.0
  9
$EXTMAX
 10
440.146362
 20
263.972572
 30
0.0
  9
$LIMMIN
 10
0.0
 20
0.0
  9
$LIMMAX
 10
594.0
 20
420.0
  9
$ORTHOMODE
 70
     0
  9
$REGENMODE
 70
     1
  9
$FILLMODE
 70
     1
  9
$QTEXTMODE
 70
     0
  9
$MIRRTEXT
 70
     1
  9
$DRAGMODE
 70
     2
  9
$LTSCALE
 40
0.25
  9
$OSMODE
 70
    37
  9
$ATTMODE
 70
     1
  9
$TEXTSIZE
 40
4.0
  9
$TRACEWID
 40
1.0
  9
$TEXTSTYLE
  7
STANDARD
  9
$CLAYER
  8
0
  9
$CELTYPE
  6
BYLAYER
  9
$CECOLOR
 62
   256
  9
$CELTSCALE
 40
1.0
  9
$DELOBJ
 70
     1
  9
$DISPSILH
 70
     0
  9
$DIMSCALE
 40
2.0
  9
$DIMASZ
 40
3.0
  9
$DIMEXO
 40
1.0
  9
$DIMDLI
 40
0.0
  9
$DIMRND
 40
0.0
  9
$DIMDLE
 40
0.0
  9
$DIMEXE
 40
1.0
  9
$DIMTP
 40
0.1
  9
$DIMTM
 40
0.0
  9
$DIMTXT
 40
3.2
  9
$DIMCEN
 40
0.0
  9
$DIMTSZ
 40
0.0
  9
$DIMTOL
 70
     0
  9
$DIMLIM
 70
     0
  9
$DIMTIH
 70
     0
  9
$DIMTOH
 70
     0
  9
$DIMSE1
 70
     0
  9
$DIMSE2
 70
     0
  9
$DIMTAD
 70
     0
  9
$DIMZIN
 70
     8
  9
$DIMBLK
  1

  9
$DIMASO
 70
     1
  9
$DIMSHO
 70
     1
  9
$DIMPOST
  1

  9
$DIMAPOST
  1

  9
$DIMALT
 70
     0
  9
$DIMALTD
 70
     2
  9
$DIMALTF
 40
0.04
  9
$DIMLFAC
 40
1.0
  9
$DIMTOFL
 70
     1
  9
$DIMTVP
 40
1.0
  9
$DIMTIX
 70
     1
  9
$DIMSOXD
 70
     0
  9
$DIMSAH
 70
     1
  9
$DIMBLK1
  1
DOT
  9
$DIMBLK2
  1
ARROW
  9
$DIMSTYLE
  2
DA1
  9
$DIMCLRD
 70
     0
  9
$DIMCLRE
 70
     0
  9
$DIMCLRT
 70
     0
  9
$DIMTFAC
 40
0.6
  9
$DIMGAP
 40
0.0
  9
$DIMJUST
 70
     0
  9
$DIMSD1
 70
     0
  9
$DIMSD2
 70
     0
  9
$DIMTOLJ
 70
     1
  9
$DIMTZIN
 70
     0
  9
$DIMALTZ
 70
     0
  9
$DIMALTTZ
 70
     0
  9
$DIMFIT
 70
     3
  9
$DIMUPT
 70
     0
  9
$DIMUNIT
 70
     2
  9
$DIMDEC
 70
     4
  9
$DIMTDEC
 70
     4
  9
$DIMALTU
 70
     2
  9
$DIMALTTD
 70
     2
  9
$DIMTXSTY
  7
STANDARD
  9
$DIMAUNIT
 70
     0
  9
$LUNITS
 70
     2
  9
$LUPREC
 70
     2
  9
$SKETCHINC
 40
1.0
  9
$FILLETRAD
 40
10.0
  9
$AUNITS
 70
     0
  9
$AUPREC
 70
     0
  9
$MENU
  1
acad
  9
$ELEVATION
 40
0.0
  9
$PELEVATION
 40
0.0
  9
$THICKNESS
 40
0.0
  9
$LIMCHECK
 70
     0
  9
$BLIPMODE
 70
     0
  9
$CHAMFERA
 40
0.0
  9
$CHAMFERB
 40
0.0
  9
$CHAMFERC
 40
0.0
  9
$CHAMFERD
 40
0.0
  9
$SKPOLY
 70
     0
  9
$TDCREATE
 40
2451466.513953125
  9
$TDUPDATE
 40
2452821.784593402
  9
$TDINDWG
 40
0.0001880787
  9
$TDUSRTIMER
 40
0.0001880787
  9
$USRTIMER
 70
     1
  9
$ANGBASE
 50
0.0
  9
$ANGDIR
 70
     0
  9
$PDMODE
 70
     1
  9
$PDSIZE
 40
0.0
  9
$PLINEWID
 40
0.0
  9
$COORDS
 70
     1
  9
$SPLFRAME
 70
     0
  9
$SPLINETYPE
 70
     6
  9
$SPLINESEGS
 70
     8
  9
$ATTDIA
 70
     0
  9
$ATTREQ
 70
     1
  9
$HANDLING
 70
     1
  9
$HANDSEED
  5
35C
  9
$SURFTAB1
 70
     6
  9
$SURFTAB2
 70
     6
  9
$SURFTYPE
 70
     6
  9
$SURFU
 70
     6
  9
$SURFV
 70
     6
  9
$UCSNAME
  2

  9
$UCSORG
 10
0.0
 20
0.0
 30
0.0
  9
$UCSXDIR
 10
1.0
 20
0.0
 30
0.0
  9
$UCSYDIR
 10
0.0
 20
1.0
 30
0.0
  9
$PUCSNAME
  2

  9
$PUCSORG
 10
0.0
 20
0.0
 30
0.0
  9
$PUCSXDIR
 10
1.0
 20
0.0
 30
0.0
  9
$PUCSYDIR
 10
0.0
 20
1.0
 30
0.0
  9
$USERI1
 70
     0
  9
$USERI2
 70
     0
  9
$USERI3
 70
     0
  9
$USERI4
 70
     0
  9
$USERI5
 70
     0
  9
$USERR1
 40
0.0
  9
$USERR2
 40
0.0
  9
$USERR3
 40
0.0
  9
$USERR4
 40
0.0
  9
$USERR5
 40
0.0
  9
$WORLDVIEW
 70
     1
  9
$SHADEDGE
 70
     3
  9
$SHADEDIF
 70
    70
  9
$TILEMODE
 70
     1
  9
$MAXACTVP
 70
    16
  9
$PINSBASE
 10
0.0
 20
0.0
 30
0.0
  9
$PLIMCHECK
 70
     0
  9
$PEXTMIN
 10
1.000000E+20
 20
1.000000E+20
 30
1.000000E+20
  9
$PEXTMAX
 10
-1.000000E+20
 20
-1.000000E+20
 30
-1.000000E+20
  9
$PLIMMIN
 10
0.0
 20
0.0
  9
$PLIMMAX
 10
420.0
 20
297.0
  9
$UNITMODE
 70
     0
  9
$VISRETAIN
 70
     0
  9
$PLINEGEN
 70
     0
  9
$PSLTSCALE
 70
     0
  9
$TREEDEPTH
 70
  3020
  9
$PICKSTYLE
 70
     1
  9
$CMLSTYLE
  2
STANDARD
  9
$CMLJUST
 70
     0
  9
$CMLSCALE
 40
1.0
  9
$PROXYGRAPHICS
 70
     1
  9
$MEASUREMENT
 70
     0
  0
ENDSEC
  0
SECTION
  2
CLASSES
  0
CLASS
  1
ACDBDICTIONARYWDFLT
  2
AcDbDictionaryWithDefault
  3
AutoCAD 2000
 90
        0
280
     0
281
     0
  0
CLASS
  1
ACDBPLACEHOLDER
  2
AcDbPlaceHolder
  3
AutoCAD 2000
 90
        0
280
     0
281
     0
  0
CLASS
  1
LAYOUT
  2
AcDbLayout
  3
AutoCAD 2000
 90
        0
280
     0
281
     0
  0
CLASS
  1
DICTIONARYVAR
  2
AcDbDictionaryVar
  3
"AutoCAD"
 90
        0
280
     0
281
     0
  0
CLASS
  1
LONG_TRANSACTION
  2
AcDbLongTransaction
  3
AutoCAD 2000
 90
        0
280
     0
281
     0
  0
CLASS
  1
LWPOLYLINE
  2
AcDbPolyline
  3
"AutoCAD"
 90
        0
280
     0
281
     1
  0
CLASS
  1
HATCH
  2
AcDbHatch
  3
"ACAD_SEDONA"
 90
        0
280
     0
281
     1
  0
CLASS
  1
XRECORD
  2
AcDbXrecord
  3
"<Built In>"
 90
        0
280
     0
281
     0
  0
ENDSEC
  0
SECTION
  2
TABLES
  0
TABLE
  2
VPORT
  5
192
100
AcDbSymbolTable
 70
     1
  0
VPORT
  5
323
102
{ACAD_XDICTIONARY
360
32C
102
}
100
AcDbSymbolTableRecord
100
AcDbViewportTableRecord
  2
*ACTIVE
 70
     0
 10
0.0
 20
0.0
 11
1.0
 21
1.0
 12
297.000001
 22
306.442612
 13
0.0
 23
0.0
 14
10.0
 24
10.0
 15
0.0
 25
0.0
 16
0.0
 26
0.0
 36
1.0
 17
0.0
 27
0.0
 37
0.0
 40
674.635053
 41
1.570997
 42
50.0
 43
0.0
 44
0.0
 50
0.0
 51
0.0
 71
     0
 72
   100
 73
     1
 74
     0
 75
     0
 76
     0
 77
     0
 78
     1
  0
ENDTAB
  0
TABLE
  2
LTYPE
  5
18F
100
AcDbSymbolTable
 70
     2
  0
LTYPE
  5
19D
102
{ACAD_XDICTIONARY
360
328
102
}
100
AcDbSymbolTableRecord
100
AcDbLinetypeTableRecord
  2
BYBLOCK
 70
     0
  3

 72
    65
 73
     0
 40
0.0
  0
LTYPE
  5
19E
102
{ACAD_XDICTIONARY
360
32A
102
}
100
AcDbSymbolTableRecord
100
AcDbLinetypeTableRecord
  2
BYLAYER
 70
     0
  3

 72
    65
 73
     0
 40
0.0
  0
LTYPE
  5
19F
100
AcDbSymbolTableRecord
100
AcDbLinetypeTableRecord
  2
CONTINUOUS
 70
     0
  3
Solid line
 72
    65
 73
     0
 40
0.0
  0
LTYPE
  5
1AD
100
AcDbSymbolTableRecord
100
AcDbLinetypeTableRecord
  2
CENTER
 70
     0
  3
____ _ ____ _ ____ _ ____ _ ____ _ ____ _ ____ 
 72
    65
 73
     4
 40
50.8
 49
31.75
 74
     0
 49
-6.35
 74
     0
 49
6.35
 74
     0
 49
-6.35
 74
     0
  0
ENDTAB
  0
TABLE
  2
LAYER
  5
18C
100
AcDbSymbolTable
 70
     3
  0
LAYER
  5
19A
100
AcDbSymbolTableRecord
100
AcDbLayerTableRecord
  2
0
 70
     0
 62
     7
  6
CONTINUOUS
  0
LAYER
  5
1AE
100
AcDbSymbolTableRecord
100
AcDbLayerTableRecord
  2
DIMENSION
 70
     0
 62
    -4
  6
CONTINUOUS
  0
LAYER
  5
1AF
100
AcDbSymbolTableRecord
100
AcDbLayerTableRecord
  2
CENTER
 70
     0
 62
     1
  6
CENTER
  0
ENDTAB
  0
TABLE
  2
STYLE
  5
18D
100
AcDbSymbolTable
 70
     1
  0
STYLE
  5
19B
100
AcDbSymbolTableRecord
100
AcDbTextStyleTableRecord
  2
STANDARD
 70
     0
 40
0.0
 41
1.0
 50
0.0
 71
     0
 42
4.0
  3
txt
  4

  0
ENDTAB
  0
TABLE
  2
VIEW
  5
190
100
AcDbSymbolTable
 70
     0
  0
ENDTAB
  0
TABLE
  2
UCS
  5
191
100
AcDbSymbolTable
 70
     0
  0
ENDTAB
  0
TABLE
  2
APPID
  5
193
100
AcDbSymbolTable
 70
     1
  0
APPID
  5
19C
100
AcDbSymbolTableRecord
100
AcDbRegAppTableRecord
  2
ACAD
 70
     0
  0
ENDTAB
  0
TABLE
  2
DIMSTYLE
  5
194
100
AcDbSymbolTable
 70
     1
  0
DIMSTYLE
105
1B0
102
{ACAD_XDICTIONARY
360
355
102
}
100
AcDbSymbolTableRecord
100
AcDbDimStyleTableRecord
  2
DA1
 70
     0
  3

  4

  5

  6

  7

 40
2.0
 41
3.0
 42
1.0
 43
0.0
 44
1.0
 45
0.0
 46
0.0
 47
0.1
 48
0.0
140
3.2
141
0.0
142
0.0
143
0.04
144
1.0
145
1.0
146
0.6
147
0.0
 71
     1
 72
     0
 73
     0
 74
     0
 75
     0
 76
     0
 77
     0
 78
     8
170
     0
171
     2
172
     1
173
     1
174
     1
175
     0
176
     0
177
     0
178
     0
270
     2
271
     2
272
     2
273
     2
274
     2
340
19B
275
     0
280
     0
281
     0
282
     0
283
     1
284
     8
285
     8
286
     8
287
     5
288
     0
  0
ENDTAB
  0
TABLE
  2
BLOCK_RECORD
  5
18B
100
AcDbSymbolTable
 70
     4
  0
BLOCK_RECORD
  5
1A8
102
{ACAD_XDICTIONARY
360
324
102
}
100
AcDbSymbolTableRecord
100
AcDbBlockTableRecord
  2
*MODEL_SPACE
  0
BLOCK_RECORD
  5
1A4
102
{ACAD_XDICTIONARY
360
326
102
}
100
AcDbSymbolTableRecord
100
AcDbBlockTableRecord
  2
*PAPER_SPACE
  0
BLOCK_RECORD
  5
1B2
100
AcDbSymbolTableRecord
100
AcDbBlockTableRecord
  2
$MODEL_SPACE
  0
BLOCK_RECORD
  5
1B5
100
AcDbSymbolTableRecord
100
AcDbBlockTableRecord
  2
$PAPER_SPACE
  0
BLOCK_RECORD
  5
1B8
100
AcDbSymbolTableRecord
100
AcDbBlockTableRecord
  2
ARROW
  0
BLOCK_RECORD
  5
1BE
100
AcDbSymbolTableRecord
100
AcDbBlockTableRecord
  2
DOT
  0
ENDTAB
  0
ENDSEC
  0
SECTION
  2
BLOCKS
  0
BLOCK
  5
1A9
100
AcDbEntity
  8
0
100
AcDbBlockBegin
  2
*MODEL_SPACE
 70
     0
 10
0.0
 20
0.0
 30
0.0
  3
*MODEL_SPACE
  1

  0
ENDBLK
  5
1AA
100
AcDbEntity
  8
0
100
AcDbBlockEnd
  0
BLOCK
  5
1A5
100
AcDbEntity
 67
     1
  8
0
100
AcDbBlockBegin
  2
*PAPER_SPACE
 70
     0
 10
0.0
 20
0.0
 30
0.0
  3
*PAPER_SPACE
  1

  0
ENDBLK
  5
1A6
100
AcDbEntity
 67
     1
  8
0
100
AcDbBlockEnd
  0
BLOCK
  5
1B3
100
AcDbEntity
  8
0
100
AcDbBlockBegin
  2
$MODEL_SPACE
 70
     0
 10
0.0
 20
0.0
 30
0.0
  3
$MODEL_SPACE
  1

  0
ENDBLK
  5
1B4
100
AcDbEntity
  8
0
100
AcDbBlockEnd
  0
BLOCK
  5
1B6
100
AcDbEntity
  8
0
100
AcDbBlockBegin
  2
$PAPER_SPACE
 70
     0
 10
0.0
 20
0.0
 30
0.0
  3
$PAPER_SPACE
  1

  0
ENDBLK
  5
1B7
100
AcDbEntity
  8
0
100
AcDbBlockEnd
  0
BLOCK
  5
1B9
100
AcDbEntity
  8
0
100
AcDbBlockBegin
  2
ARROW
 70
     0
 10
0.0
 20
0.0
 30
0.0
  3
ARROW
  1

  0
LINE
  5
1BA
100
AcDbEntity
  8
DIMENSION
100
AcDbLine
 10
0.0
 20
0.0
 30
0.0
 11
-1.0
 21
0.176327
 31
0.0
  0
LINE
  5
1BB
100
AcDbEntity
  8
DIMENSION
100
AcDbLine
 10
0.0
 20
0.0
 30
0.0
 11
-1.0
 21
-0.176327
 31
0.0
  0
LINE
  5
1BC
100
AcDbEntity
  8
DIMENSION
100
AcDbLine
 10
-1.0
 20
0.0
 30
0.0
 11
0.0
 21
0.0
 31
0.0
  0
ENDBLK
  5
1BD
100
AcDbEntity
  8
0
100
AcDbBlockEnd
  0
BLOCK
  5
1BF
100
AcDbEntity
  8
0
100
AcDbBlockBegin
  2
DOT
 70
     0
 10
0.0
 20
0.0
 30
0.0
  3
DOT
  1
DOT2
  0
LWPOLYLINE
  5
1C0
100
AcDbEntity
  8
DIMENSION
100
AcDbPolyline
 90
        2
 70
     1
 43
0.165
 10
-0.082512
 20
0.000018
 42
1.0
 10
0.082488
 20
0.000018
 42
1.0
  0
LINE
  5
1C4
100
AcDbEntity
  8
DIMENSION
100
AcDbLine
 10
-0.000012
 20
0.000018
 30
0.0
 11
-1.000012
 21
0.000018
 31
0.0
  0
ENDBLK
  5
1C5
100
AcDbEntity
  8
0
100
AcDbBlockEnd
  0
ENDSEC
  0
SECTION
  2
ENTITIES
  0
LINE
  5
1C6
100
AcDbEntity
  8
0
100
AcDbLine
 10
211.168088
 20
196.963709
 30
0.0
 11
211.168088
 21
236.963709
 31
0.0
  0
LINE
  5
1C7
100
AcDbEntity
  8
0
100
AcDbLine
 10
197.218088
 20
239.213709
 30
0.0
 11
197.218088
 21
194.713709
 31
0.0
  0
LINE
  5
1C8
100
AcDbEntity
  8
0
100
AcDbLine
 10
199.168088
 20
239.213709
 30
0.0
 11
199.168088
 21
194.713709
 31
0.0
  0
LINE
  5
1C9
100
AcDbEntity
  8
0
100
AcDbLine
 10
253.218088
 20
239.213709
 30
0.0
 11
253.218088
 21
194.713709
 31
0.0
  0
LINE
  5
1CA
100
AcDbEntity
  8
0
100
AcDbLine
 10
251.268088
 20
239.213709
 30
0.0
 11
251.268088
 21
194.713709
 31
0.0
  0
LINE
  5
1CB
100
AcDbEntity
  8
0
100
AcDbLine
 10
239.268088
 20
196.963709
 30
0.0
 11
239.268088
 21
236.963709
 31
0.0
  0
LINE
  5
1CC
100
AcDbEntity
  8
0
100
AcDbLine
 10
255.218088
 20
191.963709
 30
0.0
 11
255.218088
 21
241.963709
 31
0.0
  0
LINE
  5
1CD
100
AcDbEntity
  8
0
100
AcDbLine
 10
195.218088
 20
191.963709
 30
0.0
 11
195.218088
 21
241.963709
 31
0.0
  0
LINE
  5
1D0
100
AcDbEntity
  8
0
100
AcDbLine
 10
210.168088
 20
206.963709
 30
0.0
 11
200.168088
 21
206.963709
 31
0.0
  0
CIRCLE
  5
1D1
100
AcDbEntity
  8
0
100
AcDbCircle
 10
205.168088
 20
201.213709
 30
0.0
 40
3.175
  0
LINE
  5
1D2
100
AcDbEntity
  8
0
100
AcDbLine
 10
210.168088
 20
195.963709
 30
0.0
 11
199.168088
 21
195.963709
 31
0.0
  0
LINE
  5
1D3
100
AcDbEntity
  8
0
100
AcDbLine
 10
195.218088
 20
191.963709
 30
0.0
 11
215.218088
 21
191.963709
 31
0.0
  0
LINE
  5
1D4
100
AcDbEntity
  8
0
100
AcDbLine
 10
199.801088
 20
200.163589
 30
0.0
 11
199.801088
 21
203.363719
 31
0.0
  0
LINE
  5
1D5
100
AcDbEntity
  8
0
100
AcDbLine
 10
199.601088
 20
200.080619
 30
0.0
 11
199.601088
 21
203.363729
 31
0.0
  0
LINE
  5
1D6
100
AcDbEntity
  8
0
100
AcDbLine
 10
199.168088
 20
198.713709
 30
0.0
 11
197.218088
 21
198.713709
 31
0.0
  0
LINE
  5
1D7
100
AcDbEntity
  8
0
100
AcDbLine
 10
199.168088
 20
194.713709
 30
0.0
 11
197.218088
 21
194.713709
 31
0.0
  0
LINE
  5
1D8
100
AcDbEntity
  8
0
100
AcDbLine
 10
197.218088
 20
195.963709
 30
0.0
 11
195.218088
 21
195.963709
 31
0.0
  0
ARC
  5
1D9
100
AcDbEntity
  8
0
100
AcDbCircle
 10
199.268088
 20
198.463719
 30
0.0
 40
0.1
100
AcDbArc
 50
90.0
 51
180.0
  0
LINE
  5
1DA
100
AcDbEntity
  8
0
100
AcDbLine
 10
199.268088
 20
198.563719
 30
0.0
 11
199.728138
 21
198.563719
 31
0.0
  0
ARC
  5
1DB
100
AcDbEntity
  8
0
100
AcDbCircle
 10
199.88134
 20
198.692285
 30
0.0
 40
0.2
100
AcDbArc
 50
129.91738
 51
219.998032
  0
LINE
  5
1DC
100
AcDbEntity
  8
0
100
AcDbLine
 10
199.906106
 20
198.973772
 30
0.0
 11
200.034095
 21
198.820784
 31
0.0
  0
LINE
  5
1DD
100
AcDbEntity
  8
0
100
AcDbLine
 10
200.034095
 20
198.820784
 30
0.0
 11
199.881093
 21
198.692763
 31
0.0
  0
LINE
  5
1DE
100
AcDbEntity
  8
0
100
AcDbLine
 10
199.881093
 20
198.692763
 30
0.0
 11
200.131418
 21
198.394435
 31
0.0
  0
ARC
  5
1DF
100
AcDbEntity
  8
0
100
AcDbCircle
 10
200.207552
 20
198.459072
 30
0.0
 40
0.3
100
AcDbArc
 50
219.998032
 51
355.003307
  0
ARC
  5
1E0
100
AcDbEntity
  8
0
100
AcDbCircle
 10
200.208022
 20
198.458714
 30
0.0
 40
0.1
100
AcDbArc
 50
219.999779
 51
357.180215
  0
LINE
  5
1E1
100
AcDbEntity
  8
0
100
AcDbLine
 10
200.551088
 20
198.943719
 30
0.0
 11
200.551088
 21
199.413559
 31
0.0
  0
LINE
  5
1E2
100
AcDbEntity
  8
0
100
AcDbLine
 10
200.307901
 20
198.453794
 30
0.0
 11
200.351089
 21
199.330628
 31
0.0
  0
LINE
  5
1E3
100
AcDbEntity
  8
0
100
AcDbLine
 10
200.506412
 20
198.432943
 30
0.0
 11
200.571065
 21
199.172419
 31
0.0
  0
ARC
  5
1E4
100
AcDbEntity
  8
0
100
AcDbCircle
 10
200.670685
 20
199.163709
 30
0.0
 40
0.1
100
AcDbArc
 50
90.0
 51
175.003307
  0
LINE
  5
1E5
100
AcDbEntity
  8
0
100
AcDbLine
 10
200.670685
 20
199.263709
 30
0.0
 11
202.662469
 21
199.263709
 31
0.0
  0
LINE
  5
1E6
100
AcDbEntity
  8
0
100
AcDbLine
 10
200.551088
 20
199.413559
 30
0.0
 11
199.801088
 21
200.163589
 31
0.0
  0
LINE
  5
1E7
100
AcDbEntity
  8
0
100
AcDbLine
 10
200.351089
 20
199.330628
 30
0.0
 11
199.601088
 21
200.080619
 31
0.0
  0
LINE
  5
1E8
100
AcDbEntity
  8
0
100
AcDbLine
 10
199.728126
 20
198.563733
 30
0.0
 11
199.977732
 21
198.266244
 31
0.0
  0
ARC
  5
1E9
100
AcDbEntity
  8
0
100
AcDbCircle
 10
200.168088
 20
196.963709
 30
0.0
 40
1.0
100
AcDbArc
 50
180.0
 51
270.0
  0
LINE
  5
1EA
100
AcDbEntity
  8
0
100
AcDbLine
 10
199.906106
 20
198.973772
 30
0.0
 11
199.753003
 21
198.845679
 31
0.0
  0
ARC
  5
1EB
100
AcDbEntity
  8
0
100
AcDbCircle
 10
199.368088
 20
203.963729
 30
0.0
 40
0.2
100
AcDbArc
 50
180.0
 51
270.0
  0
LINE
  5
1EC
100
AcDbEntity
  8
0
100
AcDbLine
 10
199.368088
 20
203.763729
 30
0.0
 11
199.66807
 21
203.763729
 31
0.0
  0
ARC
  5
1ED
100
AcDbEntity
  8
0
100
AcDbCircle
 10
199.801088
 20
203.363729
 30
0.0
 40
0.2
100
AcDbArc
 50
90.0
 51
180.0
  0
ARC
  5
1EE
100
AcDbEntity
  8
0
100
AcDbCircle
 10
200.162003
 20
203.963719
 30
0.0
 40
0.2
100
AcDbArc
 50
20.008605
 51
90.0
  0
LINE
  5
1EF
100
AcDbEntity
  8
0
100
AcDbLine
 10
200.251088
 20
203.563729
 30
0.0
 11
200.251088
 21
203.363719
 31
0.0
  0
LINE
  5
1F0
100
AcDbEntity
  8
0
100
AcDbLine
 10
200.349932
 20
204.032151
 30
0.0
 11
200.618254
 21
203.295286
 31
0.0
  0
ARC
  5
1F1
100
AcDbEntity
  8
0
100
AcDbCircle
 10
200.096909
 20
203.963719
 30
0.0
 40
0.2
100
AcDbArc
 50
90.0
 51
140.005496
  0
LINE
  5
1F2
100
AcDbEntity
  8
0
100
AcDbLine
 10
200.096909
 20
204.163719
 30
0.0
 11
200.162003
 21
204.163719
 31
0.0
  0
ARC
  5
1F3
100
AcDbEntity
  8
0
100
AcDbCircle
 10
200.806182
 20
203.363719
 30
0.0
 40
0.2
100
AcDbArc
 50
200.008605
 51
270.0
  0
LINE
  5
1F4
100
AcDbEntity
  8
0
100
AcDbLine
 10
200.806182
 20
203.163719
 30
0.0
 11
202.662477
 21
203.163719
 31
0.0
  0
ARC
  5
1F5
100
AcDbEntity
  8
0
100
AcDbCircle
 10
200.168088
 20
205.963709
 30
0.0
 40
1.0
100
AcDbArc
 50
90.0
 51
180.0
  0
LINE
  5
1F6
100
AcDbEntity
  8
0
100
AcDbLine
 10
200.251088
 20
203.363719
 30
0.0
 11
199.801088
 21
203.363719
 31
0.0
  0
LINE
  5
1F7
100
AcDbEntity
  8
0
100
AcDbLine
 10
199.801088
 20
203.563729
 30
0.0
 11
200.251088
 21
203.563729
 31
0.0
  0
LINE
  5
1F8
100
AcDbEntity
  8
0
100
AcDbLine
 10
199.66807
 20
203.763729
 30
0.0
 11
199.943688
 21
204.092262
 31
0.0
  0
LINE
  5
1F9
100
AcDbEntity
  8
0
100
AcDbLine
 10
226.218088
 20
191.963709
 30
0.0
 11
255.218088
 21
191.963709
 31
0.0
  0
LINE
  5
1FA
100
AcDbEntity
  8
0
100
AcDbLine
 10
250.530071
 20
198.973772
 30
0.0
 11
250.683173
 21
198.845679
 31
0.0
  0
ARC
  5
1FB
100
AcDbEntity
  8
0
100
AcDbCircle
 10
250.268088
 20
196.963709
 30
0.0
 40
1.0
100
AcDbArc
 50
270.0
 51
360.0
  0
LINE
  5
1FC
100
AcDbEntity
  8
0
100
AcDbLine
 10
250.70805
 20
198.563733
 30
0.0
 11
250.458444
 21
198.266244
 31
0.0
  0
LINE
  5
1FD
100
AcDbEntity
  8
0
100
AcDbLine
 10
250.085087
 20
199.330628
 30
0.0
 11
250.835088
 21
200.080619
 31
0.0
  0
LINE
  5
1FE
100
AcDbEntity
  8
0
100
AcDbLine
 10
249.885088
 20
199.413559
 30
0.0
 11
250.635088
 21
200.163589
 31
0.0
  0
LINE
  5
1FF
100
AcDbEntity
  8
0
100
AcDbLine
 10
250.768106
 20
203.763729
 30
0.0
 11
250.492488
 21
204.092262
 31
0.0
  0
LINE
  5
200
100
AcDbEntity
  8
0
100
AcDbLine
 10
250.635088
 20
203.563729
 30
0.0
 11
250.185088
 21
203.563729
 31
0.0
  0
LINE
  5
201
100
AcDbEntity
  8
0
100
AcDbLine
 10
250.185088
 20
203.363719
 30
0.0
 11
250.635088
 21
203.363719
 31
0.0
  0
ARC
  5
202
100
AcDbEntity
  8
0
100
AcDbCircle
 10
250.268088
 20
205.963709
 30
0.0
 40
1.0
100
AcDbArc
 50
360.0
 51
90.0
  0
LINE
  5
203
100
AcDbEntity
  8
0
100
AcDbLine
 10
240.268088
 20
195.963709
 30
0.0
 11
251.268088
 21
195.963709
 31
0.0
  0
LINE
  5
204
100
AcDbEntity
  8
CENTER
  6
CENTER
 62
     1
100
AcDbLine
 10
213.218088
 20
184.963709
 30
0.0
 11
228.218088
 21
184.963709
 31
0.0
  0
LINE
  5
205
100
AcDbEntity
  8
0
100
AcDbLine
 10
211.168088
 20
198.963709
 30
0.0
 11
239.268088
 21
198.963709
 31
0.0
  0
LINE
  5
206
100
AcDbEntity
  8
0
100
AcDbLine
 10
220.118088
 20
181.663709
 30
0.0
 11
215.218088
 21
181.663709
 31
0.0
  0
LINE
  5
207
100
AcDbEntity
  8
0
100
AcDbLine
 10
220.118088
 20
188.263709
 30
0.0
 11
215.218088
 21
188.263709
 31
0.0
  0
LINE
  5
208
100
AcDbEntity
  8
0
100
AcDbLine
 10
226.218088
 20
178.463709
 30
0.0
 11
215.218088
 21
178.463709
 31
0.0
  0
LINE
  5
209
100
AcDbEntity
  8
0
100
AcDbLine
 10
215.218088
 20
178.463709
 30
0.0
 11
215.218088
 21
191.963709
 31
0.0
  0
LINE
  5
20A
100
AcDbEntity
  8
0
100
AcDbLine
 10
220.118088
 20
179.463709
 30
0.0
 11
220.118088
 21
190.463709
 31
0.0
  0
LINE
  5
20B
100
AcDbEntity
  8
0
100
AcDbLine
 10
226.218088
 20
178.463709
 30
0.0
 11
226.218088
 21
191.963709
 31
0.0
  0
LINE
  5
20C
100
AcDbEntity
  8
0
100
AcDbLine
 10
226.218088
 20
179.463709
 30
0.0
 11
220.118088
 21
179.463709
 31
0.0
  0
LINE
  5
20D
100
AcDbEntity
  8
0
100
AcDbLine
 10
226.218088
 20
190.463709
 30
0.0
 11
220.118088
 21
190.463709
 31
0.0
  0
LINE
  5
20E
100
AcDbEntity
  8
0
100
AcDbLine
 10
210.735088
 20
200.080619
 30
0.0
 11
210.735088
 21
203.363729
 31
0.0
  0
LINE
  5
20F
100
AcDbEntity
  8
0
100
AcDbLine
 10
210.535088
 20
200.163589
 30
0.0
 11
210.535088
 21
203.363719
 31
0.0
  0
LINE
  5
210
100
AcDbEntity
  8
0
100
AcDbLine
 10
209.985087
 20
199.330628
 30
0.0
 11
210.735088
 21
200.080619
 31
0.0
  0
LINE
  5
211
100
AcDbEntity
  8
0
100
AcDbLine
 10
209.785088
 20
199.413559
 30
0.0
 11
210.535088
 21
200.163589
 31
0.0
  0
ARC
  5
212
100
AcDbEntity
  8
0
100
AcDbCircle
 10
210.128624
 20
198.459072
 30
0.0
 40
0.3
100
AcDbArc
 50
184.996693
 51
320.001968
  0
LINE
  5
213
100
AcDbEntity
  8
0
100
AcDbLine
 10
210.028275
 20
198.453794
 30
0.0
 11
209.985087
 21
199.330628
 31
0.0
  0
LINE
  5
214
100
AcDbEntity
  8
0
100
AcDbLine
 10
209.665491
 20
199.263709
 30
0.0
 11
207.673707
 21
199.263709
 31
0.0
  0
ARC
  5
215
100
AcDbEntity
  8
0
100
AcDbCircle
 10
209.665491
 20
199.163709
 30
0.0
 40
0.1
100
AcDbArc
 50
4.996693
 51
90.0
  0
LINE
  5
216
100
AcDbEntity
  8
0
100
AcDbLine
 10
209.829764
 20
198.432943
 30
0.0
 11
209.765111
 21
199.172419
 31
0.0
  0
LINE
  5
217
100
AcDbEntity
  8
0
100
AcDbLine
 10
209.785088
 20
198.943719
 30
0.0
 11
209.785088
 21
199.413559
 31
0.0
  0
ARC
  5
218
100
AcDbEntity
  8
0
100
AcDbCircle
 10
210.168088
 20
196.963709
 30
0.0
 40
1.0
100
AcDbArc
 50
270.0
 51
0.0
  0
LINE
  5
219
100
AcDbEntity
  8
0
100
AcDbLine
 10
211.068088
 20
198.563719
 30
0.0
 11
210.608038
 21
198.563719
 31
0.0
  0
ARC
  5
21A
100
AcDbEntity
  8
0
100
AcDbCircle
 10
211.068088
 20
198.463719
 30
0.0
 40
0.1
100
AcDbArc
 50
0.0
 51
90.0
  0
ARC
  5
21B
100
AcDbEntity
  8
0
100
AcDbCircle
 10
210.128154
 20
198.458714
 30
0.0
 40
0.1
100
AcDbArc
 50
182.819785
 51
320.000221
  0
LINE
  5
21C
100
AcDbEntity
  8
0
100
AcDbLine
 10
210.60805
 20
198.563733
 30
0.0
 11
210.358444
 21
198.266244
 31
0.0
  0
LINE
  5
21D
100
AcDbEntity
  8
0
100
AcDbLine
 10
210.430071
 20
198.973772
 30
0.0
 11
210.583173
 21
198.845679
 31
0.0
  0
ARC
  5
21E
100
AcDbEntity
  8
0
100
AcDbCircle
 10
210.454836
 20
198.692285
 30
0.0
 40
0.2
100
AcDbArc
 50
320.001968
 51
50.08262
  0
LINE
  5
21F
100
AcDbEntity
  8
0
100
AcDbLine
 10
210.455083
 20
198.692763
 30
0.0
 11
210.204758
 21
198.394435
 31
0.0
  0
LINE
  5
220
100
AcDbEntity
  8
0
100
AcDbLine
 10
210.302081
 20
198.820784
 30
0.0
 11
210.455083
 21
198.692763
 31
0.0
  0
LINE
  5
221
100
AcDbEntity
  8
0
100
AcDbLine
 10
210.430071
 20
198.973772
 30
0.0
 11
210.302081
 21
198.820784
 31
0.0
  0
ARC
  5
222
100
AcDbEntity
  8
0
100
AcDbCircle
 10
210.174173
 20
203.963719
 30
0.0
 40
0.2
100
AcDbArc
 50
90.0
 51
159.991395
  0
ARC
  5
223
100
AcDbEntity
  8
0
100
AcDbCircle
 10
209.529994
 20
203.363719
 30
0.0
 40
0.2
100
AcDbArc
 50
270.0
 51
339.991395
  0
LINE
  5
224
100
AcDbEntity
  8
0
100
AcDbLine
 10
209.986245
 20
204.032151
 30
0.0
 11
209.717922
 21
203.295286
 31
0.0
  0
LINE
  5
225
100
AcDbEntity
  8
0
100
AcDbLine
 10
209.529994
 20
203.163719
 30
0.0
 11
207.673699
 21
203.163719
 31
0.0
  0
LINE
  5
226
100
AcDbEntity
  8
0
100
AcDbLine
 10
210.968088
 20
203.763729
 30
0.0
 11
210.668106
 21
203.763729
 31
0.0
  0
ARC
  5
227
100
AcDbEntity
  8
0
100
AcDbCircle
 10
210.168088
 20
205.963709
 30
0.0
 40
1.0
100
AcDbArc
 50
0.0
 51
90.0
  0
ARC
  5
228
100
AcDbEntity
  8
0
100
AcDbCircle
 10
210.968088
 20
203.963729
 30
0.0
 40
0.2
100
AcDbArc
 50
270.0
 51
0.0
  0
LINE
  5
229
100
AcDbEntity
  8
0
100
AcDbLine
 10
210.535088
 20
203.563729
 30
0.0
 11
210.085088
 21
203.563729
 31
0.0
  0
LINE
  5
22A
100
AcDbEntity
  8
0
100
AcDbLine
 10
210.085088
 20
203.363719
 30
0.0
 11
210.535088
 21
203.363719
 31
0.0
  0
LINE
  5
22B
100
AcDbEntity
  8
0
100
AcDbLine
 10
210.668106
 20
203.763729
 30
0.0
 11
210.392488
 21
204.092262
 31
0.0
  0
ARC
  5
22C
100
AcDbEntity
  8
0
100
AcDbCircle
 10
210.535088
 20
203.363729
 30
0.0
 40
0.2
100
AcDbArc
 50
0.0
 51
90.0
  0
ARC
  5
22D
100
AcDbEntity
  8
0
100
AcDbCircle
 10
210.239267
 20
203.963719
 30
0.0
 40
0.2
100
AcDbArc
 50
39.994504
 51
90.0
  0
LINE
  5
22E
100
AcDbEntity
  8
0
100
AcDbLine
 10
210.239267
 20
204.163719
 30
0.0
 11
210.174173
 21
204.163719
 31
0.0
  0
LINE
  5
22F
100
AcDbEntity
  8
0
100
AcDbLine
 10
210.085088
 20
203.563729
 30
0.0
 11
210.085088
 21
203.363719
 31
0.0
  0
LINE
  5
230
100
AcDbEntity
  8
0
100
AcDbLine
 10
239.901088
 20
200.163589
 30
0.0
 11
239.901088
 21
203.363719
 31
0.0
  0
LINE
  5
231
100
AcDbEntity
  8
0
100
AcDbLine
 10
239.701088
 20
200.080619
 30
0.0
 11
239.701088
 21
203.363729
 31
0.0
  0
CIRCLE
  5
232
100
AcDbEntity
  8
0
100
AcDbCircle
 10
245.268088
 20
201.213709
 30
0.0
 40
3.175
  0
LINE
  5
233
100
AcDbEntity
  8
0
100
AcDbLine
 10
240.651088
 20
198.943719
 30
0.0
 11
240.651088
 21
199.413559
 31
0.0
  0
LINE
  5
234
100
AcDbEntity
  8
0
100
AcDbLine
 10
240.407901
 20
198.453794
 30
0.0
 11
240.451089
 21
199.330628
 31
0.0
  0
LINE
  5
235
100
AcDbEntity
  8
0
100
AcDbLine
 10
240.606412
 20
198.432943
 30
0.0
 11
240.671065
 21
199.172419
 31
0.0
  0
ARC
  5
236
100
AcDbEntity
  8
0
100
AcDbCircle
 10
240.770685
 20
199.163709
 30
0.0
 40
0.1
100
AcDbArc
 50
90.0
 51
175.003307
  0
LINE
  5
237
100
AcDbEntity
  8
0
100
AcDbLine
 10
240.006106
 20
198.973772
 30
0.0
 11
240.134095
 21
198.820784
 31
0.0
  0
LINE
  5
238
100
AcDbEntity
  8
0
100
AcDbLine
 10
240.134095
 20
198.820784
 30
0.0
 11
239.981093
 21
198.692763
 31
0.0
  0
LINE
  5
239
100
AcDbEntity
  8
0
100
AcDbLine
 10
239.981093
 20
198.692763
 30
0.0
 11
240.231418
 21
198.394435
 31
0.0
  0
ARC
  5
23A
100
AcDbEntity
  8
0
100
AcDbCircle
 10
239.98134
 20
198.692285
 30
0.0
 40
0.2
100
AcDbArc
 50
129.91738
 51
219.998032
  0
LINE
  5
23B
100
AcDbEntity
  8
0
100
AcDbLine
 10
240.006106
 20
198.973772
 30
0.0
 11
239.853003
 21
198.845679
 31
0.0
  0
LINE
  5
23C
100
AcDbEntity
  8
0
100
AcDbLine
 10
239.828126
 20
198.563733
 30
0.0
 11
240.077732
 21
198.266244
 31
0.0
  0
ARC
  5
23D
100
AcDbEntity
  8
0
100
AcDbCircle
 10
240.308022
 20
198.458714
 30
0.0
 40
0.1
100
AcDbArc
 50
219.999779
 51
357.180215
  0
ARC
  5
23E
100
AcDbEntity
  8
0
100
AcDbCircle
 10
240.307552
 20
198.459072
 30
0.0
 40
0.3
100
AcDbArc
 50
219.998032
 51
355.003307
  0
LINE
  5
23F
100
AcDbEntity
  8
0
100
AcDbLine
 10
240.651088
 20
199.413559
 30
0.0
 11
239.901088
 21
200.163589
 31
0.0
  0
LINE
  5
240
100
AcDbEntity
  8
0
100
AcDbLine
 10
240.451089
 20
199.330628
 30
0.0
 11
239.701088
 21
200.080619
 31
0.0
  0
LINE
  5
241
100
AcDbEntity
  8
0
100
AcDbLine
 10
240.770685
 20
199.263709
 30
0.0
 11
242.762469
 21
199.263709
 31
0.0
  0
ARC
  5
242
100
AcDbEntity
  8
0
100
AcDbCircle
 10
239.368088
 20
198.463719
 30
0.0
 40
0.1
100
AcDbArc
 50
90.0
 51
180.0
  0
LINE
  5
243
100
AcDbEntity
  8
0
100
AcDbLine
 10
239.368088
 20
198.563719
 30
0.0
 11
239.828138
 21
198.563719
 31
0.0
  0
ARC
  5
244
100
AcDbEntity
  8
0
100
AcDbCircle
 10
240.268088
 20
196.963709
 30
0.0
 40
1.0
100
AcDbArc
 50
180.0
 51
270.0
  0
ARC
  5
245
100
AcDbEntity
  8
0
100
AcDbCircle
 10
249.765491
 20
199.163709
 30
0.0
 40
0.1
100
AcDbArc
 50
4.996693
 51
90.0
  0
LINE
  5
246
100
AcDbEntity
  8
0
100
AcDbLine
 10
249.929764
 20
198.432943
 30
0.0
 11
249.865111
 21
199.172419
 31
0.0
  0
LINE
  5
247
100
AcDbEntity
  8
0
100
AcDbLine
 10
250.128275
 20
198.453794
 30
0.0
 11
250.085087
 21
199.330628
 31
0.0
  0
LINE
  5
248
100
AcDbEntity
  8
0
100
AcDbLine
 10
249.885088
 20
198.943719
 30
0.0
 11
249.885088
 21
199.413559
 31
0.0
  0
ARC
  5
249
100
AcDbEntity
  8
0
100
AcDbCircle
 10
250.228154
 20
198.458714
 30
0.0
 40
0.1
100
AcDbArc
 50
182.819785
 51
320.000221
  0
ARC
  5
24A
100
AcDbEntity
  8
0
100
AcDbCircle
 10
250.228624
 20
198.459072
 30
0.0
 40
0.3
100
AcDbArc
 50
184.996693
 51
320.001968
  0
LINE
  5
24B
100
AcDbEntity
  8
0
100
AcDbLine
 10
250.555083
 20
198.692763
 30
0.0
 11
250.304758
 21
198.394435
 31
0.0
  0
LINE
  5
24C
100
AcDbEntity
  8
0
100
AcDbLine
 10
250.402081
 20
198.820784
 30
0.0
 11
250.555083
 21
198.692763
 31
0.0
  0
LINE
  5
24D
100
AcDbEntity
  8
0
100
AcDbLine
 10
250.530071
 20
198.973772
 30
0.0
 11
250.402081
 21
198.820784
 31
0.0
  0
LINE
  5
24E
100
AcDbEntity
  8
0
100
AcDbLine
 10
249.765491
 20
199.263709
 30
0.0
 11
247.773707
 21
199.263709
 31
0.0
  0
LINE
  5
24F
100
AcDbEntity
  8
0
100
AcDbLine
 10
240.268088
 20
206.963709
 30
0.0
 11
250.268088
 21
206.963709
 31
0.0
  0
LINE
  5
250
100
AcDbEntity
  8
0
100
AcDbLine
 10
240.351088
 20
203.563729
 30
0.0
 11
240.351088
 21
203.363719
 31
0.0
  0
LINE
  5
251
100
AcDbEntity
  8
0
100
AcDbLine
 10
240.449932
 20
204.032151
 30
0.0
 11
240.718254
 21
203.295286
 31
0.0
  0
ARC
  5
252
100
AcDbEntity
  8
0
100
AcDbCircle
 10
240.906182
 20
203.363719
 30
0.0
 40
0.2
100
AcDbArc
 50
200.008605
 51
270.0
  0
LINE
  5
253
100
AcDbEntity
  8
0
100
AcDbLine
 10
240.196909
 20
204.163719
 30
0.0
 11
240.262003
 21
204.163719
 31
0.0
  0
ARC
  5
254
100
AcDbEntity
  8
0
100
AcDbCircle
 10
240.196909
 20
203.963719
 30
0.0
 40
0.2
100
AcDbArc
 50
90.0
 51
140.005496
  0
ARC
  5
255
100
AcDbEntity
  8
0
100
AcDbCircle
 10
239.901088
 20
203.363729
 30
0.0
 40
0.2
100
AcDbArc
 50
90.0
 51
180.0
  0
LINE
  5
256
100
AcDbEntity
  8
0
100
AcDbLine
 10
239.76807
 20
203.763729
 30
0.0
 11
240.043688
 21
204.092262
 31
0.0
  0
ARC
  5
257
100
AcDbEntity
  8
0
100
AcDbCircle
 10
240.262003
 20
203.963719
 30
0.0
 40
0.2
100
AcDbArc
 50
20.008605
 51
90.0
  0
LINE
  5
258
100
AcDbEntity
  8
0
100
AcDbLine
 10
240.351088
 20
203.363719
 30
0.0
 11
239.901088
 21
203.363719
 31
0.0
  0
LINE
  5
259
100
AcDbEntity
  8
0
100
AcDbLine
 10
239.901088
 20
203.563729
 30
0.0
 11
240.351088
 21
203.563729
 31
0.0
  0
LINE
  5
25A
100
AcDbEntity
  8
0
100
AcDbLine
 10
240.906182
 20
203.163719
 30
0.0
 11
242.762477
 21
203.163719
 31
0.0
  0
ARC
  5
25B
100
AcDbEntity
  8
0
100
AcDbCircle
 10
239.468088
 20
203.963729
 30
0.0
 40
0.2
100
AcDbArc
 50
180.0
 51
270.0
  0
ARC
  5
25C
100
AcDbEntity
  8
0
100
AcDbCircle
 10
240.268088
 20
205.963709
 30
0.0
 40
1.0
100
AcDbArc
 50
90.0
 51
180.0
  0
LINE
  5
25D
100
AcDbEntity
  8
0
100
AcDbLine
 10
239.468088
 20
203.763729
 30
0.0
 11
239.76807
 21
203.763729
 31
0.0
  0
ARC
  5
25E
100
AcDbEntity
  8
0
100
AcDbCircle
 10
249.629994
 20
203.363719
 30
0.0
 40
0.2
100
AcDbArc
 50
270.0
 51
339.991395
  0
LINE
  5
25F
100
AcDbEntity
  8
0
100
AcDbLine
 10
250.339267
 20
204.163719
 30
0.0
 11
250.274173
 21
204.163719
 31
0.0
  0
ARC
  5
260
100
AcDbEntity
  8
0
100
AcDbCircle
 10
250.339267
 20
203.963719
 30
0.0
 40
0.2
100
AcDbArc
 50
39.994504
 51
90.0
  0
LINE
  5
261
100
AcDbEntity
  8
0
100
AcDbLine
 10
250.086245
 20
204.032151
 30
0.0
 11
249.817922
 21
203.295286
 31
0.0
  0
LINE
  5
262
100
AcDbEntity
  8
0
100
AcDbLine
 10
250.185088
 20
203.563729
 30
0.0
 11
250.185088
 21
203.363719
 31
0.0
  0
ARC
  5
263
100
AcDbEntity
  8
0
100
AcDbCircle
 10
250.274173
 20
203.963719
 30
0.0
 40
0.2
100
AcDbArc
 50
90.0
 51
159.991395
  0
LINE
  5
264
100
AcDbEntity
  8
0
100
AcDbLine
 10
249.629994
 20
203.163719
 30
0.0
 11
247.773699
 21
203.163719
 31
0.0
  0
LINE
  5
265
100
AcDbEntity
  8
0
100
AcDbLine
 10
250.835088
 20
200.080619
 30
0.0
 11
250.835088
 21
203.363729
 31
0.0
  0
LINE
  5
266
100
AcDbEntity
  8
0
100
AcDbLine
 10
250.635088
 20
200.163589
 30
0.0
 11
250.635088
 21
203.363719
 31
0.0
  0
LINE
  5
267
100
AcDbEntity
  8
0
100
AcDbLine
 10
251.268088
 20
198.713709
 30
0.0
 11
253.218088
 21
198.713709
 31
0.0
  0
LINE
  5
268
100
AcDbEntity
  8
0
100
AcDbLine
 10
253.218088
 20
195.963709
 30
0.0
 11
255.218088
 21
195.963709
 31
0.0
  0
LINE
  5
269
100
AcDbEntity
  8
0
100
AcDbLine
 10
251.268088
 20
194.713709
 30
0.0
 11
253.218088
 21
194.713709
 31
0.0
  0
ARC
  5
26A
100
AcDbEntity
  8
0
100
AcDbCircle
 10
250.554836
 20
198.692285
 30
0.0
 40
0.2
100
AcDbArc
 50
320.001968
 51
50.08262
  0
LINE
  5
26B
100
AcDbEntity
  8
0
100
AcDbLine
 10
251.168088
 20
198.563719
 30
0.0
 11
250.708038
 21
198.563719
 31
0.0
  0
ARC
  5
26C
100
AcDbEntity
  8
0
100
AcDbCircle
 10
251.168088
 20
198.463719
 30
0.0
 40
0.1
100
AcDbArc
 50
360.0
 51
90.0
  0
ARC
  5
26D
100
AcDbEntity
  8
0
100
AcDbCircle
 10
250.635088
 20
203.363729
 30
0.0
 40
0.2
100
AcDbArc
 50
360.0
 51
90.0
  0
LINE
  5
26E
100
AcDbEntity
  8
0
100
AcDbLine
 10
251.068088
 20
203.763729
 30
0.0
 11
250.768106
 21
203.763729
 31
0.0
  0
ARC
  5
26F
100
AcDbEntity
  8
0
100
AcDbCircle
 10
251.068088
 20
203.963729
 30
0.0
 40
0.2
100
AcDbArc
 50
270.0
 51
360.0
  0
LINE
  5
270
100
AcDbEntity
  8
CENTER
  6
CENTER
 62
     1
100
AcDbLine
 10
189.511482
 20
216.963709
 30
0.0
 11
263.214957
 21
216.963709
 31
0.0
  0
LINE
  5
271
100
AcDbEntity
  8
0
100
AcDbLine
 10
210.168088
 20
226.963709
 30
0.0
 11
200.168088
 21
226.963709
 31
0.0
  0
CIRCLE
  5
272
100
AcDbEntity
  8
0
100
AcDbCircle
 10
205.168088
 20
232.713709
 30
0.0
 40
3.175
  0
LINE
  5
273
100
AcDbEntity
  8
0
100
AcDbLine
 10
210.168088
 20
237.963709
 30
0.0
 11
199.168088
 21
237.963709
 31
0.0
  0
LINE
  5
274
100
AcDbEntity
  8
0
100
AcDbLine
 10
195.218088
 20
241.963709
 30
0.0
 11
215.218088
 21
241.963709
 31
0.0
  0
LINE
  5
275
100
AcDbEntity
  8
0
100
AcDbLine
 10
200.551088
 20
234.983699
 30
0.0
 11
200.551088
 21
234.513859
 31
0.0
  0
LINE
  5
276
100
AcDbEntity
  8
0
100
AcDbLine
 10
200.307901
 20
235.473623
 30
0.0
 11
200.351089
 21
234.59679
 31
0.0
  0
LINE
  5
277
100
AcDbEntity
  8
0
100
AcDbLine
 10
199.801088
 20
233.763829
 30
0.0
 11
199.801088
 21
230.563699
 31
0.0
  0
LINE
  5
278
100
AcDbEntity
  8
0
100
AcDbLine
 10
199.601088
 20
233.846799
 30
0.0
 11
199.601088
 21
230.563689
 31
0.0
  0
ARC
  5
279
100
AcDbEntity
  8
0
100
AcDbCircle
 10
199.368088
 20
229.963689
 30
0.0
 40
0.2
100
AcDbArc
 50
90.0
 51
180.0
  0
LINE
  5
27A
100
AcDbEntity
  8
0
100
AcDbLine
 10
199.368088
 20
230.163689
 30
0.0
 11
199.66807
 21
230.163689
 31
0.0
  0
ARC
  5
27B
100
AcDbEntity
  8
0
100
AcDbCircle
 10
199.801088
 20
230.563689
 30
0.0
 40
0.2
100
AcDbArc
 50
180.0
 51
270.0
  0
ARC
  5
27C
100
AcDbEntity
  8
0
100
AcDbCircle
 10
200.162003
 20
229.963699
 30
0.0
 40
0.2
100
AcDbArc
 50
270.0
 51
339.991395
  0
LINE
  5
27D
100
AcDbEntity
  8
0
100
AcDbLine
 10
200.251088
 20
230.363689
 30
0.0
 11
200.251088
 21
230.563699
 31
0.0
  0
LINE
  5
27E
100
AcDbEntity
  8
0
100
AcDbLine
 10
200.349932
 20
229.895266
 30
0.0
 11
200.618254
 21
230.632131
 31
0.0
  0
ARC
  5
27F
100
AcDbEntity
  8
0
100
AcDbCircle
 10
200.806182
 20
230.563699
 30
0.0
 40
0.2
100
AcDbArc
 50
90.0
 51
159.991395
  0
ARC
  5
280
100
AcDbEntity
  8
0
100
AcDbCircle
 10
200.096909
 20
229.963699
 30
0.0
 40
0.2
100
AcDbArc
 50
219.994504
 51
270.0
  0
LINE
  5
281
100
AcDbEntity
  8
0
100
AcDbLine
 10
200.096909
 20
229.763699
 30
0.0
 11
200.162003
 21
229.763699
 31
0.0
  0
LINE
  5
282
100
AcDbEntity
  8
0
100
AcDbLine
 10
200.806182
 20
230.763699
 30
0.0
 11
202.662477
 21
230.763699
 31
0.0
  0
ARC
  5
283
100
AcDbEntity
  8
0
100
AcDbCircle
 10
200.168088
 20
227.963709
 30
0.0
 40
1.0
100
AcDbArc
 50
180.0
 51
270.0
  0
LINE
  5
284
100
AcDbEntity
  8
0
100
AcDbLine
 10
200.251088
 20
230.563699
 30
0.0
 11
199.801088
 21
230.563699
 31
0.0
  0
LINE
  5
285
100
AcDbEntity
  8
0
100
AcDbLine
 10
199.801088
 20
230.363689
 30
0.0
 11
200.251088
 21
230.363689
 31
0.0
  0
LINE
  5
286
100
AcDbEntity
  8
0
100
AcDbLine
 10
199.66807
 20
230.163689
 30
0.0
 11
199.943688
 21
229.835156
 31
0.0
  0
LINE
  5
287
100
AcDbEntity
  8
0
100
AcDbLine
 10
200.551088
 20
234.513859
 30
0.0
 11
199.801088
 21
233.763829
 31
0.0
  0
LINE
  5
288
100
AcDbEntity
  8
0
100
AcDbLine
 10
200.351089
 20
234.59679
 30
0.0
 11
199.601088
 21
233.846799
 31
0.0
  0
LINE
  5
289
100
AcDbEntity
  8
0
100
AcDbLine
 10
199.168088
 20
235.213709
 30
0.0
 11
197.218088
 21
235.213709
 31
0.0
  0
LINE
  5
28A
100
AcDbEntity
  8
0
100
AcDbLine
 10
199.168088
 20
239.213709
 30
0.0
 11
197.218088
 21
239.213709
 31
0.0
  0
LINE
  5
28B
100
AcDbEntity
  8
0
100
AcDbLine
 10
197.218088
 20
237.963709
 30
0.0
 11
195.218088
 21
237.963709
 31
0.0
  0
ARC
  5
28C
100
AcDbEntity
  8
0
100
AcDbCircle
 10
199.268088
 20
235.463699
 30
0.0
 40
0.1
100
AcDbArc
 50
180.0
 51
270.0
  0
LINE
  5
28D
100
AcDbEntity
  8
0
100
AcDbLine
 10
199.268088
 20
235.363699
 30
0.0
 11
199.728138
 21
235.363699
 31
0.0
  0
ARC
  5
28E
100
AcDbEntity
  8
0
100
AcDbCircle
 10
199.88134
 20
235.235132
 30
0.0
 40
0.2
100
AcDbArc
 50
140.001968
 51
230.08262
  0
ARC
  5
28F
100
AcDbEntity
  8
0
100
AcDbCircle
 10
200.207552
 20
235.468345
 30
0.0
 40
0.3
100
AcDbArc
 50
4.996693
 51
140.001968
  0
ARC
  5
290
100
AcDbEntity
  8
0
100
AcDbCircle
 10
200.208022
 20
235.468704
 30
0.0
 40
0.1
100
AcDbArc
 50
2.819785
 51
140.000221
  0
LINE
  5
291
100
AcDbEntity
  8
0
100
AcDbLine
 10
200.506412
 20
235.494475
 30
0.0
 11
200.571065
 21
234.754999
 31
0.0
  0
ARC
  5
292
100
AcDbEntity
  8
0
100
AcDbCircle
 10
200.670685
 20
234.763709
 30
0.0
 40
0.1
100
AcDbArc
 50
184.996693
 51
270.0
  0
LINE
  5
293
100
AcDbEntity
  8
0
100
AcDbLine
 10
199.906106
 20
234.953646
 30
0.0
 11
200.034095
 21
235.106633
 31
0.0
  0
LINE
  5
294
100
AcDbEntity
  8
0
100
AcDbLine
 10
200.034095
 20
235.106633
 30
0.0
 11
199.881093
 21
235.234655
 31
0.0
  0
LINE
  5
295
100
AcDbEntity
  8
0
100
AcDbLine
 10
199.881093
 20
235.234655
 30
0.0
 11
200.131418
 21
235.532982
 31
0.0
  0
LINE
  5
296
100
AcDbEntity
  8
0
100
AcDbLine
 10
200.670685
 20
234.663709
 30
0.0
 11
202.662469
 21
234.663709
 31
0.0
  0
LINE
  5
297
100
AcDbEntity
  8
0
100
AcDbLine
 10
199.728126
 20
235.363684
 30
0.0
 11
199.977732
 21
235.661174
 31
0.0
  0
LINE
  5
298
100
AcDbEntity
  8
0
100
AcDbLine
 10
199.906106
 20
234.953646
 30
0.0
 11
199.753003
 21
235.081738
 31
0.0
  0
ARC
  5
299
100
AcDbEntity
  8
0
100
AcDbCircle
 10
200.168088
 20
236.963709
 30
0.0
 40
1.0
100
AcDbArc
 50
90.0
 51
180.0
  0
LINE
  5
29A
100
AcDbEntity
  8
0
100
AcDbLine
 10
226.218088
 20
241.963709
 30
0.0
 11
255.218088
 21
241.963709
 31
0.0
  0
ARC
  5
29B
100
AcDbEntity
  8
0
100
AcDbCircle
 10
250.268088
 20
236.963709
 30
0.0
 40
1.0
100
AcDbArc
 50
0.0
 51
90.0
  0
LINE
  5
29C
100
AcDbEntity
  8
0
100
AcDbLine
 10
250.530071
 20
234.953646
 30
0.0
 11
250.683173
 21
235.081738
 31
0.0
  0
LINE
  5
29D
100
AcDbEntity
  8
0
100
AcDbLine
 10
250.70805
 20
235.363684
 30
0.0
 11
250.458444
 21
235.661174
 31
0.0
  0
LINE
  5
29E
100
AcDbEntity
  8
0
100
AcDbLine
 10
250.085087
 20
234.59679
 30
0.0
 11
250.835088
 21
233.846799
 31
0.0
  0
LINE
  5
29F
100
AcDbEntity
  8
0
100
AcDbLine
 10
249.885088
 20
234.513859
 30
0.0
 11
250.635088
 21
233.763829
 31
0.0
  0
LINE
  5
2A0
100
AcDbEntity
  8
0
100
AcDbLine
 10
250.768106
 20
230.163689
 30
0.0
 11
250.492488
 21
229.835156
 31
0.0
  0
LINE
  5
2A1
100
AcDbEntity
  8
0
100
AcDbLine
 10
250.635088
 20
230.363689
 30
0.0
 11
250.185088
 21
230.363689
 31
0.0
  0
LINE
  5
2A2
100
AcDbEntity
  8
0
100
AcDbLine
 10
250.185088
 20
230.563699
 30
0.0
 11
250.635088
 21
230.563699
 31
0.0
  0
LINE
  5
2A3
100
AcDbEntity
  8
0
100
AcDbLine
 10
240.268088
 20
237.963709
 30
0.0
 11
251.268088
 21
237.963709
 31
0.0
  0
ARC
  5
2A4
100
AcDbEntity
  8
0
100
AcDbCircle
 10
250.268088
 20
227.963709
 30
0.0
 40
1.0
100
AcDbArc
 50
270.0
 51
0.0
  0
LINE
  5
2A5
100
AcDbEntity
  8
0
100
AcDbLine
 10
226.218088
 20
255.463709
 30
0.0
 11
226.218088
 21
241.963709
 31
0.0
  0
LINE
  5
2A6
100
AcDbEntity
  8
0
100
AcDbLine
 10
215.218088
 20
255.463709
 30
0.0
 11
215.218088
 21
241.963709
 31
0.0
  0
LINE
  5
2A7
100
AcDbEntity
  8
0
100
AcDbLine
 10
211.168088
 20
234.963709
 30
0.0
 11
239.268088
 21
234.963709
 31
0.0
  0
LINE
  5
2A8
100
AcDbEntity
  8
0
100
AcDbLine
 10
210.028275
 20
235.473623
 30
0.0
 11
209.985087
 21
234.59679
 31
0.0
  0
LINE
  5
2A9
100
AcDbEntity
  8
0
100
AcDbLine
 10
209.785088
 20
234.983699
 30
0.0
 11
209.785088
 21
234.513859
 31
0.0
  0
LINE
  5
2AA
100
AcDbEntity
  8
0
100
AcDbLine
 10
209.985087
 20
234.59679
 30
0.0
 11
210.735088
 21
233.846799
 31
0.0
  0
LINE
  5
2AB
100
AcDbEntity
  8
0
100
AcDbLine
 10
209.785088
 20
234.513859
 30
0.0
 11
210.535088
 21
233.763829
 31
0.0
  0
ARC
  5
2AC
100
AcDbEntity
  8
0
100
AcDbCircle
 10
210.174173
 20
229.963699
 30
0.0
 40
0.2
100
AcDbArc
 50
200.008605
 51
270.0
  0
ARC
  5
2AD
100
AcDbEntity
  8
0
100
AcDbCircle
 10
209.529994
 20
230.563699
 30
0.0
 40
0.2
100
AcDbArc
 50
20.008605
 51
90.0
  0
LINE
  5
2AE
100
AcDbEntity
  8
0
100
AcDbLine
 10
209.986245
 20
229.895266
 30
0.0
 11
209.717922
 21
230.632131
 31
0.0
  0
LINE
  5
2AF
100
AcDbEntity
  8
0
100
AcDbLine
 10
209.529994
 20
230.763699
 30
0.0
 11
207.673699
 21
230.763699
 31
0.0
  0
ARC
  5
2B0
100
AcDbEntity
  8
0
100
AcDbCircle
 10
210.168088
 20
227.963709
 30
0.0
 40
1.0
100
AcDbArc
 50
270.0
 51
0.0
  0
LINE
  5
2B1
100
AcDbEntity
  8
0
100
AcDbLine
 10
210.668106
 20
230.163689
 30
0.0
 11
210.392488
 21
229.835156
 31
0.0
  0
LINE
  5
2B2
100
AcDbEntity
  8
0
100
AcDbLine
 10
210.535088
 20
230.363689
 30
0.0
 11
210.085088
 21
230.363689
 31
0.0
  0
LINE
  5
2B3
100
AcDbEntity
  8
0
100
AcDbLine
 10
210.085088
 20
230.563699
 30
0.0
 11
210.535088
 21
230.563699
 31
0.0
  0
LINE
  5
2B4
100
AcDbEntity
  8
0
100
AcDbLine
 10
210.735088
 20
233.846799
 30
0.0
 11
210.735088
 21
230.563689
 31
0.0
  0
LINE
  5
2B5
100
AcDbEntity
  8
0
100
AcDbLine
 10
210.535088
 20
233.763829
 30
0.0
 11
210.535088
 21
230.563699
 31
0.0
  0
ARC
  5
2B6
100
AcDbEntity
  8
0
100
AcDbCircle
 10
210.968088
 20
229.963689
 30
0.0
 40
0.2
100
AcDbArc
 50
0.0
 51
90.0
  0
ARC
  5
2B7
100
AcDbEntity
  8
0
100
AcDbCircle
 10
210.535088
 20
230.563689
 30
0.0
 40
0.2
100
AcDbArc
 50
270.0
 51
0.0
  0
LINE
  5
2B8
100
AcDbEntity
  8
0
100
AcDbLine
 10
210.968088
 20
230.163689
 30
0.0
 11
210.668106
 21
230.163689
 31
0.0
  0
ARC
  5
2B9
100
AcDbEntity
  8
0
100
AcDbCircle
 10
210.239267
 20
229.963699
 30
0.0
 40
0.2
100
AcDbArc
 50
270.0
 51
320.005496
  0
LINE
  5
2BA
100
AcDbEntity
  8
0
100
AcDbLine
 10
210.239267
 20
229.763699
 30
0.0
 11
210.174173
 21
229.763699
 31
0.0
  0
LINE
  5
2BB
100
AcDbEntity
  8
0
100
AcDbLine
 10
210.085088
 20
230.363689
 30
0.0
 11
210.085088
 21
230.563699
 31
0.0
  0
ARC
  5
2BC
100
AcDbEntity
  8
0
100
AcDbCircle
 10
210.128624
 20
235.468345
 30
0.0
 40
0.3
100
AcDbArc
 50
39.998032
 51
175.003307
  0
LINE
  5
2BD
100
AcDbEntity
  8
0
100
AcDbLine
 10
209.665491
 20
234.663709
 30
0.0
 11
207.673707
 21
234.663709
 31
0.0
  0
ARC
  5
2BE
100
AcDbEntity
  8
0
100
AcDbCircle
 10
209.665491
 20
234.763709
 30
0.0
 40
0.1
100
AcDbArc
 50
270.0
 51
355.003307
  0
LINE
  5
2BF
100
AcDbEntity
  8
0
100
AcDbLine
 10
209.829764
 20
235.494475
 30
0.0
 11
209.765111
 21
234.754999
 31
0.0
  0
LINE
  5
2C0
100
AcDbEntity
  8
0
100
AcDbLine
 10
210.60805
 20
235.363684
 30
0.0
 11
210.358444
 21
235.661174
 31
0.0
  0
LINE
  5
2C1
100
AcDbEntity
  8
0
100
AcDbLine
 10
210.430071
 20
234.953646
 30
0.0
 11
210.583173
 21
235.081738
 31
0.0
  0
ARC
  5
2C2
100
AcDbEntity
  8
0
100
AcDbCircle
 10
210.168088
 20
236.963709
 30
0.0
 40
1.0
100
AcDbArc
 50
0.0
 51
90.0
  0
ARC
  5
2C3
100
AcDbEntity
  8
0
100
AcDbCircle
 10
211.068088
 20
235.463699
 30
0.0
 40
0.1
100
AcDbArc
 50
270.0
 51
0.0
  0
ARC
  5
2C4
100
AcDbEntity
  8
0
100
AcDbCircle
 10
210.454836
 20
235.235132
 30
0.0
 40
0.2
100
AcDbArc
 50
309.91738
 51
39.998032
  0
LINE
  5
2C5
100
AcDbEntity
  8
0
100
AcDbLine
 10
211.068088
 20
235.363699
 30
0.0
 11
210.608038
 21
235.363699
 31
0.0
  0
ARC
  5
2C6
100
AcDbEntity
  8
0
100
AcDbCircle
 10
210.128154
 20
235.468704
 30
0.0
 40
0.1
100
AcDbArc
 50
39.999779
 51
177.180215
  0
LINE
  5
2C7
100
AcDbEntity
  8
0
100
AcDbLine
 10
210.455083
 20
235.234655
 30
0.0
 11
210.204758
 21
235.532982
 31
0.0
  0
LINE
  5
2C8
100
AcDbEntity
  8
0
100
AcDbLine
 10
210.302081
 20
235.106633
 30
0.0
 11
210.455083
 21
235.234655
 31
0.0
  0
LINE
  5
2C9
100
AcDbEntity
  8
0
100
AcDbLine
 10
210.430071
 20
234.953646
 30
0.0
 11
210.302081
 21
235.106633
 31
0.0
  0
LINE
  5
2CA
100
AcDbEntity
  8
0
100
AcDbLine
 10
250.128275
 20
235.473623
 30
0.0
 11
250.085087
 21
234.59679
 31
0.0
  0
LINE
  5
2CB
100
AcDbEntity
  8
0
100
AcDbLine
 10
249.885088
 20
234.983699
 30
0.0
 11
249.885088
 21
234.513859
 31
0.0
  0
LINE
  5
2CC
100
AcDbEntity
  8
0
100
AcDbLine
 10
240.651088
 20
234.983699
 30
0.0
 11
240.651088
 21
234.513859
 31
0.0
  0
LINE
  5
2CD
100
AcDbEntity
  8
0
100
AcDbLine
 10
240.407901
 20
235.473623
 30
0.0
 11
240.451089
 21
234.59679
 31
0.0
  0
CIRCLE
  5
2CE
100
AcDbEntity
  8
0
100
AcDbCircle
 10
245.268088
 20
232.713709
 30
0.0
 40
3.175
  0
LINE
  5
2CF
100
AcDbEntity
  8
0
100
AcDbLine
 10
240.268088
 20
226.963709
 30
0.0
 11
250.268088
 21
226.963709
 31
0.0
  0
LINE
  5
2D0
100
AcDbEntity
  8
0
100
AcDbLine
 10
240.351088
 20
230.363689
 30
0.0
 11
240.351088
 21
230.563699
 31
0.0
  0
LINE
  5
2D1
100
AcDbEntity
  8
0
100
AcDbLine
 10
240.449932
 20
229.895266
 30
0.0
 11
240.718254
 21
230.632131
 31
0.0
  0
ARC
  5
2D2
100
AcDbEntity
  8
0
100
AcDbCircle
 10
240.906182
 20
230.563699
 30
0.0
 40
0.2
100
AcDbArc
 50
90.0
 51
159.991395
  0
LINE
  5
2D3
100
AcDbEntity
  8
0
100
AcDbLine
 10
240.196909
 20
229.763699
 30
0.0
 11
240.262003
 21
229.763699
 31
0.0
  0
ARC
  5
2D4
100
AcDbEntity
  8
0
100
AcDbCircle
 10
240.196909
 20
229.963699
 30
0.0
 40
0.2
100
AcDbArc
 50
219.994504
 51
270.0
  0
ARC
  5
2D5
100
AcDbEntity
  8
0
100
AcDbCircle
 10
240.262003
 20
229.963699
 30
0.0
 40
0.2
100
AcDbArc
 50
270.0
 51
339.991395
  0
LINE
  5
2D6
100
AcDbEntity
  8
0
100
AcDbLine
 10
240.906182
 20
230.763699
 30
0.0
 11
242.762477
 21
230.763699
 31
0.0
  0
LINE
  5
2D7
100
AcDbEntity
  8
0
100
AcDbLine
 10
239.468088
 20
230.163689
 30
0.0
 11
239.76807
 21
230.163689
 31
0.0
  0
ARC
  5
2D8
100
AcDbEntity
  8
0
100
AcDbCircle
 10
239.901088
 20
230.563689
 30
0.0
 40
0.2
100
AcDbArc
 50
180.0
 51
270.0
  0
ARC
  5
2D9
100
AcDbEntity
  8
0
100
AcDbCircle
 10
239.468088
 20
229.963689
 30
0.0
 40
0.2
100
AcDbArc
 50
90.0
 51
180.0
  0
LINE
  5
2DA
100
AcDbEntity
  8
0
100
AcDbLine
 10
239.901088
 20
233.763829
 30
0.0
 11
239.901088
 21
230.563699
 31
0.0
  0
LINE
  5
2DB
100
AcDbEntity
  8
0
100
AcDbLine
 10
239.701088
 20
233.846799
 30
0.0
 11
239.701088
 21
230.563689
 31
0.0
  0
LINE
  5
2DC
100
AcDbEntity
  8
0
100
AcDbLine
 10
240.351088
 20
230.563699
 30
0.0
 11
239.901088
 21
230.563699
 31
0.0
  0
LINE
  5
2DD
100
AcDbEntity
  8
0
100
AcDbLine
 10
239.901088
 20
230.363689
 30
0.0
 11
240.351088
 21
230.363689
 31
0.0
  0
LINE
  5
2DE
100
AcDbEntity
  8
0
100
AcDbLine
 10
239.76807
 20
230.163689
 30
0.0
 11
240.043688
 21
229.835156
 31
0.0
  0
ARC
  5
2DF
100
AcDbEntity
  8
0
100
AcDbCircle
 10
240.268088
 20
227.963709
 30
0.0
 40
1.0
100
AcDbArc
 50
180.0
 51
270.0
  0
LINE
  5
2E0
100
AcDbEntity
  8
0
100
AcDbLine
 10
240.651088
 20
234.513859
 30
0.0
 11
239.901088
 21
233.763829
 31
0.0
  0
LINE
  5
2E1
100
AcDbEntity
  8
0
100
AcDbLine
 10
240.451089
 20
234.59679
 30
0.0
 11
239.701088
 21
233.846799
 31
0.0
  0
LINE
  5
2E2
100
AcDbEntity
  8
0
100
AcDbLine
 10
250.339267
 20
229.763699
 30
0.0
 11
250.274173
 21
229.763699
 31
0.0
  0
ARC
  5
2E3
100
AcDbEntity
  8
0
100
AcDbCircle
 10
250.339267
 20
229.963699
 30
0.0
 40
0.2
100
AcDbArc
 50
270.0
 51
320.005496
  0
ARC
  5
2E4
100
AcDbEntity
  8
0
100
AcDbCircle
 10
249.629994
 20
230.563699
 30
0.0
 40
0.2
100
AcDbArc
 50
20.008605
 51
90.0
  0
LINE
  5
2E5
100
AcDbEntity
  8
0
100
AcDbLine
 10
250.086245
 20
229.895266
 30
0.0
 11
249.817922
 21
230.632131
 31
0.0
  0
LINE
  5
2E6
100
AcDbEntity
  8
0
100
AcDbLine
 10
250.185088
 20
230.363689
 30
0.0
 11
250.185088
 21
230.563699
 31
0.0
  0
ARC
  5
2E7
100
AcDbEntity
  8
0
100
AcDbCircle
 10
250.274173
 20
229.963699
 30
0.0
 40
0.2
100
AcDbArc
 50
200.008605
 51
270.0
  0
LINE
  5
2E8
100
AcDbEntity
  8
0
100
AcDbLine
 10
249.629994
 20
230.763699
 30
0.0
 11
247.773699
 21
230.763699
 31
0.0
  0
LINE
  5
2E9
100
AcDbEntity
  8
0
100
AcDbLine
 10
240.006106
 20
234.953646
 30
0.0
 11
240.134095
 21
235.106633
 31
0.0
  0
LINE
  5
2EA
100
AcDbEntity
  8
0
100
AcDbLine
 10
240.134095
 20
235.106633
 30
0.0
 11
239.981093
 21
235.234655
 31
0.0
  0
LINE
  5
2EB
100
AcDbEntity
  8
0
100
AcDbLine
 10
239.981093
 20
235.234655
 30
0.0
 11
240.231418
 21
235.532982
 31
0.0
  0
ARC
  5
2EC
100
AcDbEntity
  8
0
100
AcDbCircle
 10
240.308022
 20
235.468704
 30
0.0
 40
0.1
100
AcDbArc
 50
2.819785
 51
140.000221
  0
LINE
  5
2ED
100
AcDbEntity
  8
0
100
AcDbLine
 10
240.606412
 20
235.494475
 30
0.0
 11
240.671065
 21
234.754999
 31
0.0
  0
ARC
  5
2EE
100
AcDbEntity
  8
0
100
AcDbCircle
 10
240.770685
 20
234.763709
 30
0.0
 40
0.1
100
AcDbArc
 50
184.996693
 51
270.0
  0
ARC
  5
2EF
100
AcDbEntity
  8
0
100
AcDbCircle
 10
240.307552
 20
235.468345
 30
0.0
 40
0.3
100
AcDbArc
 50
4.996693
 51
140.001968
  0
LINE
  5
2F0
100
AcDbEntity
  8
0
100
AcDbLine
 10
240.770685
 20
234.663709
 30
0.0
 11
242.762469
 21
234.663709
 31
0.0
  0
LINE
  5
2F1
100
AcDbEntity
  8
0
100
AcDbLine
 10
239.368088
 20
235.363699
 30
0.0
 11
239.828138
 21
235.363699
 31
0.0
  0
ARC
  5
2F2
100
AcDbEntity
  8
0
100
AcDbCircle
 10
239.98134
 20
235.235132
 30
0.0
 40
0.2
100
AcDbArc
 50
140.001968
 51
230.08262
  0
ARC
  5
2F3
100
AcDbEntity
  8
0
100
AcDbCircle
 10
239.368088
 20
235.463699
 30
0.0
 40
0.1
100
AcDbArc
 50
180.0
 51
270.0
  0
ARC
  5
2F4
100
AcDbEntity
  8
0
100
AcDbCircle
 10
240.268088
 20
236.963709
 30
0.0
 40
1.0
100
AcDbArc
 50
90.0
 51
180.0
  0
LINE
  5
2F5
100
AcDbEntity
  8
0
100
AcDbLine
 10
240.006106
 20
234.953646
 30
0.0
 11
239.853003
 21
235.081738
 31
0.0
  0
LINE
  5
2F6
100
AcDbEntity
  8
0
100
AcDbLine
 10
239.828126
 20
235.363684
 30
0.0
 11
240.077732
 21
235.661174
 31
0.0
  0
LINE
  5
2F7
100
AcDbEntity
  8
0
100
AcDbLine
 10
250.555083
 20
235.234655
 30
0.0
 11
250.304758
 21
235.532982
 31
0.0
  0
LINE
  5
2F8
100
AcDbEntity
  8
0
100
AcDbLine
 10
250.402081
 20
235.106633
 30
0.0
 11
250.555083
 21
235.234655
 31
0.0
  0
LINE
  5
2F9
100
AcDbEntity
  8
0
100
AcDbLine
 10
250.530071
 20
234.953646
 30
0.0
 11
250.402081
 21
235.106633
 31
0.0
  0
ARC
  5
2FA
100
AcDbEntity
  8
0
100
AcDbCircle
 10
249.765491
 20
234.763709
 30
0.0
 40
0.1
100
AcDbArc
 50
270.0
 51
355.003307
  0
LINE
  5
2FB
100
AcDbEntity
  8
0
100
AcDbLine
 10
249.929764
 20
235.494475
 30
0.0
 11
249.865111
 21
234.754999
 31
0.0
  0
ARC
  5
2FC
100
AcDbEntity
  8
0
100
AcDbCircle
 10
250.228154
 20
235.468704
 30
0.0
 40
0.1
100
AcDbArc
 50
39.999779
 51
177.180215
  0
ARC
  5
2FD
100
AcDbEntity
  8
0
100
AcDbCircle
 10
250.228624
 20
235.468345
 30
0.0
 40
0.3
100
AcDbArc
 50
39.998032
 51
175.003307
  0
LINE
  5
2FE
100
AcDbEntity
  8
0
100
AcDbLine
 10
249.765491
 20
234.663709
 30
0.0
 11
247.773707
 21
234.663709
 31
0.0
  0
LINE
  5
2FF
100
AcDbEntity
  8
CENTER
  6
CENTER
 62
     1
100
AcDbLine
 10
213.218088
 20
248.963709
 30
0.0
 11
228.218088
 21
248.963709
 31
0.0
  0
LINE
  5
300
100
AcDbEntity
  8
0
100
AcDbLine
 10
220.118088
 20
252.263709
 30
0.0
 11
215.218088
 21
252.263709
 31
0.0
  0
LINE
  5
301
100
AcDbEntity
  8
0
100
AcDbLine
 10
220.118088
 20
245.663709
 30
0.0
 11
215.218088
 21
245.663709
 31
0.0
  0
LINE
  5
302
100
AcDbEntity
  8
0
100
AcDbLine
 10
226.218088
 20
255.463709
 30
0.0
 11
215.218088
 21
255.463709
 31
0.0
  0
LINE
  5
303
100
AcDbEntity
  8
0
100
AcDbLine
 10
220.118088
 20
254.463709
 30
0.0
 11
220.118088
 21
243.463709
 31
0.0
  0
LINE
  5
304
100
AcDbEntity
  8
0
100
AcDbLine
 10
226.218088
 20
243.463709
 30
0.0
 11
220.118088
 21
243.463709
 31
0.0
  0
LINE
  5
305
100
AcDbEntity
  8
0
100
AcDbLine
 10
226.218088
 20
254.463709
 30
0.0
 11
220.118088
 21
254.463709
 31
0.0
  0
LINE
  5
306
100
AcDbEntity
  8
0
100
AcDbLine
 10
220.718088
 20
255.463709
 30
0.0
 11
220.718188
 21
255.463709
 31
0.0
  0
LINE
  5
307
100
AcDbEntity
  8
0
100
AcDbLine
 10
223.468088
 20
255.463709
 30
0.0
 11
223.468088
 21
255.463809
 31
0.0
  0
ARC
  5
308
100
AcDbEntity
  8
0
100
AcDbCircle
 10
250.635088
 20
230.563689
 30
0.0
 40
0.2
100
AcDbArc
 50
270.0
 51
0.0
  0
LINE
  5
309
100
AcDbEntity
  8
0
100
AcDbLine
 10
251.068088
 20
230.163689
 30
0.0
 11
250.768106
 21
230.163689
 31
0.0
  0
ARC
  5
30A
100
AcDbEntity
  8
0
100
AcDbCircle
 10
251.068088
 20
229.963689
 30
0.0
 40
0.2
100
AcDbArc
 50
0.0
 51
90.0
  0
LINE
  5
30B
100
AcDbEntity
  8
0
100
AcDbLine
 10
250.835088
 20
233.846799
 30
0.0
 11
250.835088
 21
230.563689
 31
0.0
  0
LINE
  5
30C
100
AcDbEntity
  8
0
100
AcDbLine
 10
250.635088
 20
233.763829
 30
0.0
 11
250.635088
 21
230.563699
 31
0.0
  0
LINE
  5
30D
100
AcDbEntity
  8
0
100
AcDbLine
 10
251.268088
 20
235.213709
 30
0.0
 11
253.218088
 21
235.213709
 31
0.0
  0
LINE
  5
30E
100
AcDbEntity
  8
0
100
AcDbLine
 10
253.218088
 20
237.963709
 30
0.0
 11
255.218088
 21
237.963709
 31
0.0
  0
LINE
  5
30F
100
AcDbEntity
  8
0
100
AcDbLine
 10
251.268088
 20
239.213709
 30
0.0
 11
253.218088
 21
239.213709
 31
0.0
  0
ARC
  5
310
100
AcDbEntity
  8
0
100
AcDbCircle
 10
250.554836
 20
235.235132
 30
0.0
 40
0.2
100
AcDbArc
 50
309.91738
 51
39.998032
  0
LINE
  5
311
100
AcDbEntity
  8
0
100
AcDbLine
 10
251.168088
 20
235.363699
 30
0.0
 11
250.708038
 21
235.363699
 31
0.0
  0
ARC
  5
312
100
AcDbEntity
  8
0
100
AcDbCircle
 10
251.168088
 20
235.463699
 30
0.0
 40
0.1
100
AcDbArc
 50
270.0
 51
0.0
  0
CIRCLE
  5
313
100
AcDbEntity
  8
CENTER
  6
CENTER
 62
     1
100
AcDbCircle
 10
393.137498
 20
216.963709
 30
0.0
 40
32.0
  0
LINE
  5
314
100
AcDbEntity
  8
CENTER
  6
CENTER
 62
     1
100
AcDbLine
 10
393.137498
 20
169.954845
 30
0.0
 11
393.137498
 21
263.972572
 31
0.0
  0
CIRCLE
  5
315
100
AcDbEntity
  8
0
100
AcDbCircle
 10
393.137498
 20
216.963709
 30
0.0
 40
10.0
  0
CIRCLE
  5
316
100
AcDbEntity
  8
0
100
AcDbCircle
 10
393.137498
 20
216.963709
 30
0.0
 40
21.0
  0
CIRCLE
  5
317
100
AcDbEntity
  8
0
100
AcDbCircle
 10
393.137498
 20
216.963709
 30
0.0
 40
38.5
  0
CIRCLE
  5
318
100
AcDbEntity
  8
0
100
AcDbCircle
 10
393.137498
 20
216.963709
 30
0.0
 40
25.0
  0
CIRCLE
  5
319
100
AcDbEntity
  8
0
100
AcDbCircle
 10
393.137498
 20
184.963709
 30
0.0
 40
3.4
  0
CIRCLE
  5
31A
100
AcDbEntity
  8
0
100
AcDbCircle
 10
393.137498
 20
184.963709
 30
0.0
 40
5.5
  0
LINE
  5
31B
100
AcDbEntity
  8
CENTER
  6
CENTER
 62
     1
100
AcDbLine
 10
346.128635
 20
216.963709
 30
0.0
 11
440.146362
 21
216.963709
 31
0.0
  0
CIRCLE
  5
31C
100
AcDbEntity
  8
0
100
AcDbCircle
 10
393.137498
 20
248.963709
 30
0.0
 40
3.4
  0
CIRCLE
  5
31D
100
AcDbEntity
  8
0
100
AcDbCircle
 10
393.137498
 20
248.963709
 30
0.0
 40
5.5
  0
CIRCLE
  5
31E
100
AcDbEntity
  8
0
100
AcDbCircle
 10
361.137498
 20
216.963709
 30
0.0
 40
5.5
  0
CIRCLE
  5
31F
100
AcDbEntity
  8
0
100
AcDbCircle
 10
361.137498
 20
216.963709
 30
0.0
 40
3.4
  0
CIRCLE
  5
320
100
AcDbEntity
  8
0
100
AcDbCircle
 10
425.137498
 20
216.963709
 30
0.0
 40
3.4
  0
CIRCLE
  5
321
100
AcDbEntity
  8
0
100
AcDbCircle
 10
425.137498
 20
216.963709
 30
0.0
 40
5.5
  0
ENDSEC
  0
SECTION
  2
OBJECTS
  0
DICTIONARY
  5
196
100
AcDbDictionary
  3
ACAD_GROUP
350
197
  3
ACAD_LAYOUT
350
1A3
  3
ACAD_MLINESTYLE
350
1A0
  3
ACAD_PLOTSETTINGS
350
1A2
  3
ACAD_PLOTSTYLENAME
350
198
  3
ACDBHEADERROUNDTRIPXREC
350
32E
  3
AcDbVariableDictionary
350
357
  0
DICTIONARY
  5
32C
100
AcDbDictionary
280
     1
  3
ACAD_XREC_ROUNDTRIP
360
32D
  0
DICTIONARY
  5
328
100
AcDbDictionary
280
     1
  3
ACAD_XREC_ROUNDTRIP
360
329
  0
DICTIONARY
  5
32A
100
AcDbDictionary
280
     1
  3
ACAD_XREC_ROUNDTRIP
360
32B
  0
DICTIONARY
  5
355
100
AcDbDictionary
280
     1
  3
ACAD_XREC_ROUNDTRIP
360
356
  0
DICTIONARY
  5
324
100
AcDbDictionary
280
     1
  3
ACAD_LAYOUTSELFREF
360
354
  3
ACAD_XREC_ROUNDTRIP
360
325
  0
DICTIONARY
  5
326
100
AcDbDictionary
280
     1
  3
ACAD_LAYOUTSELFREF
360
353
  3
ACAD_XREC_ROUNDTRIP
360
327
  0
DICTIONARY
  5
197
102
{ACAD_REACTORS
330
196
102
}
100
AcDbDictionary
  0
DICTIONARY
  5
1A3
102
{ACAD_XDICTIONARY
360
351
102
}
102
{ACAD_REACTORS
330
196
102
}
100
AcDbDictionary
  3
MODEL
350
1AB
  3
ﾚｲｱｳﾄ1
350
1A7
  0
DICTIONARY
  5
1A0
102
{ACAD_XDICTIONARY
360
34F
102
}
102
{ACAD_REACTORS
330
196
102
}
100
AcDbDictionary
  3
STANDARD
350
1A1
  0
DICTIONARY
  5
1A2
102
{ACAD_REACTORS
330
196
102
}
100
AcDbDictionary
  0
ACAD_PROXY_OBJECT
  5
198
102
{ACAD_REACTORS
330
196
102
}
100
AcDbProxyObject
 90
      499
 91
      500
 93
       86
310
405010041939BDC9B585B0
350
199
340
199
 94
        0
  0
DICTIONARY
  5
32E
102
{ACAD_REACTORS
330
196
102
}
100
AcDbDictionary
  3
CEPSNTYPE
350
338
  3
DIMSTYLEDATA
350
33C
  3
FINGERPRINTGUID
350
339
  3
HYPERLINKBASE
350
331
  3
INSUNITS
350
337
  3
LAYOUTDICT
350
333
  3
LWETCUNION
350
336
  3
PLOTSETDICT
350
334
  3
PLOTSTYLNAMDICT
350
335
  3
PSVPSCALE
350
33B
  3
PUCSBASE
350
33F
  3
PUCSORGBACK
350
345
  3
PUCSORGBOTTOM
350
341
  3
PUCSORGFRONT
350
344
  3
PUCSORGLEFT
350
342
  3
PUCSORGRIGHT
350
343
  3
PUCSORGTOP
350
340
  3
PUCSORTHOREF
350
33D
  3
PUCSORTHOVIEW
350
33E
  3
STYLESHEET
350
332
  3
TSTACKALIGN
350
32F
  3
TSTACKSIZE
350
330
  3
UCSBASE
350
348
  3
UCSORGBACK
350
34E
  3
UCSORGBOTTOM
350
34A
  3
UCSORGFRONT
350
34D
  3
UCSORGLEFT
350
34B
  3
UCSORGRIGHT
350
34C
  3
UCSORGTOP
350
349
  3
UCSORTHOREF
350
346
  3
UCSORTHOVIEW
350
347
  3
VERSIONGUID
350
33A
  0
DICTIONARY
  5
357
102
{ACAD_REACTORS
330
196
102
}
100
AcDbDictionary
  3
DIMASSOC
350
358
  0
XRECORD
  5
32D
102
{ACAD_REACTORS
330
32C
102
}
100
AcDbXrecord
102
EXTNAMES
  1
*ACTIVE
  2
*Active
102
UCS
 74
     0
 71
     0
 10
0.0
 20
0.0
 30
0.0
 10
1.0
 20
0.0
 30
0.0
 10
0.0
 20
1.0
 30
0.0
146
0.0
 79
     0
102
VIEW
281
     0
  0
XRECORD
  5
329
102
{ACAD_REACTORS
330
328
102
}
100
AcDbXrecord
102
EXTNAMES
  1
BYBLOCK
  2
ByBlock
  0
XRECORD
  5
32B
102
{ACAD_REACTORS
330
32A
102
}
100
AcDbXrecord
102
EXTNAMES
  1
BYLAYER
  2
ByLayer
  0
XRECORD
  5
356
102
{ACAD_REACTORS
330
355
102
}
100
AcDbXrecord
102
ACADR14ROUNDTRIP
1000
DSTYLE
1002
{
1070
   279
 70
     2
1002
}
  0
XRECORD
  5
354
102
{ACAD_REACTORS
330
324
102
}
100
AcDbXrecord
340
1A8
  0
XRECORD
  5
325
102
{ACAD_REACTORS
330
324
102
}
100
AcDbXrecord
102
EXTNAMES
  1
*MODEL_SPACE
  2
*Model_Space
  0
XRECORD
  5
353
102
{ACAD_REACTORS
330
326
102
}
100
AcDbXrecord
340
1A4
  0
XRECORD
  5
327
102
{ACAD_REACTORS
330
326
102
}
100
AcDbXrecord
102
EXTNAMES
  1
*PAPER_SPACE
  2
*Paper_Space
  0
DICTIONARY
  5
351
100
AcDbDictionary
280
     1
  3
ACAD_XREC_ROUNDTRIP
360
352
  0
ACAD_PROXY_OBJECT
  5
1AB
102
{ACAD_REACTORS
330
1A3
102
}
100
AcDbProxyObject
 90
      499
 91
      502
 93
      836
310
932433A5C50524F4752414D2046494C45535C4D4454365C706C6F74746572735C526F6C616E64204458592D313235302E7063332C01AAAAAAAAA5A69054D6F64656C901A800000000000000000000000000000000000000000000A1000000000000008902A6A6AAAA0
330
1A8
330
0
340
0
340
0
 94
        0
  0
ACAD_PROXY_OBJECT
  5
1A7
102
{ACAD_REACTORS
330
1A3
102
}
100
AcDbProxyObject
 90
      499
 91
      502
 93
     1244
310
932433A5C50524F4752414D2046494C45535C4D4454365C706C6F74746572735C526F6C616E64204458592D313235302E7063332C00AAAAAA416AA59106906DAB2B1B3C431406A800000000000000000000000000000000000000000101E900000000000241C902A6A6A10232D5E076BC5510408CB5781DAF154410232D5E0
310
76BC5510408CB5781DAF15C410232D5E076BC5710408CB5781DAF15C40
330
1A4
330
0
340
0
340
0
 94
        0
  0
DICTIONARY
  5
34F
100
AcDbDictionary
280
     1
  3
ACAD_XREC_ROUNDTRIP
360
350
  0
MLINESTYLE
  5
1A1
102
{ACAD_REACTORS
330
1A0
102
}
100
AcDbMlineStyle
  2
STANDARD
 70
     0
  3

 62
   256
 51
90.0
 52
90.0
 71
     2
 49
0.5
 62
   256
  6
BYLAYER
 49
-0.5
 62
   256
  6
BYLAYER
  0
ACAD_PROXY_OBJECT
  5
199
102
{ACAD_REACTORS
330
198
102
}
100
AcDbProxyObject
 90
      499
 91
      501
 93
        0
 94
        0
  0
XRECORD
  5
338
102
{ACAD_REACTORS
330
32E
102
}
100
AcDbXrecord
 90
        0
  0
XRECORD
  5
33C
102
{ACAD_REACTORS
330
32E
102
}
100
AcDbXrecord
1000
DSTYLE
1002
{
1070
   341
340
1BE
1070
   343
340
1BE
1070
   344
340
1B8
1002
}
  0
XRECORD
  5
339
102
{ACAD_REACTORS
330
32E
102
}
100
AcDbXrecord
  1
{89B0FD8E-03B9-401D-AD2B-4C86A7E121C0}
  0
XRECORD
  5
331
102
{ACAD_REACTORS
330
32E
102
}
100
AcDbXrecord
  1

  0
XRECORD
  5
337
102
{ACAD_REACTORS
330
32E
102
}
100
AcDbXrecord
 90
        0
  0
XRECORD
  5
333
102
{ACAD_REACTORS
330
32E
102
}
100
AcDbXrecord
340
1A3
  0
XRECORD
  5
336
102
{ACAD_REACTORS
330
32E
102
}
100
AcDbXrecord
 90
    10781
  0
XRECORD
  5
334
102
{ACAD_REACTORS
330
32E
102
}
100
AcDbXrecord
340
1A2
  0
XRECORD
  5
335
102
{ACAD_REACTORS
330
32E
102
}
100
AcDbXrecord
340
198
  0
XRECORD
  5
33B
102
{ACAD_REACTORS
330
32E
102
}
100
AcDbXrecord
 40
0.0
  0
XRECORD
  5
33F
102
{ACAD_REACTORS
330
32E
102
}
100
AcDbXrecord
340
0
  0
XRECORD
  5
345
102
{ACAD_REACTORS
330
32E
102
}
100
AcDbXrecord
 10
0.0
 20
0.0
 30
0.0
  0
XRECORD
  5
341
102
{ACAD_REACTORS
330
32E
102
}
100
AcDbXrecord
 10
0.0
 20
0.0
 30
0.0
  0
XRECORD
  5
344
102
{ACAD_REACTORS
330
32E
102
}
100
AcDbXrecord
 10
0.0
 20
0.0
 30
0.0
  0
XRECORD
  5
342
102
{ACAD_REACTORS
330
32E
102
}
100
AcDbXrecord
 10
0.0
 20
0.0
 30
0.0
  0
XRECORD
  5
343
102
{ACAD_REACTORS
330
32E
102
}
100
AcDbXrecord
 10
0.0
 20
0.0
 30
0.0
  0
XRECORD
  5
340
102
{ACAD_REACTORS
330
32E
102
}
100
AcDbXrecord
 10
0.0
 20
0.0
 30
0.0
  0
XRECORD
  5
33D
102
{ACAD_REACTORS
330
32E
102
}
100
AcDbXrecord
340
0
  0
XRECORD
  5
33E
102
{ACAD_REACTORS
330
32E
102
}
100
AcDbXrecord
 70
     0
  0
XRECORD
  5
332
102
{ACAD_REACTORS
330
32E
102
}
100
AcDbXrecord
  1

  0
XRECORD
  5
32F
102
{ACAD_REACTORS
330
32E
102
}
100
AcDbXrecord
 90
        1
  0
XRECORD
  5
330
102
{ACAD_REACTORS
330
32E
102
}
100
AcDbXrecord
 90
       70
  0
XRECORD
  5
348
102
{ACAD_REACTORS
330
32E
102
}
100
AcDbXrecord
340
0
  0
XRECORD
  5
34E
102
{ACAD_REACTORS
330
32E
102
}
100
AcDbXrecord
 10
0.0
 20
0.0
 30
0.0
  0
XRECORD
  5
34A
102
{ACAD_REACTORS
330
32E
102
}
100
AcDbXrecord
 10
0.0
 20
0.0
 30
0.0
  0
XRECORD
  5
34D
102
{ACAD_REACTORS
330
32E
102
}
100
AcDbXrecord
 10
0.0
 20
0.0
 30
0.0
  0
XRECORD
  5
34B
102
{ACAD_REACTORS
330
32E
102
}
100
AcDbXrecord
 10
0.0
 20
0.0
 30
0.0
  0
XRECORD
  5
34C
102
{ACAD_REACTORS
330
32E
102
}
100
AcDbXrecord
 10
0.0
 20
0.0
 30
0.0
  0
XRECORD
  5
349
102
{ACAD_REACTORS
330
32E
102
}
100
AcDbXrecord
 10
0.0
 20
0.0
 30
0.0
  0
XRECORD
  5
346
102
{ACAD_REACTORS
330
32E
102
}
100
AcDbXrecord
340
0
  0
XRECORD
  5
347
102
{ACAD_REACTORS
330
32E
102
}
100
AcDbXrecord
 70
     0
  0
XRECORD
  5
33A
102
{ACAD_REACTORS
330
32E
102
}
100
AcDbXrecord
  1
{E8C2F9E5-D123-485E-8612-8A8866316C3C}
  0
DICTIONARYVAR
  5
358
102
{ACAD_REACTORS
330
357
102
}
100
DictionaryVariables
280
     0
  1
1
  0
XRECORD
  5
352
102
{ACAD_REACTORS
330
351
102
}
100
AcDbXrecord
102
EXTNAMES
  1
MODEL
  2
Model
  0
XRECORD
  5
350
102
{ACAD_REACTORS
330
34F
102
}
100
AcDbXrecord
102
EXTNAMES
  1
STANDARD
  2
Standard
  0
ENDSEC
  0
EOF
