  0
SECTION
  2
HEADER
  9
$ACADVER
  1
AC1014
  9
$ACADMAINTVER
 70
     0
  9
$DWGCODEPAGE
  3
ANSI_932
  9
$INSBASE
 10
0.0
 20
0.0
 30
0.0
  9
$EXTMIN
 10
63.72278
 20
62.356667
 30
0.0
  9
$EXTMAX
 10
235.610654
 20
132.902523
 30
0.0
  9
$LIMMIN
 10
0.0
 20
0.0
  9
$LIMMAX
 10
297.0
 20
210.0
  9
$ORTHOMODE
 70
     0
  9
$REGENMODE
 70
     1
  9
$FILLMODE
 70
     1
  9
$QTEXTMODE
 70
     0
  9
$MIRRTEXT
 70
     1
  9
$DRAGMODE
 70
     2
  9
$LTSCALE
 40
0.25
  9
$OSMODE
 70
    37
  9
$ATTMODE
 70
     1
  9
$TEXTSIZE
 40
4.0
  9
$TRACEWID
 40
1.0
  9
$TEXTSTYLE
  7
STANDARD
  9
$CLAYER
  8
0
  9
$CELTYPE
  6
BYLAYER
  9
$CECOLOR
 62
   256
  9
$CELTSCALE
 40
1.0
  9
$DELOBJ
 70
     1
  9
$DISPSILH
 70
     0
  9
$DIMSCALE
 40
1.0
  9
$DIMASZ
 40
3.0
  9
$DIMEXO
 40
1.0
  9
$DIMDLI
 40
10.0
  9
$DIMRND
 40
0.0
  9
$DIMDLE
 40
0.0
  9
$DIMEXE
 40
1.0
  9
$DIMTP
 40
0.0
  9
$DIMTM
 40
0.0
  9
$DIMTXT
 40
3.2
  9
$DIMCEN
 40
0.0
  9
$DIMTSZ
 40
0.0
  9
$DIMTOL
 70
     0
  9
$DIMLIM
 70
     0
  9
$DIMTIH
 70
     0
  9
$DIMTOH
 70
     0
  9
$DIMSE1
 70
     0
  9
$DIMSE2
 70
     0
  9
$DIMTAD
 70
     3
  9
$DIMZIN
 70
     8
  9
$DIMBLK
  1
ARROW
  9
$DIMASO
 70
     1
  9
$DIMSHO
 70
     1
  9
$DIMPOST
  1

  9
$DIMAPOST
  1

  9
$DIMALT
 70
     0
  9
$DIMALTD
 70
     2
  9
$DIMALTF
 40
0.04
  9
$DIMLFAC
 40
1.0
  9
$DIMTOFL
 70
     1
  9
$DIMTVP
 40
1.0
  9
$DIMTIX
 70
     0
  9
$DIMSOXD
 70
     0
  9
$DIMSAH
 70
     0
  9
$DIMBLK1
  1

  9
$DIMBLK2
  1

  9
$DIMSTYLE
  2
AA1
  9
$DIMCLRD
 70
     0
  9
$DIMCLRE
 70
     0
  9
$DIMCLRT
 70
     0
  9
$DIMTFAC
 40
0.6
  9
$DIMGAP
 40
1.0
  9
$DIMJUST
 70
     0
  9
$DIMSD1
 70
     0
  9
$DIMSD2
 70
     0
  9
$DIMTOLJ
 70
     1
  9
$DIMTZIN
 70
     0
  9
$DIMALTZ
 70
     0
  9
$DIMALTTZ
 70
     0
  9
$DIMFIT
 70
     3
  9
$DIMUPT
 70
     0
  9
$DIMUNIT
 70
     2
  9
$DIMDEC
 70
     4
  9
$DIMTDEC
 70
     4
  9
$DIMALTU
 70
     2
  9
$DIMALTTD
 70
     2
  9
$DIMTXSTY
  7
STANDARD
  9
$DIMAUNIT
 70
     0
  9
$LUNITS
 70
     2
  9
$LUPREC
 70
     2
  9
$SKETCHINC
 40
1.0
  9
$FILLETRAD
 40
10.0
  9
$AUNITS
 70
     0
  9
$AUPREC
 70
     0
  9
$MENU
  1
acad
  9
$ELEVATION
 40
0.0
  9
$PELEVATION
 40
0.0
  9
$THICKNESS
 40
0.0
  9
$LIMCHECK
 70
     0
  9
$BLIPMODE
 70
     0
  9
$CHAMFERA
 40
0.0
  9
$CHAMFERB
 40
0.0
  9
$CHAMFERC
 40
0.0
  9
$CHAMFERD
 40
0.0
  9
$SKPOLY
 70
     0
  9
$TDCREATE
 40
2451466.513855324
  9
$TDUPDATE
 40
2452821.782098958
  9
$TDINDWG
 40
0.0003032407
  9
$TDUSRTIMER
 40
0.0003032407
  9
$USRTIMER
 70
     1
  9
$ANGBASE
 50
0.0
  9
$ANGDIR
 70
     0
  9
$PDMODE
 70
     1
  9
$PDSIZE
 40
0.0
  9
$PLINEWID
 40
0.0
  9
$COORDS
 70
     1
  9
$SPLFRAME
 70
     0
  9
$SPLINETYPE
 70
     6
  9
$SPLINESEGS
 70
     8
  9
$ATTDIA
 70
     0
  9
$ATTREQ
 70
     1
  9
$HANDLING
 70
     1
  9
$HANDSEED
  5
352
  9
$SURFTAB1
 70
     6
  9
$SURFTAB2
 70
     6
  9
$SURFTYPE
 70
     6
  9
$SURFU
 70
     6
  9
$SURFV
 70
     6
  9
$UCSNAME
  2

  9
$UCSORG
 10
0.0
 20
0.0
 30
0.0
  9
$UCSXDIR
 10
1.0
 20
0.0
 30
0.0
  9
$UCSYDIR
 10
0.0
 20
1.0
 30
0.0
  9
$PUCSNAME
  2

  9
$PUCSORG
 10
0.0
 20
0.0
 30
0.0
  9
$PUCSXDIR
 10
1.0
 20
0.0
 30
0.0
  9
$PUCSYDIR
 10
0.0
 20
1.0
 30
0.0
  9
$USERI1
 70
     0
  9
$USERI2
 70
     0
  9
$USERI3
 70
     0
  9
$USERI4
 70
     0
  9
$USERI5
 70
     0
  9
$USERR1
 40
0.0
  9
$USERR2
 40
0.0
  9
$USERR3
 40
0.0
  9
$USERR4
 40
0.0
  9
$USERR5
 40
0.0
  9
$WORLDVIEW
 70
     1
  9
$SHADEDGE
 70
     3
  9
$SHADEDIF
 70
    70
  9
$TILEMODE
 70
     1
  9
$MAXACTVP
 70
    16
  9
$PINSBASE
 10
0.0
 20
0.0
 30
0.0
  9
$PLIMCHECK
 70
     0
  9
$PEXTMIN
 10
1.000000E+20
 20
1.000000E+20
 30
1.000000E+20
  9
$PEXTMAX
 10
-1.000000E+20
 20
-1.000000E+20
 30
-1.000000E+20
  9
$PLIMMIN
 10
0.0
 20
0.0
  9
$PLIMMAX
 10
420.0
 20
297.0
  9
$UNITMODE
 70
     0
  9
$VISRETAIN
 70
     0
  9
$PLINEGEN
 70
     0
  9
$PSLTSCALE
 70
     0
  9
$TREEDEPTH
 70
  3020
  9
$PICKSTYLE
 70
     1
  9
$CMLSTYLE
  2
STANDARD
  9
$CMLJUST
 70
     0
  9
$CMLSCALE
 40
1.0
  9
$PROXYGRAPHICS
 70
     1
  9
$MEASUREMENT
 70
     0
  0
ENDSEC
  0
SECTION
  2
CLASSES
  0
CLASS
  1
ACDBDICTIONARYWDFLT
  2
AcDbDictionaryWithDefault
  3
AutoCAD 2000
 90
        0
280
     0
281
     0
  0
CLASS
  1
ACDBPLACEHOLDER
  2
AcDbPlaceHolder
  3
AutoCAD 2000
 90
        0
280
     0
281
     0
  0
CLASS
  1
LAYOUT
  2
AcDbLayout
  3
AutoCAD 2000
 90
        0
280
     0
281
     0
  0
CLASS
  1
DICTIONARYVAR
  2
AcDbDictionaryVar
  3
"AutoCAD"
 90
        0
280
     0
281
     0
  0
CLASS
  1
LONG_TRANSACTION
  2
AcDbLongTransaction
  3
AutoCAD 2000
 90
        0
280
     0
281
     0
  0
CLASS
  1
LWPOLYLINE
  2
AcDbPolyline
  3
"AutoCAD"
 90
        0
280
     0
281
     1
  0
CLASS
  1
HATCH
  2
AcDbHatch
  3
"ACAD_SEDONA"
 90
        0
280
     0
281
     1
  0
CLASS
  1
XRECORD
  2
AcDbXrecord
  3
"<Built In>"
 90
        0
280
     0
281
     0
  0
ENDSEC
  0
SECTION
  2
TABLES
  0
TABLE
  2
VPORT
  5
18D
100
AcDbSymbolTable
 70
     1
  0
VPORT
  5
319
102
{ACAD_XDICTIONARY
360
322
102
}
100
AcDbSymbolTableRecord
100
AcDbViewportTableRecord
  2
*ACTIVE
 70
     0
 10
0.0
 20
0.0
 11
1.0
 21
1.0
 12
148.500001
 22
153.221306
 13
0.0
 23
0.0
 14
10.0
 24
10.0
 15
0.0
 25
0.0
 16
0.0
 26
0.0
 36
1.0
 17
0.0
 27
0.0
 37
0.0
 40
337.317527
 41
1.570997
 42
50.0
 43
0.0
 44
0.0
 50
0.0
 51
0.0
 71
     0
 72
   100
 73
     1
 74
     0
 75
     0
 76
     0
 77
     0
 78
     1
  0
ENDTAB
  0
TABLE
  2
LTYPE
  5
18A
100
AcDbSymbolTable
 70
     2
  0
LTYPE
  5
198
102
{ACAD_XDICTIONARY
360
31E
102
}
100
AcDbSymbolTableRecord
100
AcDbLinetypeTableRecord
  2
BYBLOCK
 70
     0
  3

 72
    65
 73
     0
 40
0.0
  0
LTYPE
  5
199
102
{ACAD_XDICTIONARY
360
320
102
}
100
AcDbSymbolTableRecord
100
AcDbLinetypeTableRecord
  2
BYLAYER
 70
     0
  3

 72
    65
 73
     0
 40
0.0
  0
LTYPE
  5
19A
100
AcDbSymbolTableRecord
100
AcDbLinetypeTableRecord
  2
CONTINUOUS
 70
     0
  3
Solid line
 72
    65
 73
     0
 40
0.0
  0
LTYPE
  5
1A8
100
AcDbSymbolTableRecord
100
AcDbLinetypeTableRecord
  2
CENTER
 70
     0
  3
____ _ ____ _ ____ _ ____ _ ____ _ ____ _ ____ 
 72
    65
 73
     4
 40
50.8
 49
31.75
 74
     0
 49
-6.35
 74
     0
 49
6.35
 74
     0
 49
-6.35
 74
     0
  0
ENDTAB
  0
TABLE
  2
LAYER
  5
187
100
AcDbSymbolTable
 70
     3
  0
LAYER
  5
195
100
AcDbSymbolTableRecord
100
AcDbLayerTableRecord
  2
0
 70
     0
 62
     7
  6
CONTINUOUS
  0
LAYER
  5
1A9
100
AcDbSymbolTableRecord
100
AcDbLayerTableRecord
  2
DIMENSION
 70
     0
 62
    -4
  6
CONTINUOUS
  0
LAYER
  5
1AA
100
AcDbSymbolTableRecord
100
AcDbLayerTableRecord
  2
CENTER
 70
     0
 62
     1
  6
CENTER
  0
ENDTAB
  0
TABLE
  2
STYLE
  5
188
100
AcDbSymbolTable
 70
     1
  0
STYLE
  5
196
100
AcDbSymbolTableRecord
100
AcDbTextStyleTableRecord
  2
STANDARD
 70
     0
 40
0.0
 41
1.0
 50
0.0
 71
     0
 42
4.0
  3
txt
  4

  0
ENDTAB
  0
TABLE
  2
VIEW
  5
18B
100
AcDbSymbolTable
 70
     0
  0
ENDTAB
  0
TABLE
  2
UCS
  5
18C
100
AcDbSymbolTable
 70
     0
  0
ENDTAB
  0
TABLE
  2
APPID
  5
18E
100
AcDbSymbolTable
 70
     1
  0
APPID
  5
197
100
AcDbSymbolTableRecord
100
AcDbRegAppTableRecord
  2
ACAD
 70
     0
  0
ENDTAB
  0
TABLE
  2
DIMSTYLE
  5
18F
100
AcDbSymbolTable
 70
     1
  0
DIMSTYLE
105
1AB
102
{ACAD_XDICTIONARY
360
34B
102
}
100
AcDbSymbolTableRecord
100
AcDbDimStyleTableRecord
  2
AA1
 70
     0
  3

  4

  5

  6

  7

 40
1.0
 41
3.0
 42
1.0
 43
10.0
 44
1.0
 45
0.0
 46
0.0
 47
0.0
 48
0.0
140
3.2
141
0.0
142
0.0
143
0.04
144
1.0
145
1.0
146
0.6
147
0.0
 71
     0
 72
     0
 73
     0
 74
     0
 75
     0
 76
     0
 77
     0
 78
     8
170
     0
171
     2
172
     1
173
     0
174
     0
175
     0
176
     0
177
     0
178
     0
270
     2
271
     2
272
     2
273
     2
274
     2
340
196
275
     0
280
     0
281
     0
282
     0
283
     1
284
     8
285
     8
286
     8
287
     5
288
     0
  0
ENDTAB
  0
TABLE
  2
BLOCK_RECORD
  5
186
100
AcDbSymbolTable
 70
     3
  0
BLOCK_RECORD
  5
1A3
102
{ACAD_XDICTIONARY
360
31A
102
}
100
AcDbSymbolTableRecord
100
AcDbBlockTableRecord
  2
*MODEL_SPACE
  0
BLOCK_RECORD
  5
19F
102
{ACAD_XDICTIONARY
360
31C
102
}
100
AcDbSymbolTableRecord
100
AcDbBlockTableRecord
  2
*PAPER_SPACE
  0
BLOCK_RECORD
  5
1AD
100
AcDbSymbolTableRecord
100
AcDbBlockTableRecord
  2
$MODEL_SPACE
  0
BLOCK_RECORD
  5
1B0
100
AcDbSymbolTableRecord
100
AcDbBlockTableRecord
  2
$PAPER_SPACE
  0
BLOCK_RECORD
  5
1B3
100
AcDbSymbolTableRecord
100
AcDbBlockTableRecord
  2
ARROW
  0
ENDTAB
  0
ENDSEC
  0
SECTION
  2
BLOCKS
  0
BLOCK
  5
1A4
100
AcDbEntity
  8
0
100
AcDbBlockBegin
  2
*MODEL_SPACE
 70
     0
 10
0.0
 20
0.0
 30
0.0
  3
*MODEL_SPACE
  1

  0
ENDBLK
  5
1A5
100
AcDbEntity
  8
0
100
AcDbBlockEnd
  0
BLOCK
  5
1A0
100
AcDbEntity
 67
     1
  8
0
100
AcDbBlockBegin
  2
*PAPER_SPACE
 70
     0
 10
0.0
 20
0.0
 30
0.0
  3
*PAPER_SPACE
  1

  0
ENDBLK
  5
1A1
100
AcDbEntity
 67
     1
  8
0
100
AcDbBlockEnd
  0
BLOCK
  5
1AE
100
AcDbEntity
  8
0
100
AcDbBlockBegin
  2
$MODEL_SPACE
 70
     0
 10
0.0
 20
0.0
 30
0.0
  3
$MODEL_SPACE
  1

  0
ENDBLK
  5
1AF
100
AcDbEntity
  8
0
100
AcDbBlockEnd
  0
BLOCK
  5
1B1
100
AcDbEntity
  8
0
100
AcDbBlockBegin
  2
$PAPER_SPACE
 70
     0
 10
0.0
 20
0.0
 30
0.0
  3
$PAPER_SPACE
  1

  0
ENDBLK
  5
1B2
100
AcDbEntity
  8
0
100
AcDbBlockEnd
  0
BLOCK
  5
1B4
100
AcDbEntity
  8
0
100
AcDbBlockBegin
  2
ARROW
 70
     0
 10
0.0
 20
0.0
 30
0.0
  3
ARROW
  1

  0
LINE
  5
1B5
100
AcDbEntity
  8
DIMENSION
100
AcDbLine
 10
0.0
 20
0.0
 30
0.0
 11
-1.0
 21
0.176327
 31
0.0
  0
LINE
  5
1B6
100
AcDbEntity
  8
DIMENSION
100
AcDbLine
 10
0.0
 20
0.0
 30
0.0
 11
-1.0
 21
-0.176327
 31
0.0
  0
LINE
  5
1B7
100
AcDbEntity
  8
DIMENSION
100
AcDbLine
 10
-1.0
 20
0.0
 30
0.0
 11
0.0
 21
0.0
 31
0.0
  0
ENDBLK
  5
1B8
100
AcDbEntity
  8
0
100
AcDbBlockEnd
  0
ENDSEC
  0
SECTION
  2
ENTITIES
  0
LINE
  5
1B9
100
AcDbEntity
  8
0
100
AcDbLine
 10
80.205832
 20
82.229595
 30
0.0
 11
80.205832
 21
113.029595
 31
0.0
  0
LINE
  5
1BA
100
AcDbEntity
  8
0
100
AcDbLine
 10
69.905832
 20
114.479595
 30
0.0
 11
69.905832
 21
80.779595
 31
0.0
  0
LINE
  5
1BB
100
AcDbEntity
  8
0
100
AcDbLine
 10
71.205832
 20
114.479595
 30
0.0
 11
71.205832
 21
80.779595
 31
0.0
  0
LINE
  5
1BC
100
AcDbEntity
  8
0
100
AcDbLine
 10
111.805832
 20
114.479595
 30
0.0
 11
111.805832
 21
80.779595
 31
0.0
  0
LINE
  5
1BD
100
AcDbEntity
  8
0
100
AcDbLine
 10
110.505832
 20
114.479595
 30
0.0
 11
110.505832
 21
80.779595
 31
0.0
  0
LINE
  5
1BE
100
AcDbEntity
  8
0
100
AcDbLine
 10
113.355832
 20
78.629595
 30
0.0
 11
113.355832
 21
116.629595
 31
0.0
  0
LINE
  5
1BF
100
AcDbEntity
  8
0
100
AcDbLine
 10
101.505832
 20
82.229595
 30
0.0
 11
101.505832
 21
113.029595
 31
0.0
  0
LINE
  5
1C0
100
AcDbEntity
  8
0
100
AcDbLine
 10
68.355832
 20
78.629595
 30
0.0
 11
68.355832
 21
116.629595
 31
0.0
  0
LINE
  5
1C3
100
AcDbEntity
  8
CENTER
  6
CENTER
 62
     1
100
AcDbLine
 10
117.471466
 20
97.629595
 30
0.0
 11
63.72278
 21
97.629595
 31
0.0
  0
LINE
  5
1C4
100
AcDbEntity
  8
0
100
AcDbLine
 10
113.355832
 20
78.629595
 30
0.0
 11
93.355832
 21
78.629595
 31
0.0
  0
ARC
  5
1C5
100
AcDbEntity
  8
0
100
AcDbCircle
 10
102.105832
 20
82.229595
 30
0.0
 40
0.6
100
AcDbArc
 50
180.0
 51
270.0
  0
LINE
  5
1C6
100
AcDbEntity
  8
0
100
AcDbLine
 10
102.688839
 20
84.446579
 30
0.0
 11
101.938832
 21
85.196585
 31
0.0
  0
LINE
  5
1C7
100
AcDbEntity
  8
0
100
AcDbLine
 10
102.065864
 20
83.679599
 30
0.0
 11
102.315474
 21
83.382123
 31
0.0
  0
LINE
  5
1C8
100
AcDbEntity
  8
0
100
AcDbLine
 10
102.243842
 20
84.089635
 30
0.0
 11
102.090743
 21
83.961555
 31
0.0
  0
ARC
  5
1C9
100
AcDbEntity
  8
0
100
AcDbCircle
 10
102.138832
 20
87.579605
 30
0.0
 40
0.2
100
AcDbArc
 50
90.0
 51
180.0
  0
LINE
  5
1CA
100
AcDbEntity
  8
0
100
AcDbLine
 10
102.005817
 20
87.979615
 30
0.0
 11
102.281447
 21
88.308143
 31
0.0
  0
ARC
  5
1CB
100
AcDbEntity
  8
0
100
AcDbCircle
 10
102.105832
 20
89.529595
 30
0.0
 40
0.6
100
AcDbArc
 50
90.0
 51
180.0
  0
LINE
  5
1CC
100
AcDbEntity
  8
0
100
AcDbLine
 10
88.255832
 20
67.879595
 30
0.0
 11
88.255832
 21
77.379595
 31
0.0
  0
LINE
  5
1CD
100
AcDbEntity
  8
0
100
AcDbLine
 10
93.355832
 20
66.629595
 30
0.0
 11
93.355832
 21
78.629595
 31
0.0
  0
LINE
  5
1CE
100
AcDbEntity
  8
0
100
AcDbLine
 10
83.355832
 20
66.629595
 30
0.0
 11
83.355832
 21
78.629595
 31
0.0
  0
LINE
  5
1CF
100
AcDbEntity
  8
0
100
AcDbLine
 10
93.355832
 20
67.879595
 30
0.0
 11
88.255832
 21
67.879595
 31
0.0
  0
LINE
  5
1D0
100
AcDbEntity
  8
0
100
AcDbLine
 10
93.355832
 20
66.629595
 30
0.0
 11
83.355832
 21
66.629595
 31
0.0
  0
LINE
  5
1D1
100
AcDbEntity
  8
0
100
AcDbLine
 10
88.255832
 20
69.879595
 30
0.0
 11
83.355832
 21
69.879595
 31
0.0
  0
LINE
  5
1D2
100
AcDbEntity
  8
0
100
AcDbLine
 10
79.605832
 20
90.129595
 30
0.0
 11
71.805832
 21
90.129595
 31
0.0
  0
LINE
  5
1D3
100
AcDbEntity
  8
0
100
AcDbLine
 10
78.822832
 20
84.529545
 30
0.0
 11
79.572832
 21
85.279565
 31
0.0
  0
LINE
  5
1D4
100
AcDbEntity
  8
0
100
AcDbLine
 10
79.023977
 20
88.248026
 30
0.0
 11
78.755664
 21
87.511165
 31
0.0
  0
ARC
  5
1D5
100
AcDbEntity
  8
0
100
AcDbCircle
 10
79.166377
 20
83.574959
 30
0.0
 40
0.3
100
AcDbArc
 50
184.996761
 51
320.000221
  0
LINE
  5
1D6
100
AcDbEntity
  8
0
100
AcDbLine
 10
75.705832
 20
81.629595
 30
0.0
 11
79.605832
 21
81.629595
 31
0.0
  0
LINE
  5
1D7
100
AcDbEntity
  8
0
100
AcDbLine
 10
83.355832
 20
78.629595
 30
0.0
 11
68.355832
 21
78.629595
 31
0.0
  0
LINE
  5
1D8
100
AcDbEntity
  8
0
100
AcDbLine
 10
71.205832
 20
81.629595
 30
0.0
 11
75.705832
 21
81.629595
 31
0.0
  0
LINE
  5
1D9
100
AcDbEntity
  8
0
100
AcDbLine
 10
72.708423
 20
84.379615
 30
0.0
 11
73.856412
 21
84.379625
 31
0.0
  0
LINE
  5
1DA
100
AcDbEntity
  8
0
100
AcDbLine
 10
72.84393
 20
87.379595
 30
0.0
 11
73.856412
 21
87.379595
 31
0.0
  0
LINE
  5
1DB
100
AcDbEntity
  8
0
100
AcDbLine
 10
72.388839
 20
84.446579
 30
0.0
 11
71.638832
 21
85.196585
 31
0.0
  0
LINE
  5
1DC
100
AcDbEntity
  8
0
100
AcDbLine
 10
72.588832
 20
84.059605
 30
0.0
 11
72.588832
 21
84.529545
 31
0.0
  0
LINE
  5
1DD
100
AcDbEntity
  8
0
100
AcDbLine
 10
69.905832
 20
83.279595
 30
0.0
 11
71.205832
 21
83.279595
 31
0.0
  0
LINE
  5
1DE
100
AcDbEntity
  8
0
100
AcDbLine
 10
69.905832
 20
80.779595
 30
0.0
 11
71.205832
 21
80.779595
 31
0.0
  0
LINE
  5
1DF
100
AcDbEntity
  8
0
100
AcDbLine
 10
68.355832
 20
81.629595
 30
0.0
 11
69.905832
 21
81.629595
 31
0.0
  0
LINE
  5
1E0
100
AcDbEntity
  8
0
100
AcDbLine
 10
71.918842
 20
83.808625
 30
0.0
 11
72.169158
 21
83.510276
 31
0.0
  0
ARC
  5
1E1
100
AcDbEntity
  8
0
100
AcDbCircle
 10
72.245288
 20
83.574959
 30
0.0
 40
0.3
100
AcDbArc
 50
219.999779
 51
355.003239
  0
LINE
  5
1E2
100
AcDbEntity
  8
0
100
AcDbLine
 10
72.345645
 20
83.569631
 30
0.0
 11
72.388839
 21
84.446579
 31
0.0
  0
ARC
  5
1E3
100
AcDbEntity
  8
0
100
AcDbCircle
 10
72.708423
 20
84.279615
 30
0.0
 40
0.1
100
AcDbArc
 50
90.000499
 51
175.003239
  0
LINE
  5
1E4
100
AcDbEntity
  8
0
100
AcDbLine
 10
72.544148
 20
83.548829
 30
0.0
 11
72.608804
 21
84.288325
 31
0.0
  0
ARC
  5
1E5
100
AcDbEntity
  8
0
100
AcDbCircle
 10
72.245766
 20
83.57455
 30
0.0
 40
0.1
100
AcDbArc
 50
219.996695
 51
357.180182
  0
ARC
  5
1E6
100
AcDbEntity
  8
0
100
AcDbCircle
 10
71.919073
 20
83.808156
 30
0.0
 40
0.2
100
AcDbArc
 50
129.915177
 51
219.999779
  0
LINE
  5
1E7
100
AcDbEntity
  8
0
100
AcDbLine
 10
71.943842
 20
84.089635
 30
0.0
 11
71.790743
 21
83.961555
 31
0.0
  0
LINE
  5
1E8
100
AcDbEntity
  8
0
100
AcDbLine
 10
71.765864
 20
83.679599
 30
0.0
 11
72.015474
 21
83.382123
 31
0.0
  0
LINE
  5
1E9
100
AcDbEntity
  8
0
100
AcDbLine
 10
71.943842
 20
84.089645
 30
0.0
 11
72.071852
 21
83.936645
 31
0.0
  0
LINE
  5
1EA
100
AcDbEntity
  8
0
100
AcDbLine
 10
72.071852
 20
83.936635
 30
0.0
 11
71.918842
 21
83.808645
 31
0.0
  0
LINE
  5
1EB
100
AcDbEntity
  8
0
100
AcDbLine
 10
71.305832
 20
83.679615
 30
0.0
 11
71.765832
 21
83.679615
 31
0.0
  0
ARC
  5
1EC
100
AcDbEntity
  8
0
100
AcDbCircle
 10
71.305832
 20
83.579615
 30
0.0
 40
0.1
100
AcDbArc
 50
90.0
 51
180.0
  0
ARC
  5
1ED
100
AcDbEntity
  8
0
100
AcDbCircle
 10
71.805832
 20
82.229595
 30
0.0
 40
0.6
100
AcDbArc
 50
180.0
 51
270.0
  0
LINE
  5
1EE
100
AcDbEntity
  8
0
100
AcDbLine
 10
71.638832
 20
85.196585
 30
0.0
 11
71.638832
 21
87.579605
 31
0.0
  0
LINE
  5
1EF
100
AcDbEntity
  8
0
100
AcDbLine
 10
71.838832
 20
85.279565
 30
0.0
 11
71.838832
 21
87.579605
 31
0.0
  0
LINE
  5
1F0
100
AcDbEntity
  8
0
100
AcDbLine
 10
72.288832
 20
87.579605
 30
0.0
 11
71.838832
 21
87.579605
 31
0.0
  0
ARC
  5
1F1
100
AcDbEntity
  8
0
100
AcDbCircle
 10
72.134665
 20
88.179595
 30
0.0
 40
0.2
100
AcDbArc
 50
90.0
 51
140.003781
  0
LINE
  5
1F2
100
AcDbEntity
  8
0
100
AcDbLine
 10
71.838832
 20
87.779605
 30
0.0
 11
72.288832
 21
87.779605
 31
0.0
  0
ARC
  5
1F3
100
AcDbEntity
  8
0
100
AcDbCircle
 10
72.84393
 20
87.579595
 30
0.0
 40
0.2
100
AcDbArc
 50
200.008105
 51
270.0
  0
LINE
  5
1F4
100
AcDbEntity
  8
0
100
AcDbLine
 10
72.134665
 20
88.379595
 30
0.0
 11
72.199759
 21
88.379595
 31
0.0
  0
ARC
  5
1F5
100
AcDbEntity
  8
0
100
AcDbCircle
 10
72.199759
 20
88.179595
 30
0.0
 40
0.2
100
AcDbArc
 50
20.008105
 51
90.0
  0
LINE
  5
1F6
100
AcDbEntity
  8
0
100
AcDbLine
 10
72.387687
 20
88.248026
 30
0.0
 11
72.656001
 21
87.511165
 31
0.0
  0
LINE
  5
1F7
100
AcDbEntity
  8
0
100
AcDbLine
 10
72.288832
 20
87.779605
 30
0.0
 11
72.288832
 21
87.579605
 31
0.0
  0
LINE
  5
1F8
100
AcDbEntity
  8
0
100
AcDbLine
 10
71.705817
 20
87.979615
 30
0.0
 11
71.981447
 21
88.308143
 31
0.0
  0
LINE
  5
1F9
100
AcDbEntity
  8
0
100
AcDbLine
 10
71.405832
 20
87.979615
 30
0.0
 11
71.705817
 21
87.979615
 31
0.0
  0
ARC
  5
1FA
100
AcDbEntity
  8
0
100
AcDbCircle
 10
71.405832
 20
88.179615
 30
0.0
 40
0.2
100
AcDbArc
 50
180.0
 51
270.0
  0
ARC
  5
1FB
100
AcDbEntity
  8
0
100
AcDbCircle
 10
71.838832
 20
87.579605
 30
0.0
 40
0.2
100
AcDbArc
 50
90.0
 51
180.0
  0
LINE
  5
1FC
100
AcDbEntity
  8
0
100
AcDbLine
 10
72.588832
 20
84.529545
 30
0.0
 11
71.838832
 21
85.279565
 31
0.0
  0
LINE
  5
1FD
100
AcDbEntity
  8
0
100
AcDbLine
 10
78.822832
 20
84.059605
 30
0.0
 11
78.822832
 21
84.529545
 31
0.0
  0
CIRCLE
  5
1FE
100
AcDbEntity
  8
0
100
AcDbCircle
 10
75.705832
 20
85.879595
 30
0.0
 40
2.38125
  0
LINE
  5
1FF
100
AcDbEntity
  8
0
100
AcDbLine
 10
78.703242
 20
84.379615
 30
0.0
 11
77.555252
 21
84.379625
 31
0.0
  0
ARC
  5
200
100
AcDbEntity
  8
0
100
AcDbCircle
 10
78.703241
 20
84.279615
 30
0.0
 40
0.1
100
AcDbArc
 50
4.996761
 51
89.999501
  0
LINE
  5
201
100
AcDbEntity
  8
0
100
AcDbLine
 10
78.867517
 20
83.548829
 30
0.0
 11
78.802861
 21
84.288325
 31
0.0
  0
LINE
  5
202
100
AcDbEntity
  8
0
100
AcDbLine
 10
78.567735
 20
87.379595
 30
0.0
 11
77.555252
 21
87.379595
 31
0.0
  0
ARC
  5
203
100
AcDbEntity
  8
0
100
AcDbCircle
 10
78.567735
 20
87.579595
 30
0.0
 40
0.2
100
AcDbArc
 50
270.0
 51
339.991895
  0
ARC
  5
204
100
AcDbEntity
  8
0
100
AcDbCircle
 10
71.805832
 20
89.529595
 30
0.0
 40
0.6
100
AcDbArc
 50
90.0
 51
180.0
  0
LINE
  5
205
100
AcDbEntity
  8
CENTER
  6
CENTER
 62
     1
100
AcDbLine
 10
94.355832
 20
72.629595
 30
0.0
 11
82.355832
 21
72.629595
 31
0.0
  0
LINE
  5
206
100
AcDbEntity
  8
0
100
AcDbLine
 10
93.355832
 20
77.379595
 30
0.0
 11
88.255832
 21
77.379595
 31
0.0
  0
LINE
  5
207
100
AcDbEntity
  8
0
100
AcDbLine
 10
101.505832
 20
83.629595
 30
0.0
 11
80.205832
 21
83.629595
 31
0.0
  0
LINE
  5
208
100
AcDbEntity
  8
0
100
AcDbLine
 10
88.255832
 20
75.379595
 30
0.0
 11
83.355832
 21
75.379595
 31
0.0
  0
LINE
  5
209
100
AcDbEntity
  8
0
100
AcDbLine
 10
79.022826
 20
84.446579
 30
0.0
 11
79.772832
 21
85.196585
 31
0.0
  0
LINE
  5
20A
100
AcDbEntity
  8
0
100
AcDbLine
 10
79.06602
 20
83.569631
 30
0.0
 11
79.022826
 21
84.446579
 31
0.0
  0
LINE
  5
20B
100
AcDbEntity
  8
0
100
AcDbLine
 10
79.339812
 20
83.936635
 30
0.0
 11
79.492822
 21
83.808645
 31
0.0
  0
LINE
  5
20C
100
AcDbEntity
  8
0
100
AcDbLine
 10
79.467822
 20
84.089645
 30
0.0
 11
79.339812
 21
83.936645
 31
0.0
  0
LINE
  5
20D
100
AcDbEntity
  8
0
100
AcDbLine
 10
79.492822
 20
83.808625
 30
0.0
 11
79.242507
 21
83.510276
 31
0.0
  0
ARC
  5
20E
100
AcDbEntity
  8
0
100
AcDbCircle
 10
79.165899
 20
83.57455
 30
0.0
 40
0.1
100
AcDbArc
 50
182.819818
 51
320.003305
  0
LINE
  5
20F
100
AcDbEntity
  8
0
100
AcDbLine
 10
80.105832
 20
83.679615
 30
0.0
 11
79.645832
 21
83.679615
 31
0.0
  0
ARC
  5
210
100
AcDbEntity
  8
0
100
AcDbCircle
 10
79.492591
 20
83.808156
 30
0.0
 40
0.2
100
AcDbArc
 50
320.000221
 51
50.084823
  0
ARC
  5
211
100
AcDbEntity
  8
0
100
AcDbCircle
 10
80.105832
 20
83.579615
 30
0.0
 40
0.1
100
AcDbArc
 50
0.0
 51
90.0
  0
LINE
  5
212
100
AcDbEntity
  8
0
100
AcDbLine
 10
79.467822
 20
84.089635
 30
0.0
 11
79.620922
 21
83.961555
 31
0.0
  0
LINE
  5
213
100
AcDbEntity
  8
0
100
AcDbLine
 10
79.645801
 20
83.679599
 30
0.0
 11
79.396191
 21
83.382123
 31
0.0
  0
ARC
  5
214
100
AcDbEntity
  8
0
100
AcDbCircle
 10
79.605832
 20
82.229595
 30
0.0
 40
0.6
100
AcDbArc
 50
270.0
 51
360.0
  0
LINE
  5
215
100
AcDbEntity
  8
0
100
AcDbLine
 10
79.122832
 20
87.579605
 30
0.0
 11
79.572832
 21
87.579605
 31
0.0
  0
LINE
  5
216
100
AcDbEntity
  8
0
100
AcDbLine
 10
79.572832
 20
87.779605
 30
0.0
 11
79.122832
 21
87.779605
 31
0.0
  0
LINE
  5
217
100
AcDbEntity
  8
0
100
AcDbLine
 10
79.572832
 20
85.279565
 30
0.0
 11
79.572832
 21
87.579605
 31
0.0
  0
LINE
  5
218
100
AcDbEntity
  8
0
100
AcDbLine
 10
79.277
 20
88.379595
 30
0.0
 11
79.211906
 21
88.379595
 31
0.0
  0
ARC
  5
219
100
AcDbEntity
  8
0
100
AcDbCircle
 10
79.277
 20
88.179595
 30
0.0
 40
0.2
100
AcDbArc
 50
39.996219
 51
90.0
  0
LINE
  5
21A
100
AcDbEntity
  8
0
100
AcDbLine
 10
79.122832
 20
87.779605
 30
0.0
 11
79.122832
 21
87.579605
 31
0.0
  0
ARC
  5
21B
100
AcDbEntity
  8
0
100
AcDbCircle
 10
79.211906
 20
88.179595
 30
0.0
 40
0.2
100
AcDbArc
 50
90.0
 51
159.991895
  0
LINE
  5
21C
100
AcDbEntity
  8
0
100
AcDbLine
 10
79.772832
 20
85.196585
 30
0.0
 11
79.772832
 21
87.579605
 31
0.0
  0
LINE
  5
21D
100
AcDbEntity
  8
0
100
AcDbLine
 10
80.005832
 20
87.979615
 30
0.0
 11
79.705848
 21
87.979615
 31
0.0
  0
ARC
  5
21E
100
AcDbEntity
  8
0
100
AcDbCircle
 10
80.005832
 20
88.179615
 30
0.0
 40
0.2
100
AcDbArc
 50
270.0
 51
0.0
  0
LINE
  5
21F
100
AcDbEntity
  8
0
100
AcDbLine
 10
79.705848
 20
87.979615
 30
0.0
 11
79.430217
 21
88.308143
 31
0.0
  0
ARC
  5
220
100
AcDbEntity
  8
0
100
AcDbCircle
 10
79.572832
 20
87.579605
 30
0.0
 40
0.2
100
AcDbArc
 50
0.0
 51
90.0
  0
ARC
  5
221
100
AcDbEntity
  8
0
100
AcDbCircle
 10
101.605832
 20
83.579615
 30
0.0
 40
0.1
100
AcDbArc
 50
90.0
 51
180.0
  0
ARC
  5
222
100
AcDbEntity
  8
0
100
AcDbCircle
 10
102.219073
 20
83.808156
 30
0.0
 40
0.2
100
AcDbArc
 50
129.915177
 51
219.999779
  0
LINE
  5
223
100
AcDbEntity
  8
0
100
AcDbLine
 10
101.605832
 20
83.679615
 30
0.0
 11
102.065832
 21
83.679615
 31
0.0
  0
ARC
  5
224
100
AcDbEntity
  8
0
100
AcDbCircle
 10
101.705832
 20
88.179615
 30
0.0
 40
0.2
100
AcDbArc
 50
180.0
 51
270.0
  0
LINE
  5
225
100
AcDbEntity
  8
0
100
AcDbLine
 10
101.705832
 20
87.979615
 30
0.0
 11
102.005817
 21
87.979615
 31
0.0
  0
LINE
  5
226
100
AcDbEntity
  8
0
100
AcDbLine
 10
101.938832
 20
85.196585
 30
0.0
 11
101.938832
 21
87.579605
 31
0.0
  0
ARC
  5
227
100
AcDbEntity
  8
0
100
AcDbCircle
 10
79.605832
 20
89.529595
 30
0.0
 40
0.6
100
AcDbArc
 50
360.0
 51
90.0
  0
LINE
  5
228
100
AcDbEntity
  8
0
100
AcDbLine
 10
109.003242
 20
84.379615
 30
0.0
 11
107.855252
 21
84.379625
 31
0.0
  0
LINE
  5
229
100
AcDbEntity
  8
0
100
AcDbLine
 10
108.867735
 20
87.379595
 30
0.0
 11
107.855252
 21
87.379595
 31
0.0
  0
CIRCLE
  5
22A
100
AcDbEntity
  8
0
100
AcDbCircle
 10
106.005832
 20
85.879595
 30
0.0
 40
2.38125
  0
LINE
  5
22B
100
AcDbEntity
  8
0
100
AcDbLine
 10
110.505832
 20
81.629595
 30
0.0
 11
106.005832
 21
81.629595
 31
0.0
  0
LINE
  5
22C
100
AcDbEntity
  8
0
100
AcDbLine
 10
102.888832
 20
84.059605
 30
0.0
 11
102.888832
 21
84.529545
 31
0.0
  0
LINE
  5
22D
100
AcDbEntity
  8
0
100
AcDbLine
 10
106.005832
 20
81.629595
 30
0.0
 11
102.105832
 21
81.629595
 31
0.0
  0
LINE
  5
22E
100
AcDbEntity
  8
0
100
AcDbLine
 10
102.218842
 20
83.808625
 30
0.0
 11
102.469158
 21
83.510276
 31
0.0
  0
LINE
  5
22F
100
AcDbEntity
  8
0
100
AcDbLine
 10
102.243842
 20
84.089645
 30
0.0
 11
102.371852
 21
83.936645
 31
0.0
  0
LINE
  5
230
100
AcDbEntity
  8
0
100
AcDbLine
 10
102.371852
 20
83.936635
 30
0.0
 11
102.218842
 21
83.808645
 31
0.0
  0
LINE
  5
231
100
AcDbEntity
  8
0
100
AcDbLine
 10
102.844148
 20
83.548829
 30
0.0
 11
102.908804
 21
84.288325
 31
0.0
  0
ARC
  5
232
100
AcDbEntity
  8
0
100
AcDbCircle
 10
102.545766
 20
83.57455
 30
0.0
 40
0.1
100
AcDbArc
 50
219.996695
 51
357.180182
  0
ARC
  5
233
100
AcDbEntity
  8
0
100
AcDbCircle
 10
102.545288
 20
83.574959
 30
0.0
 40
0.3
100
AcDbArc
 50
219.999779
 51
355.003239
  0
LINE
  5
234
100
AcDbEntity
  8
0
100
AcDbLine
 10
102.645645
 20
83.569631
 30
0.0
 11
102.688839
 21
84.446579
 31
0.0
  0
ARC
  5
235
100
AcDbEntity
  8
0
100
AcDbCircle
 10
103.008423
 20
84.279615
 30
0.0
 40
0.1
100
AcDbArc
 50
90.000499
 51
175.003239
  0
LINE
  5
236
100
AcDbEntity
  8
0
100
AcDbLine
 10
103.008423
 20
84.379615
 30
0.0
 11
104.156412
 21
84.379625
 31
0.0
  0
LINE
  5
237
100
AcDbEntity
  8
0
100
AcDbLine
 10
102.888832
 20
84.529545
 30
0.0
 11
102.138832
 21
85.279565
 31
0.0
  0
LINE
  5
238
100
AcDbEntity
  8
0
100
AcDbLine
 10
102.687687
 20
88.248026
 30
0.0
 11
102.956001
 21
87.511165
 31
0.0
  0
LINE
  5
239
100
AcDbEntity
  8
0
100
AcDbLine
 10
102.588832
 20
87.779605
 30
0.0
 11
102.588832
 21
87.579605
 31
0.0
  0
ARC
  5
23A
100
AcDbEntity
  8
0
100
AcDbCircle
 10
102.434665
 20
88.179595
 30
0.0
 40
0.2
100
AcDbArc
 50
90.0
 51
140.003781
  0
LINE
  5
23B
100
AcDbEntity
  8
0
100
AcDbLine
 10
102.138832
 20
87.779605
 30
0.0
 11
102.588832
 21
87.779605
 31
0.0
  0
ARC
  5
23C
100
AcDbEntity
  8
0
100
AcDbCircle
 10
102.499759
 20
88.179595
 30
0.0
 40
0.2
100
AcDbArc
 50
20.008105
 51
90.0
  0
LINE
  5
23D
100
AcDbEntity
  8
0
100
AcDbLine
 10
102.434665
 20
88.379595
 30
0.0
 11
102.499759
 21
88.379595
 31
0.0
  0
LINE
  5
23E
100
AcDbEntity
  8
0
100
AcDbLine
 10
102.588832
 20
87.579605
 30
0.0
 11
102.138832
 21
87.579605
 31
0.0
  0
ARC
  5
23F
100
AcDbEntity
  8
0
100
AcDbCircle
 10
103.14393
 20
87.579595
 30
0.0
 40
0.2
100
AcDbArc
 50
200.008105
 51
270.0
  0
LINE
  5
240
100
AcDbEntity
  8
0
100
AcDbLine
 10
103.14393
 20
87.379595
 30
0.0
 11
104.156412
 21
87.379595
 31
0.0
  0
LINE
  5
241
100
AcDbEntity
  8
0
100
AcDbLine
 10
102.138832
 20
85.279565
 30
0.0
 11
102.138832
 21
87.579605
 31
0.0
  0
LINE
  5
242
100
AcDbEntity
  8
0
100
AcDbLine
 10
109.122832
 20
84.059605
 30
0.0
 11
109.122832
 21
84.529545
 31
0.0
  0
LINE
  5
243
100
AcDbEntity
  8
0
100
AcDbLine
 10
109.322826
 20
84.446579
 30
0.0
 11
110.072832
 21
85.196585
 31
0.0
  0
LINE
  5
244
100
AcDbEntity
  8
0
100
AcDbLine
 10
111.805832
 20
83.279595
 30
0.0
 11
110.505832
 21
83.279595
 31
0.0
  0
LINE
  5
245
100
AcDbEntity
  8
0
100
AcDbLine
 10
111.805832
 20
80.779595
 30
0.0
 11
110.505832
 21
80.779595
 31
0.0
  0
ARC
  5
246
100
AcDbEntity
  8
0
100
AcDbCircle
 10
109.905832
 20
82.229595
 30
0.0
 40
0.6
100
AcDbArc
 50
270.0
 51
0.0
  0
ARC
  5
247
100
AcDbEntity
  8
0
100
AcDbCircle
 10
110.405832
 20
83.579615
 30
0.0
 40
0.1
100
AcDbArc
 50
0.0
 51
90.0
  0
LINE
  5
248
100
AcDbEntity
  8
0
100
AcDbLine
 10
110.405832
 20
83.679615
 30
0.0
 11
109.945832
 21
83.679615
 31
0.0
  0
LINE
  5
249
100
AcDbEntity
  8
0
100
AcDbLine
 10
109.639812
 20
83.936635
 30
0.0
 11
109.792822
 21
83.808645
 31
0.0
  0
LINE
  5
24A
100
AcDbEntity
  8
0
100
AcDbLine
 10
109.767822
 20
84.089645
 30
0.0
 11
109.639812
 21
83.936645
 31
0.0
  0
LINE
  5
24B
100
AcDbEntity
  8
0
100
AcDbLine
 10
109.945801
 20
83.679599
 30
0.0
 11
109.696191
 21
83.382123
 31
0.0
  0
LINE
  5
24C
100
AcDbEntity
  8
0
100
AcDbLine
 10
109.767822
 20
84.089635
 30
0.0
 11
109.920922
 21
83.961555
 31
0.0
  0
ARC
  5
24D
100
AcDbEntity
  8
0
100
AcDbCircle
 10
109.792591
 20
83.808156
 30
0.0
 40
0.2
100
AcDbArc
 50
320.000221
 51
50.084823
  0
ARC
  5
24E
100
AcDbEntity
  8
0
100
AcDbCircle
 10
109.465899
 20
83.57455
 30
0.0
 40
0.1
100
AcDbArc
 50
182.819818
 51
320.003305
  0
LINE
  5
24F
100
AcDbEntity
  8
0
100
AcDbLine
 10
109.167517
 20
83.548829
 30
0.0
 11
109.102861
 21
84.288325
 31
0.0
  0
ARC
  5
250
100
AcDbEntity
  8
0
100
AcDbCircle
 10
109.003241
 20
84.279615
 30
0.0
 40
0.1
100
AcDbArc
 50
4.996761
 51
89.999501
  0
LINE
  5
251
100
AcDbEntity
  8
0
100
AcDbLine
 10
109.36602
 20
83.569631
 30
0.0
 11
109.322826
 21
84.446579
 31
0.0
  0
ARC
  5
252
100
AcDbEntity
  8
0
100
AcDbCircle
 10
109.466377
 20
83.574959
 30
0.0
 40
0.3
100
AcDbArc
 50
184.996761
 51
320.000221
  0
LINE
  5
253
100
AcDbEntity
  8
0
100
AcDbLine
 10
109.792822
 20
83.808625
 30
0.0
 11
109.542507
 21
83.510276
 31
0.0
  0
LINE
  5
254
100
AcDbEntity
  8
0
100
AcDbLine
 10
113.355832
 20
81.629595
 30
0.0
 11
111.805832
 21
81.629595
 31
0.0
  0
LINE
  5
255
100
AcDbEntity
  8
0
100
AcDbLine
 10
109.122832
 20
84.529545
 30
0.0
 11
109.872832
 21
85.279565
 31
0.0
  0
ARC
  5
256
100
AcDbEntity
  8
0
100
AcDbCircle
 10
109.872832
 20
87.579605
 30
0.0
 40
0.2
100
AcDbArc
 50
0.0
 51
90.0
  0
ARC
  5
257
100
AcDbEntity
  8
0
100
AcDbCircle
 10
110.305832
 20
88.179615
 30
0.0
 40
0.2
100
AcDbArc
 50
270.0
 51
0.0
  0
LINE
  5
258
100
AcDbEntity
  8
0
100
AcDbLine
 10
110.305832
 20
87.979615
 30
0.0
 11
110.005848
 21
87.979615
 31
0.0
  0
LINE
  5
259
100
AcDbEntity
  8
0
100
AcDbLine
 10
110.005848
 20
87.979615
 30
0.0
 11
109.730217
 21
88.308143
 31
0.0
  0
LINE
  5
25A
100
AcDbEntity
  8
0
100
AcDbLine
 10
109.422832
 20
87.779605
 30
0.0
 11
109.422832
 21
87.579605
 31
0.0
  0
LINE
  5
25B
100
AcDbEntity
  8
0
100
AcDbLine
 10
109.323977
 20
88.248026
 30
0.0
 11
109.055664
 21
87.511165
 31
0.0
  0
ARC
  5
25C
100
AcDbEntity
  8
0
100
AcDbCircle
 10
109.511906
 20
88.179595
 30
0.0
 40
0.2
100
AcDbArc
 50
90.0
 51
159.991895
  0
LINE
  5
25D
100
AcDbEntity
  8
0
100
AcDbLine
 10
109.577
 20
88.379595
 30
0.0
 11
109.511906
 21
88.379595
 31
0.0
  0
ARC
  5
25E
100
AcDbEntity
  8
0
100
AcDbCircle
 10
108.867735
 20
87.579595
 30
0.0
 40
0.2
100
AcDbArc
 50
270.0
 51
339.991895
  0
LINE
  5
25F
100
AcDbEntity
  8
0
100
AcDbLine
 10
109.872832
 20
87.779605
 30
0.0
 11
109.422832
 21
87.779605
 31
0.0
  0
ARC
  5
260
100
AcDbEntity
  8
0
100
AcDbCircle
 10
109.577
 20
88.179595
 30
0.0
 40
0.2
100
AcDbArc
 50
39.996219
 51
90.0
  0
LINE
  5
261
100
AcDbEntity
  8
0
100
AcDbLine
 10
109.422832
 20
87.579605
 30
0.0
 11
109.872832
 21
87.579605
 31
0.0
  0
LINE
  5
262
100
AcDbEntity
  8
0
100
AcDbLine
 10
109.872832
 20
85.279565
 30
0.0
 11
109.872832
 21
87.579605
 31
0.0
  0
LINE
  5
263
100
AcDbEntity
  8
0
100
AcDbLine
 10
110.072832
 20
85.196585
 30
0.0
 11
110.072832
 21
87.579605
 31
0.0
  0
LINE
  5
264
100
AcDbEntity
  8
0
100
AcDbLine
 10
102.105832
 20
90.129595
 30
0.0
 11
109.905832
 21
90.129595
 31
0.0
  0
ARC
  5
265
100
AcDbEntity
  8
0
100
AcDbCircle
 10
109.905832
 20
89.529595
 30
0.0
 40
0.6
100
AcDbArc
 50
0.0
 51
90.0
  0
LINE
  5
266
100
AcDbEntity
  8
0
100
AcDbLine
 10
113.355832
 20
116.629595
 30
0.0
 11
93.355832
 21
116.629595
 31
0.0
  0
LINE
  5
267
100
AcDbEntity
  8
0
100
AcDbLine
 10
102.243842
 20
111.169555
 30
0.0
 11
102.090743
 21
111.297635
 31
0.0
  0
LINE
  5
268
100
AcDbEntity
  8
0
100
AcDbLine
 10
102.065864
 20
111.579591
 30
0.0
 11
102.315474
 21
111.877067
 31
0.0
  0
LINE
  5
269
100
AcDbEntity
  8
0
100
AcDbLine
 10
102.688839
 20
110.812611
 30
0.0
 11
101.938832
 21
110.062605
 31
0.0
  0
ARC
  5
26A
100
AcDbEntity
  8
0
100
AcDbCircle
 10
102.105832
 20
113.029595
 30
0.0
 40
0.6
100
AcDbArc
 50
90.0
 51
180.0
  0
ARC
  5
26B
100
AcDbEntity
  8
0
100
AcDbCircle
 10
102.105832
 20
105.729595
 30
0.0
 40
0.6
100
AcDbArc
 50
180.0
 51
270.0
  0
LINE
  5
26C
100
AcDbEntity
  8
0
100
AcDbLine
 10
102.005817
 20
107.279575
 30
0.0
 11
102.281447
 21
106.951048
 31
0.0
  0
ARC
  5
26D
100
AcDbEntity
  8
0
100
AcDbCircle
 10
102.138832
 20
107.679585
 30
0.0
 40
0.2
100
AcDbArc
 50
180.0
 51
270.0
  0
LINE
  5
26E
100
AcDbEntity
  8
0
100
AcDbLine
 10
75.705832
 20
113.629595
 30
0.0
 11
79.605832
 21
113.629595
 31
0.0
  0
LINE
  5
26F
100
AcDbEntity
  8
0
100
AcDbLine
 10
78.822832
 20
110.729645
 30
0.0
 11
79.572832
 21
109.979625
 31
0.0
  0
ARC
  5
270
100
AcDbEntity
  8
0
100
AcDbCircle
 10
79.166377
 20
111.684232
 30
0.0
 40
0.3
100
AcDbArc
 50
39.999779
 51
175.003239
  0
LINE
  5
271
100
AcDbEntity
  8
0
100
AcDbLine
 10
79.023977
 20
107.011165
 30
0.0
 11
78.755664
 21
107.748026
 31
0.0
  0
LINE
  5
272
100
AcDbEntity
  8
0
100
AcDbLine
 10
79.605832
 20
105.129595
 30
0.0
 11
71.805832
 21
105.129595
 31
0.0
  0
LINE
  5
273
100
AcDbEntity
  8
0
100
AcDbLine
 10
83.355832
 20
116.629595
 30
0.0
 11
68.355832
 21
116.629595
 31
0.0
  0
ARC
  5
274
100
AcDbEntity
  8
0
100
AcDbCircle
 10
71.805832
 20
113.029595
 30
0.0
 40
0.6
100
AcDbArc
 50
90.0
 51
180.0
  0
LINE
  5
275
100
AcDbEntity
  8
0
100
AcDbLine
 10
72.84393
 20
107.879595
 30
0.0
 11
73.856412
 21
107.879595
 31
0.0
  0
LINE
  5
276
100
AcDbEntity
  8
0
100
AcDbLine
 10
72.708423
 20
110.879575
 30
0.0
 11
73.856412
 21
110.879565
 31
0.0
  0
LINE
  5
277
100
AcDbEntity
  8
0
100
AcDbLine
 10
71.838832
 20
109.979625
 30
0.0
 11
71.838832
 21
107.679585
 31
0.0
  0
LINE
  5
278
100
AcDbEntity
  8
0
100
AcDbLine
 10
71.638832
 20
110.062605
 30
0.0
 11
71.638832
 21
107.679585
 31
0.0
  0
ARC
  5
279
100
AcDbEntity
  8
0
100
AcDbCircle
 10
71.838832
 20
107.679585
 30
0.0
 40
0.2
100
AcDbArc
 50
180.0
 51
270.0
  0
LINE
  5
27A
100
AcDbEntity
  8
0
100
AcDbLine
 10
72.288832
 20
107.479585
 30
0.0
 11
72.288832
 21
107.679585
 31
0.0
  0
LINE
  5
27B
100
AcDbEntity
  8
0
100
AcDbLine
 10
72.387687
 20
107.011165
 30
0.0
 11
72.656001
 21
107.748026
 31
0.0
  0
LINE
  5
27C
100
AcDbEntity
  8
0
100
AcDbLine
 10
71.838832
 20
107.479585
 30
0.0
 11
72.288832
 21
107.479585
 31
0.0
  0
ARC
  5
27D
100
AcDbEntity
  8
0
100
AcDbCircle
 10
72.199759
 20
107.079595
 30
0.0
 40
0.2
100
AcDbArc
 50
270.0
 51
339.991895
  0
ARC
  5
27E
100
AcDbEntity
  8
0
100
AcDbCircle
 10
71.405832
 20
107.079575
 30
0.0
 40
0.2
100
AcDbArc
 50
90.0
 51
180.0
  0
ARC
  5
27F
100
AcDbEntity
  8
0
100
AcDbCircle
 10
71.805832
 20
105.729595
 30
0.0
 40
0.6
100
AcDbArc
 50
180.0
 51
270.0
  0
LINE
  5
280
100
AcDbEntity
  8
0
100
AcDbLine
 10
71.405832
 20
107.279575
 30
0.0
 11
71.705817
 21
107.279575
 31
0.0
  0
LINE
  5
281
100
AcDbEntity
  8
0
100
AcDbLine
 10
71.705817
 20
107.279575
 30
0.0
 11
71.981447
 21
106.951048
 31
0.0
  0
ARC
  5
282
100
AcDbEntity
  8
0
100
AcDbCircle
 10
72.134665
 20
107.079595
 30
0.0
 40
0.2
100
AcDbArc
 50
219.996219
 51
270.0
  0
LINE
  5
283
100
AcDbEntity
  8
0
100
AcDbLine
 10
72.134665
 20
106.879595
 30
0.0
 11
72.199759
 21
106.879595
 31
0.0
  0
LINE
  5
284
100
AcDbEntity
  8
0
100
AcDbLine
 10
72.288832
 20
107.679585
 30
0.0
 11
71.838832
 21
107.679585
 31
0.0
  0
ARC
  5
285
100
AcDbEntity
  8
0
100
AcDbCircle
 10
72.84393
 20
107.679595
 30
0.0
 40
0.2
100
AcDbArc
 50
90.0
 51
159.991895
  0
LINE
  5
286
100
AcDbEntity
  8
0
100
AcDbLine
 10
69.905832
 20
111.979595
 30
0.0
 11
71.205832
 21
111.979595
 31
0.0
  0
LINE
  5
287
100
AcDbEntity
  8
0
100
AcDbLine
 10
72.388839
 20
110.812611
 30
0.0
 11
71.638832
 21
110.062605
 31
0.0
  0
LINE
  5
288
100
AcDbEntity
  8
0
100
AcDbLine
 10
72.588832
 20
110.729645
 30
0.0
 11
71.838832
 21
109.979625
 31
0.0
  0
ARC
  5
289
100
AcDbEntity
  8
0
100
AcDbCircle
 10
72.245288
 20
111.684232
 30
0.0
 40
0.3
100
AcDbArc
 50
4.996761
 51
140.000221
  0
ARC
  5
28A
100
AcDbEntity
  8
0
100
AcDbCircle
 10
72.245766
 20
111.68464
 30
0.0
 40
0.1
100
AcDbArc
 50
2.819818
 51
140.003305
  0
LINE
  5
28B
100
AcDbEntity
  8
0
100
AcDbLine
 10
72.544148
 20
111.710361
 30
0.0
 11
72.608804
 21
110.970865
 31
0.0
  0
ARC
  5
28C
100
AcDbEntity
  8
0
100
AcDbCircle
 10
72.708423
 20
110.979575
 30
0.0
 40
0.1
100
AcDbArc
 50
184.996761
 51
269.999501
  0
LINE
  5
28D
100
AcDbEntity
  8
0
100
AcDbLine
 10
72.345645
 20
111.689559
 30
0.0
 11
72.388839
 21
110.812611
 31
0.0
  0
LINE
  5
28E
100
AcDbEntity
  8
0
100
AcDbLine
 10
72.588832
 20
111.199585
 30
0.0
 11
72.588832
 21
110.729645
 31
0.0
  0
ARC
  5
28F
100
AcDbEntity
  8
0
100
AcDbCircle
 10
71.305832
 20
111.679575
 30
0.0
 40
0.1
100
AcDbArc
 50
180.0
 51
270.0
  0
LINE
  5
290
100
AcDbEntity
  8
0
100
AcDbLine
 10
71.305832
 20
111.579575
 30
0.0
 11
71.765832
 21
111.579575
 31
0.0
  0
LINE
  5
291
100
AcDbEntity
  8
0
100
AcDbLine
 10
72.071852
 20
111.322555
 30
0.0
 11
71.918842
 21
111.450545
 31
0.0
  0
LINE
  5
292
100
AcDbEntity
  8
0
100
AcDbLine
 10
71.943842
 20
111.169545
 30
0.0
 11
72.071852
 21
111.322545
 31
0.0
  0
LINE
  5
293
100
AcDbEntity
  8
0
100
AcDbLine
 10
71.765864
 20
111.579591
 30
0.0
 11
72.015474
 21
111.877067
 31
0.0
  0
LINE
  5
294
100
AcDbEntity
  8
0
100
AcDbLine
 10
71.943842
 20
111.169555
 30
0.0
 11
71.790743
 21
111.297635
 31
0.0
  0
ARC
  5
295
100
AcDbEntity
  8
0
100
AcDbCircle
 10
71.919073
 20
111.451034
 30
0.0
 40
0.2
100
AcDbArc
 50
140.000221
 51
230.084823
  0
LINE
  5
296
100
AcDbEntity
  8
0
100
AcDbLine
 10
71.918842
 20
111.450565
 30
0.0
 11
72.169158
 21
111.748914
 31
0.0
  0
CIRCLE
  5
297
100
AcDbEntity
  8
0
100
AcDbCircle
 10
75.705832
 20
109.379595
 30
0.0
 40
2.38125
  0
LINE
  5
298
100
AcDbEntity
  8
0
100
AcDbLine
 10
78.567735
 20
107.879595
 30
0.0
 11
77.555252
 21
107.879595
 31
0.0
  0
ARC
  5
299
100
AcDbEntity
  8
0
100
AcDbCircle
 10
78.567735
 20
107.679595
 30
0.0
 40
0.2
100
AcDbArc
 50
20.008105
 51
90.0
  0
LINE
  5
29A
100
AcDbEntity
  8
0
100
AcDbLine
 10
78.703242
 20
110.879575
 30
0.0
 11
77.555252
 21
110.879565
 31
0.0
  0
LINE
  5
29B
100
AcDbEntity
  8
0
100
AcDbLine
 10
78.867517
 20
111.710361
 30
0.0
 11
78.802861
 21
110.970865
 31
0.0
  0
LINE
  5
29C
100
AcDbEntity
  8
0
100
AcDbLine
 10
78.822832
 20
111.199585
 30
0.0
 11
78.822832
 21
110.729645
 31
0.0
  0
ARC
  5
29D
100
AcDbEntity
  8
0
100
AcDbCircle
 10
78.703241
 20
110.979575
 30
0.0
 40
0.1
100
AcDbArc
 50
270.000499
 51
355.003239
  0
LINE
  5
29E
100
AcDbEntity
  8
0
100
AcDbLine
 10
71.205832
 20
113.629595
 30
0.0
 11
75.705832
 21
113.629595
 31
0.0
  0
LINE
  5
29F
100
AcDbEntity
  8
0
100
AcDbLine
 10
69.905832
 20
114.479595
 30
0.0
 11
71.205832
 21
114.479595
 31
0.0
  0
LINE
  5
2A0
100
AcDbEntity
  8
0
100
AcDbLine
 10
68.355832
 20
113.629595
 30
0.0
 11
69.905832
 21
113.629595
 31
0.0
  0
LINE
  5
2A1
100
AcDbEntity
  8
0
100
AcDbLine
 10
93.355832
 20
128.629595
 30
0.0
 11
93.355832
 21
116.629595
 31
0.0
  0
LINE
  5
2A2
100
AcDbEntity
  8
0
100
AcDbLine
 10
88.255832
 20
127.379595
 30
0.0
 11
88.255832
 21
117.879595
 31
0.0
  0
LINE
  5
2A3
100
AcDbEntity
  8
0
100
AcDbLine
 10
83.355832
 20
128.629595
 30
0.0
 11
83.355832
 21
116.629595
 31
0.0
  0
LINE
  5
2A4
100
AcDbEntity
  8
0
100
AcDbLine
 10
101.505832
 20
111.629595
 30
0.0
 11
80.205832
 21
111.629595
 31
0.0
  0
LINE
  5
2A5
100
AcDbEntity
  8
0
100
AcDbLine
 10
93.355832
 20
117.879595
 30
0.0
 11
88.255832
 21
117.879595
 31
0.0
  0
ARC
  5
2A6
100
AcDbEntity
  8
0
100
AcDbCircle
 10
79.605832
 20
113.029595
 30
0.0
 40
0.6
100
AcDbArc
 50
0.0
 51
90.0
  0
LINE
  5
2A7
100
AcDbEntity
  8
0
100
AcDbLine
 10
79.572832
 20
109.979625
 30
0.0
 11
79.572832
 21
107.679585
 31
0.0
  0
LINE
  5
2A8
100
AcDbEntity
  8
0
100
AcDbLine
 10
79.772832
 20
110.062605
 30
0.0
 11
79.772832
 21
107.679585
 31
0.0
  0
LINE
  5
2A9
100
AcDbEntity
  8
0
100
AcDbLine
 10
79.572832
 20
107.479585
 30
0.0
 11
79.122832
 21
107.479585
 31
0.0
  0
LINE
  5
2AA
100
AcDbEntity
  8
0
100
AcDbLine
 10
79.122832
 20
107.679585
 30
0.0
 11
79.572832
 21
107.679585
 31
0.0
  0
LINE
  5
2AB
100
AcDbEntity
  8
0
100
AcDbLine
 10
79.122832
 20
107.479585
 30
0.0
 11
79.122832
 21
107.679585
 31
0.0
  0
ARC
  5
2AC
100
AcDbEntity
  8
0
100
AcDbCircle
 10
79.277
 20
107.079595
 30
0.0
 40
0.2
100
AcDbArc
 50
270.0
 51
320.003781
  0
LINE
  5
2AD
100
AcDbEntity
  8
0
100
AcDbLine
 10
79.277
 20
106.879595
 30
0.0
 11
79.211906
 21
106.879595
 31
0.0
  0
ARC
  5
2AE
100
AcDbEntity
  8
0
100
AcDbCircle
 10
79.211906
 20
107.079595
 30
0.0
 40
0.2
100
AcDbArc
 50
200.008105
 51
270.0
  0
ARC
  5
2AF
100
AcDbEntity
  8
0
100
AcDbCircle
 10
80.005832
 20
107.079575
 30
0.0
 40
0.2
100
AcDbArc
 50
0.0
 51
90.0
  0
LINE
  5
2B0
100
AcDbEntity
  8
0
100
AcDbLine
 10
80.005832
 20
107.279575
 30
0.0
 11
79.705848
 21
107.279575
 31
0.0
  0
LINE
  5
2B1
100
AcDbEntity
  8
0
100
AcDbLine
 10
79.705848
 20
107.279575
 30
0.0
 11
79.430217
 21
106.951048
 31
0.0
  0
ARC
  5
2B2
100
AcDbEntity
  8
0
100
AcDbCircle
 10
79.572832
 20
107.679585
 30
0.0
 40
0.2
100
AcDbArc
 50
270.0
 51
0.0
  0
ARC
  5
2B3
100
AcDbEntity
  8
0
100
AcDbCircle
 10
79.605832
 20
105.729595
 30
0.0
 40
0.6
100
AcDbArc
 50
270.0
 51
0.0
  0
LINE
  5
2B4
100
AcDbEntity
  8
0
100
AcDbLine
 10
79.06602
 20
111.689559
 30
0.0
 11
79.022826
 21
110.812611
 31
0.0
  0
LINE
  5
2B5
100
AcDbEntity
  8
0
100
AcDbLine
 10
79.492822
 20
111.450565
 30
0.0
 11
79.242507
 21
111.748914
 31
0.0
  0
LINE
  5
2B6
100
AcDbEntity
  8
0
100
AcDbLine
 10
79.467822
 20
111.169545
 30
0.0
 11
79.339812
 21
111.322545
 31
0.0
  0
LINE
  5
2B7
100
AcDbEntity
  8
0
100
AcDbLine
 10
79.339812
 20
111.322555
 30
0.0
 11
79.492822
 21
111.450545
 31
0.0
  0
ARC
  5
2B8
100
AcDbEntity
  8
0
100
AcDbCircle
 10
79.165899
 20
111.68464
 30
0.0
 40
0.1
100
AcDbArc
 50
39.996695
 51
177.180182
  0
ARC
  5
2B9
100
AcDbEntity
  8
0
100
AcDbCircle
 10
80.105832
 20
111.679575
 30
0.0
 40
0.1
100
AcDbArc
 50
270.0
 51
0.0
  0
ARC
  5
2BA
100
AcDbEntity
  8
0
100
AcDbCircle
 10
79.492591
 20
111.451034
 30
0.0
 40
0.2
100
AcDbArc
 50
309.915177
 51
39.999779
  0
LINE
  5
2BB
100
AcDbEntity
  8
0
100
AcDbLine
 10
80.105832
 20
111.579575
 30
0.0
 11
79.645832
 21
111.579575
 31
0.0
  0
LINE
  5
2BC
100
AcDbEntity
  8
0
100
AcDbLine
 10
79.645801
 20
111.579591
 30
0.0
 11
79.396191
 21
111.877067
 31
0.0
  0
LINE
  5
2BD
100
AcDbEntity
  8
0
100
AcDbLine
 10
79.467822
 20
111.169555
 30
0.0
 11
79.620922
 21
111.297635
 31
0.0
  0
LINE
  5
2BE
100
AcDbEntity
  8
0
100
AcDbLine
 10
79.022826
 20
110.812611
 30
0.0
 11
79.772832
 21
110.062605
 31
0.0
  0
LINE
  5
2BF
100
AcDbEntity
  8
0
100
AcDbLine
 10
88.255832
 20
119.879595
 30
0.0
 11
83.355832
 21
119.879595
 31
0.0
  0
LINE
  5
2C0
100
AcDbEntity
  8
0
100
AcDbLine
 10
101.938832
 20
110.062605
 30
0.0
 11
101.938832
 21
107.679585
 31
0.0
  0
LINE
  5
2C1
100
AcDbEntity
  8
0
100
AcDbLine
 10
101.705832
 20
107.279575
 30
0.0
 11
102.005817
 21
107.279575
 31
0.0
  0
ARC
  5
2C2
100
AcDbEntity
  8
0
100
AcDbCircle
 10
101.705832
 20
107.079575
 30
0.0
 40
0.2
100
AcDbArc
 50
90.0
 51
180.0
  0
LINE
  5
2C3
100
AcDbEntity
  8
0
100
AcDbLine
 10
101.605832
 20
111.579575
 30
0.0
 11
102.065832
 21
111.579575
 31
0.0
  0
ARC
  5
2C4
100
AcDbEntity
  8
0
100
AcDbCircle
 10
102.219073
 20
111.451034
 30
0.0
 40
0.2
100
AcDbArc
 50
140.000221
 51
230.084823
  0
ARC
  5
2C5
100
AcDbEntity
  8
0
100
AcDbCircle
 10
101.605832
 20
111.679575
 30
0.0
 40
0.1
100
AcDbArc
 50
180.0
 51
270.0
  0
LINE
  5
2C6
100
AcDbEntity
  8
CENTER
  6
CENTER
 62
     1
100
AcDbLine
 10
94.355832
 20
122.629595
 30
0.0
 11
82.355832
 21
122.629595
 31
0.0
  0
LINE
  5
2C7
100
AcDbEntity
  8
0
100
AcDbLine
 10
93.355832
 20
127.379595
 30
0.0
 11
88.255832
 21
127.379595
 31
0.0
  0
LINE
  5
2C8
100
AcDbEntity
  8
0
100
AcDbLine
 10
93.355832
 20
128.629595
 30
0.0
 11
83.355832
 21
128.629595
 31
0.0
  0
LINE
  5
2C9
100
AcDbEntity
  8
0
100
AcDbLine
 10
88.255832
 20
125.379595
 30
0.0
 11
83.355832
 21
125.379595
 31
0.0
  0
LINE
  5
2CA
100
AcDbEntity
  8
0
100
AcDbLine
 10
88.355832
 20
128.629595
 30
0.0
 11
88.355932
 21
128.629595
 31
0.0
  0
LINE
  5
2CB
100
AcDbEntity
  8
0
100
AcDbLine
 10
90.855832
 20
128.629595
 30
0.0
 11
90.855832
 21
128.629695
 31
0.0
  0
ARC
  5
2CC
100
AcDbEntity
  8
0
100
AcDbCircle
 10
109.905832
 20
113.029595
 30
0.0
 40
0.6
100
AcDbArc
 50
360.0
 51
90.0
  0
LINE
  5
2CD
100
AcDbEntity
  8
0
100
AcDbLine
 10
109.003242
 20
110.879575
 30
0.0
 11
107.855252
 21
110.879565
 31
0.0
  0
LINE
  5
2CE
100
AcDbEntity
  8
0
100
AcDbLine
 10
108.867735
 20
107.879595
 30
0.0
 11
107.855252
 21
107.879595
 31
0.0
  0
LINE
  5
2CF
100
AcDbEntity
  8
0
100
AcDbLine
 10
102.105832
 20
105.129595
 30
0.0
 11
109.905832
 21
105.129595
 31
0.0
  0
CIRCLE
  5
2D0
100
AcDbEntity
  8
0
100
AcDbCircle
 10
106.005832
 20
109.379595
 30
0.0
 40
2.38125
  0
LINE
  5
2D1
100
AcDbEntity
  8
0
100
AcDbLine
 10
102.138832
 20
109.979625
 30
0.0
 11
102.138832
 21
107.679585
 31
0.0
  0
ARC
  5
2D2
100
AcDbEntity
  8
0
100
AcDbCircle
 10
103.14393
 20
107.679595
 30
0.0
 40
0.2
100
AcDbArc
 50
90.0
 51
159.991895
  0
LINE
  5
2D3
100
AcDbEntity
  8
0
100
AcDbLine
 10
102.588832
 20
107.679585
 30
0.0
 11
102.138832
 21
107.679585
 31
0.0
  0
LINE
  5
2D4
100
AcDbEntity
  8
0
100
AcDbLine
 10
103.14393
 20
107.879595
 30
0.0
 11
104.156412
 21
107.879595
 31
0.0
  0
LINE
  5
2D5
100
AcDbEntity
  8
0
100
AcDbLine
 10
102.434665
 20
106.879595
 30
0.0
 11
102.499759
 21
106.879595
 31
0.0
  0
ARC
  5
2D6
100
AcDbEntity
  8
0
100
AcDbCircle
 10
102.499759
 20
107.079595
 30
0.0
 40
0.2
100
AcDbArc
 50
270.0
 51
339.991895
  0
LINE
  5
2D7
100
AcDbEntity
  8
0
100
AcDbLine
 10
102.138832
 20
107.479585
 30
0.0
 11
102.588832
 21
107.479585
 31
0.0
  0
ARC
  5
2D8
100
AcDbEntity
  8
0
100
AcDbCircle
 10
102.434665
 20
107.079595
 30
0.0
 40
0.2
100
AcDbArc
 50
219.996219
 51
270.0
  0
LINE
  5
2D9
100
AcDbEntity
  8
0
100
AcDbLine
 10
102.588832
 20
107.479585
 30
0.0
 11
102.588832
 21
107.679585
 31
0.0
  0
LINE
  5
2DA
100
AcDbEntity
  8
0
100
AcDbLine
 10
102.687687
 20
107.011165
 30
0.0
 11
102.956001
 21
107.748026
 31
0.0
  0
ARC
  5
2DB
100
AcDbEntity
  8
0
100
AcDbCircle
 10
103.008423
 20
110.979575
 30
0.0
 40
0.1
100
AcDbArc
 50
184.996761
 51
269.999501
  0
LINE
  5
2DC
100
AcDbEntity
  8
0
100
AcDbLine
 10
102.645645
 20
111.689559
 30
0.0
 11
102.688839
 21
110.812611
 31
0.0
  0
LINE
  5
2DD
100
AcDbEntity
  8
0
100
AcDbLine
 10
102.888832
 20
111.199585
 30
0.0
 11
102.888832
 21
110.729645
 31
0.0
  0
ARC
  5
2DE
100
AcDbEntity
  8
0
100
AcDbCircle
 10
102.545288
 20
111.684232
 30
0.0
 40
0.3
100
AcDbArc
 50
4.996761
 51
140.000221
  0
ARC
  5
2DF
100
AcDbEntity
  8
0
100
AcDbCircle
 10
102.545766
 20
111.68464
 30
0.0
 40
0.1
100
AcDbArc
 50
2.819818
 51
140.003305
  0
LINE
  5
2E0
100
AcDbEntity
  8
0
100
AcDbLine
 10
102.844148
 20
111.710361
 30
0.0
 11
102.908804
 21
110.970865
 31
0.0
  0
LINE
  5
2E1
100
AcDbEntity
  8
0
100
AcDbLine
 10
102.371852
 20
111.322555
 30
0.0
 11
102.218842
 21
111.450545
 31
0.0
  0
LINE
  5
2E2
100
AcDbEntity
  8
0
100
AcDbLine
 10
102.243842
 20
111.169545
 30
0.0
 11
102.371852
 21
111.322545
 31
0.0
  0
LINE
  5
2E3
100
AcDbEntity
  8
0
100
AcDbLine
 10
102.218842
 20
111.450565
 30
0.0
 11
102.469158
 21
111.748914
 31
0.0
  0
LINE
  5
2E4
100
AcDbEntity
  8
0
100
AcDbLine
 10
102.888832
 20
110.729645
 30
0.0
 11
102.138832
 21
109.979625
 31
0.0
  0
LINE
  5
2E5
100
AcDbEntity
  8
0
100
AcDbLine
 10
103.008423
 20
110.879575
 30
0.0
 11
104.156412
 21
110.879565
 31
0.0
  0
LINE
  5
2E6
100
AcDbEntity
  8
0
100
AcDbLine
 10
110.072832
 20
110.062605
 30
0.0
 11
110.072832
 21
107.679585
 31
0.0
  0
LINE
  5
2E7
100
AcDbEntity
  8
0
100
AcDbLine
 10
109.872832
 20
109.979625
 30
0.0
 11
109.872832
 21
107.679585
 31
0.0
  0
ARC
  5
2E8
100
AcDbEntity
  8
0
100
AcDbCircle
 10
108.867735
 20
107.679595
 30
0.0
 40
0.2
100
AcDbArc
 50
20.008105
 51
90.0
  0
LINE
  5
2E9
100
AcDbEntity
  8
0
100
AcDbLine
 10
109.422832
 20
107.679585
 30
0.0
 11
109.872832
 21
107.679585
 31
0.0
  0
LINE
  5
2EA
100
AcDbEntity
  8
0
100
AcDbLine
 10
109.577
 20
106.879595
 30
0.0
 11
109.511906
 21
106.879595
 31
0.0
  0
ARC
  5
2EB
100
AcDbEntity
  8
0
100
AcDbCircle
 10
109.577
 20
107.079595
 30
0.0
 40
0.2
100
AcDbArc
 50
270.0
 51
320.003781
  0
LINE
  5
2EC
100
AcDbEntity
  8
0
100
AcDbLine
 10
110.005848
 20
107.279575
 30
0.0
 11
109.730217
 21
106.951048
 31
0.0
  0
LINE
  5
2ED
100
AcDbEntity
  8
0
100
AcDbLine
 10
110.305832
 20
107.279575
 30
0.0
 11
110.005848
 21
107.279575
 31
0.0
  0
ARC
  5
2EE
100
AcDbEntity
  8
0
100
AcDbCircle
 10
109.905832
 20
105.729595
 30
0.0
 40
0.6
100
AcDbArc
 50
270.0
 51
360.0
  0
ARC
  5
2EF
100
AcDbEntity
  8
0
100
AcDbCircle
 10
110.305832
 20
107.079575
 30
0.0
 40
0.2
100
AcDbArc
 50
0.0
 51
90.0
  0
ARC
  5
2F0
100
AcDbEntity
  8
0
100
AcDbCircle
 10
109.511906
 20
107.079595
 30
0.0
 40
0.2
100
AcDbArc
 50
200.008105
 51
270.0
  0
LINE
  5
2F1
100
AcDbEntity
  8
0
100
AcDbLine
 10
109.872832
 20
107.479585
 30
0.0
 11
109.422832
 21
107.479585
 31
0.0
  0
LINE
  5
2F2
100
AcDbEntity
  8
0
100
AcDbLine
 10
109.323977
 20
107.011165
 30
0.0
 11
109.055664
 21
107.748026
 31
0.0
  0
LINE
  5
2F3
100
AcDbEntity
  8
0
100
AcDbLine
 10
109.422832
 20
107.479585
 30
0.0
 11
109.422832
 21
107.679585
 31
0.0
  0
ARC
  5
2F4
100
AcDbEntity
  8
0
100
AcDbCircle
 10
109.872832
 20
107.679585
 30
0.0
 40
0.2
100
AcDbArc
 50
270.0
 51
0.0
  0
LINE
  5
2F5
100
AcDbEntity
  8
0
100
AcDbLine
 10
111.805832
 20
111.979595
 30
0.0
 11
110.505832
 21
111.979595
 31
0.0
  0
LINE
  5
2F6
100
AcDbEntity
  8
0
100
AcDbLine
 10
109.792822
 20
111.450565
 30
0.0
 11
109.542507
 21
111.748914
 31
0.0
  0
ARC
  5
2F7
100
AcDbEntity
  8
0
100
AcDbCircle
 10
109.792591
 20
111.451034
 30
0.0
 40
0.2
100
AcDbArc
 50
309.915177
 51
39.999779
  0
LINE
  5
2F8
100
AcDbEntity
  8
0
100
AcDbLine
 10
109.767822
 20
111.169555
 30
0.0
 11
109.920922
 21
111.297635
 31
0.0
  0
LINE
  5
2F9
100
AcDbEntity
  8
0
100
AcDbLine
 10
109.945801
 20
111.579591
 30
0.0
 11
109.696191
 21
111.877067
 31
0.0
  0
LINE
  5
2FA
100
AcDbEntity
  8
0
100
AcDbLine
 10
109.767822
 20
111.169545
 30
0.0
 11
109.639812
 21
111.322545
 31
0.0
  0
LINE
  5
2FB
100
AcDbEntity
  8
0
100
AcDbLine
 10
109.639812
 20
111.322555
 30
0.0
 11
109.792822
 21
111.450545
 31
0.0
  0
LINE
  5
2FC
100
AcDbEntity
  8
0
100
AcDbLine
 10
110.405832
 20
111.579575
 30
0.0
 11
109.945832
 21
111.579575
 31
0.0
  0
ARC
  5
2FD
100
AcDbEntity
  8
0
100
AcDbCircle
 10
110.405832
 20
111.679575
 30
0.0
 40
0.1
100
AcDbArc
 50
270.0
 51
0.0
  0
LINE
  5
2FE
100
AcDbEntity
  8
0
100
AcDbLine
 10
109.122832
 20
111.199585
 30
0.0
 11
109.122832
 21
110.729645
 31
0.0
  0
LINE
  5
2FF
100
AcDbEntity
  8
0
100
AcDbLine
 10
109.36602
 20
111.689559
 30
0.0
 11
109.322826
 21
110.812611
 31
0.0
  0
ARC
  5
300
100
AcDbEntity
  8
0
100
AcDbCircle
 10
109.003241
 20
110.979575
 30
0.0
 40
0.1
100
AcDbArc
 50
270.000499
 51
355.003239
  0
LINE
  5
301
100
AcDbEntity
  8
0
100
AcDbLine
 10
109.167517
 20
111.710361
 30
0.0
 11
109.102861
 21
110.970865
 31
0.0
  0
ARC
  5
302
100
AcDbEntity
  8
0
100
AcDbCircle
 10
109.465899
 20
111.68464
 30
0.0
 40
0.1
100
AcDbArc
 50
39.996695
 51
177.180182
  0
ARC
  5
303
100
AcDbEntity
  8
0
100
AcDbCircle
 10
109.466377
 20
111.684232
 30
0.0
 40
0.3
100
AcDbArc
 50
39.999779
 51
175.003239
  0
LINE
  5
304
100
AcDbEntity
  8
0
100
AcDbLine
 10
109.122832
 20
110.729645
 30
0.0
 11
109.872832
 21
109.979625
 31
0.0
  0
LINE
  5
305
100
AcDbEntity
  8
0
100
AcDbLine
 10
109.322826
 20
110.812611
 30
0.0
 11
110.072832
 21
110.062605
 31
0.0
  0
LINE
  5
306
100
AcDbEntity
  8
0
100
AcDbLine
 10
110.505832
 20
113.629595
 30
0.0
 11
106.005832
 21
113.629595
 31
0.0
  0
LINE
  5
307
100
AcDbEntity
  8
0
100
AcDbLine
 10
106.005832
 20
113.629595
 30
0.0
 11
102.105832
 21
113.629595
 31
0.0
  0
LINE
  5
308
100
AcDbEntity
  8
0
100
AcDbLine
 10
111.805832
 20
114.479595
 30
0.0
 11
110.505832
 21
114.479595
 31
0.0
  0
LINE
  5
309
100
AcDbEntity
  8
0
100
AcDbLine
 10
113.355832
 20
113.629595
 30
0.0
 11
111.805832
 21
113.629595
 31
0.0
  0
CIRCLE
  5
30A
100
AcDbEntity
  8
CENTER
  6
CENTER
 62
     1
100
AcDbCircle
 10
200.337726
 20
97.629595
 30
0.0
 40
25.0
  0
LINE
  5
30B
100
AcDbEntity
  8
CENTER
  6
CENTER
 62
     1
100
AcDbLine
 10
200.337726
 20
132.902523
 30
0.0
 11
200.337726
 21
62.356667
 31
0.0
  0
CIRCLE
  5
30C
100
AcDbEntity
  8
0
100
AcDbCircle
 10
200.337726
 20
97.629595
 30
0.0
 40
19.0
  0
CIRCLE
  5
30D
100
AcDbEntity
  8
0
100
AcDbCircle
 10
200.337726
 20
97.629595
 30
0.0
 40
7.5
  0
CIRCLE
  5
30E
100
AcDbEntity
  8
0
100
AcDbCircle
 10
200.337726
 20
97.629595
 30
0.0
 40
31.0
  0
LINE
  5
30F
100
AcDbEntity
  8
CENTER
  6
CENTER
 62
     1
100
AcDbLine
 10
165.064797
 20
97.629595
 30
0.0
 11
235.610654
 21
97.629595
 31
0.0
  0
CIRCLE
  5
310
100
AcDbEntity
  8
0
100
AcDbCircle
 10
175.337726
 20
97.629595
 30
0.0
 40
4.75
  0
CIRCLE
  5
311
100
AcDbEntity
  8
0
100
AcDbCircle
 10
175.337726
 20
97.629595
 30
0.0
 40
2.6
  0
CIRCLE
  5
312
100
AcDbEntity
  8
0
100
AcDbCircle
 10
200.337726
 20
72.629595
 30
0.0
 40
2.6
  0
CIRCLE
  5
313
100
AcDbEntity
  8
0
100
AcDbCircle
 10
200.337726
 20
72.629595
 30
0.0
 40
4.75
  0
CIRCLE
  5
314
100
AcDbEntity
  8
0
100
AcDbCircle
 10
225.337726
 20
97.629595
 30
0.0
 40
4.75
  0
CIRCLE
  5
315
100
AcDbEntity
  8
0
100
AcDbCircle
 10
225.337726
 20
97.629595
 30
0.0
 40
2.6
  0
CIRCLE
  5
316
100
AcDbEntity
  8
0
100
AcDbCircle
 10
200.337726
 20
122.629595
 30
0.0
 40
2.6
  0
CIRCLE
  5
317
100
AcDbEntity
  8
0
100
AcDbCircle
 10
200.337726
 20
122.629595
 30
0.0
 40
4.75
  0
ENDSEC
  0
SECTION
  2
OBJECTS
  0
DICTIONARY
  5
191
100
AcDbDictionary
  3
ACAD_GROUP
350
192
  3
ACAD_LAYOUT
350
19E
  3
ACAD_MLINESTYLE
350
19B
  3
ACAD_PLOTSETTINGS
350
19D
  3
ACAD_PLOTSTYLENAME
350
193
  3
ACDBHEADERROUNDTRIPXREC
350
324
  3
AcDbVariableDictionary
350
34D
  0
DICTIONARY
  5
322
100
AcDbDictionary
280
     1
  3
ACAD_XREC_ROUNDTRIP
360
323
  0
DICTIONARY
  5
31E
100
AcDbDictionary
280
     1
  3
ACAD_XREC_ROUNDTRIP
360
31F
  0
DICTIONARY
  5
320
100
AcDbDictionary
280
     1
  3
ACAD_XREC_ROUNDTRIP
360
321
  0
DICTIONARY
  5
34B
100
AcDbDictionary
280
     1
  3
ACAD_XREC_ROUNDTRIP
360
34C
  0
DICTIONARY
  5
31A
100
AcDbDictionary
280
     1
  3
ACAD_LAYOUTSELFREF
360
34A
  3
ACAD_XREC_ROUNDTRIP
360
31B
  0
DICTIONARY
  5
31C
100
AcDbDictionary
280
     1
  3
ACAD_LAYOUTSELFREF
360
349
  3
ACAD_XREC_ROUNDTRIP
360
31D
  0
DICTIONARY
  5
192
102
{ACAD_REACTORS
330
191
102
}
100
AcDbDictionary
  0
DICTIONARY
  5
19E
102
{ACAD_XDICTIONARY
360
347
102
}
102
{ACAD_REACTORS
330
191
102
}
100
AcDbDictionary
  3
MODEL
350
1A6
  3
ﾚｲｱｳﾄ1
350
1A2
  0
DICTIONARY
  5
19B
102
{ACAD_XDICTIONARY
360
345
102
}
102
{ACAD_REACTORS
330
191
102
}
100
AcDbDictionary
  3
STANDARD
350
19C
  0
DICTIONARY
  5
19D
102
{ACAD_REACTORS
330
191
102
}
100
AcDbDictionary
  0
ACAD_PROXY_OBJECT
  5
193
102
{ACAD_REACTORS
330
191
102
}
100
AcDbProxyObject
 90
      499
 91
      500
 93
       86
310
405010041939BDC9B585B0
350
194
340
194
 94
        0
  0
DICTIONARY
  5
324
102
{ACAD_REACTORS
330
191
102
}
100
AcDbDictionary
  3
CEPSNTYPE
350
32E
  3
DIMSTYLEDATA
350
332
  3
FINGERPRINTGUID
350
32F
  3
HYPERLINKBASE
350
327
  3
INSUNITS
350
32D
  3
LAYOUTDICT
350
329
  3
LWETCUNION
350
32C
  3
PLOTSETDICT
350
32A
  3
PLOTSTYLNAMDICT
350
32B
  3
PSVPSCALE
350
331
  3
PUCSBASE
350
335
  3
PUCSORGBACK
350
33B
  3
PUCSORGBOTTOM
350
337
  3
PUCSORGFRONT
350
33A
  3
PUCSORGLEFT
350
338
  3
PUCSORGRIGHT
350
339
  3
PUCSORGTOP
350
336
  3
PUCSORTHOREF
350
333
  3
PUCSORTHOVIEW
350
334
  3
STYLESHEET
350
328
  3
TSTACKALIGN
350
325
  3
TSTACKSIZE
350
326
  3
UCSBASE
350
33E
  3
UCSORGBACK
350
344
  3
UCSORGBOTTOM
350
340
  3
UCSORGFRONT
350
343
  3
UCSORGLEFT
350
341
  3
UCSORGRIGHT
350
342
  3
UCSORGTOP
350
33F
  3
UCSORTHOREF
350
33C
  3
UCSORTHOVIEW
350
33D
  3
VERSIONGUID
350
330
  0
DICTIONARY
  5
34D
102
{ACAD_REACTORS
330
191
102
}
100
AcDbDictionary
  3
DIMASSOC
350
34E
  0
XRECORD
  5
323
102
{ACAD_REACTORS
330
322
102
}
100
AcDbXrecord
102
EXTNAMES
  1
*ACTIVE
  2
*Active
102
UCS
 74
     0
 71
     0
 10
0.0
 20
0.0
 30
0.0
 10
1.0
 20
0.0
 30
0.0
 10
0.0
 20
1.0
 30
0.0
146
0.0
 79
     0
102
VIEW
281
     0
  0
XRECORD
  5
31F
102
{ACAD_REACTORS
330
31E
102
}
100
AcDbXrecord
102
EXTNAMES
  1
BYBLOCK
  2
ByBlock
  0
XRECORD
  5
321
102
{ACAD_REACTORS
330
320
102
}
100
AcDbXrecord
102
EXTNAMES
  1
BYLAYER
  2
ByLayer
  0
XRECORD
  5
34C
102
{ACAD_REACTORS
330
34B
102
}
100
AcDbXrecord
102
ACADR14ROUNDTRIP
1000
DSTYLE
1002
{
1070
   279
 70
     2
1002
}
  0
XRECORD
  5
34A
102
{ACAD_REACTORS
330
31A
102
}
100
AcDbXrecord
340
1A3
  0
XRECORD
  5
31B
102
{ACAD_REACTORS
330
31A
102
}
100
AcDbXrecord
102
EXTNAMES
  1
*MODEL_SPACE
  2
*Model_Space
  0
XRECORD
  5
349
102
{ACAD_REACTORS
330
31C
102
}
100
AcDbXrecord
340
19F
  0
XRECORD
  5
31D
102
{ACAD_REACTORS
330
31C
102
}
100
AcDbXrecord
102
EXTNAMES
  1
*PAPER_SPACE
  2
*Paper_Space
  0
DICTIONARY
  5
347
100
AcDbDictionary
280
     1
  3
ACAD_XREC_ROUNDTRIP
360
348
  0
ACAD_PROXY_OBJECT
  5
1A6
102
{ACAD_REACTORS
330
19E
102
}
100
AcDbProxyObject
 90
      499
 91
      502
 93
      836
310
932433A5C50524F4752414D2046494C45535C4D4454365C706C6F74746572735C526F6C616E64204458592D313235302E7063332C01AAAAAAAAA5A69054D6F64656C901A800000000000000000000000000000000000000000000A1000000000000008902A6A6AAAA0
330
1A3
330
0
340
0
340
0
 94
        0
  0
ACAD_PROXY_OBJECT
  5
1A2
102
{ACAD_REACTORS
330
19E
102
}
100
AcDbProxyObject
 90
      499
 91
      502
 93
     1244
310
932433A5C50524F4752414D2046494C45535C4D4454365C706C6F74746572735C526F6C616E64204458592D313235302E7063332C00AAAAAA416AA59106906DAB2B1B3C431406A800000000000000000000000000000000000000000101E900000000000241C902A6A6A10232D5E076BC5510408CB5781DAF154410232D5E0
310
76BC5510408CB5781DAF15C410232D5E076BC5710408CB5781DAF15C48
330
19F
330
0
340
0
340
0
 94
        0
  0
DICTIONARY
  5
345
100
AcDbDictionary
280
     1
  3
ACAD_XREC_ROUNDTRIP
360
346
  0
MLINESTYLE
  5
19C
102
{ACAD_REACTORS
330
19B
102
}
100
AcDbMlineStyle
  2
STANDARD
 70
     0
  3

 62
   256
 51
90.0
 52
90.0
 71
     2
 49
0.5
 62
   256
  6
BYLAYER
 49
-0.5
 62
   256
  6
BYLAYER
  0
ACAD_PROXY_OBJECT
  5
194
102
{ACAD_REACTORS
330
193
102
}
100
AcDbProxyObject
 90
      499
 91
      501
 93
        0
 94
        0
  0
XRECORD
  5
32E
102
{ACAD_REACTORS
330
324
102
}
100
AcDbXrecord
 90
        0
  0
XRECORD
  5
332
102
{ACAD_REACTORS
330
324
102
}
100
AcDbXrecord
1000
DSTYLE
1002
{
1070
   341
340
1B3
1070
   342
340
1B3
1002
}
  0
XRECORD
  5
32F
102
{ACAD_REACTORS
330
324
102
}
100
AcDbXrecord
  1
{CDD2AF77-866A-4190-A5D6-789EE836F8F6}
  0
XRECORD
  5
327
102
{ACAD_REACTORS
330
324
102
}
100
AcDbXrecord
  1

  0
XRECORD
  5
32D
102
{ACAD_REACTORS
330
324
102
}
100
AcDbXrecord
 90
        0
  0
XRECORD
  5
329
102
{ACAD_REACTORS
330
324
102
}
100
AcDbXrecord
340
19E
  0
XRECORD
  5
32C
102
{ACAD_REACTORS
330
324
102
}
100
AcDbXrecord
 90
    10781
  0
XRECORD
  5
32A
102
{ACAD_REACTORS
330
324
102
}
100
AcDbXrecord
340
19D
  0
XRECORD
  5
32B
102
{ACAD_REACTORS
330
324
102
}
100
AcDbXrecord
340
193
  0
XRECORD
  5
331
102
{ACAD_REACTORS
330
324
102
}
100
AcDbXrecord
 40
0.0
  0
XRECORD
  5
335
102
{ACAD_REACTORS
330
324
102
}
100
AcDbXrecord
340
0
  0
XRECORD
  5
33B
102
{ACAD_REACTORS
330
324
102
}
100
AcDbXrecord
 10
0.0
 20
0.0
 30
0.0
  0
XRECORD
  5
337
102
{ACAD_REACTORS
330
324
102
}
100
AcDbXrecord
 10
0.0
 20
0.0
 30
0.0
  0
XRECORD
  5
33A
102
{ACAD_REACTORS
330
324
102
}
100
AcDbXrecord
 10
0.0
 20
0.0
 30
0.0
  0
XRECORD
  5
338
102
{ACAD_REACTORS
330
324
102
}
100
AcDbXrecord
 10
0.0
 20
0.0
 30
0.0
  0
XRECORD
  5
339
102
{ACAD_REACTORS
330
324
102
}
100
AcDbXrecord
 10
0.0
 20
0.0
 30
0.0
  0
XRECORD
  5
336
102
{ACAD_REACTORS
330
324
102
}
100
AcDbXrecord
 10
0.0
 20
0.0
 30
0.0
  0
XRECORD
  5
333
102
{ACAD_REACTORS
330
324
102
}
100
AcDbXrecord
340
0
  0
XRECORD
  5
334
102
{ACAD_REACTORS
330
324
102
}
100
AcDbXrecord
 70
     0
  0
XRECORD
  5
328
102
{ACAD_REACTORS
330
324
102
}
100
AcDbXrecord
  1

  0
XRECORD
  5
325
102
{ACAD_REACTORS
330
324
102
}
100
AcDbXrecord
 90
        1
  0
XRECORD
  5
326
102
{ACAD_REACTORS
330
324
102
}
100
AcDbXrecord
 90
       70
  0
XRECORD
  5
33E
102
{ACAD_REACTORS
330
324
102
}
100
AcDbXrecord
340
0
  0
XRECORD
  5
344
102
{ACAD_REACTORS
330
324
102
}
100
AcDbXrecord
 10
0.0
 20
0.0
 30
0.0
  0
XRECORD
  5
340
102
{ACAD_REACTORS
330
324
102
}
100
AcDbXrecord
 10
0.0
 20
0.0
 30
0.0
  0
XRECORD
  5
343
102
{ACAD_REACTORS
330
324
102
}
100
AcDbXrecord
 10
0.0
 20
0.0
 30
0.0
  0
XRECORD
  5
341
102
{ACAD_REACTORS
330
324
102
}
100
AcDbXrecord
 10
0.0
 20
0.0
 30
0.0
  0
XRECORD
  5
342
102
{ACAD_REACTORS
330
324
102
}
100
AcDbXrecord
 10
0.0
 20
0.0
 30
0.0
  0
XRECORD
  5
33F
102
{ACAD_REACTORS
330
324
102
}
100
AcDbXrecord
 10
0.0
 20
0.0
 30
0.0
  0
XRECORD
  5
33C
102
{ACAD_REACTORS
330
324
102
}
100
AcDbXrecord
340
0
  0
XRECORD
  5
33D
102
{ACAD_REACTORS
330
324
102
}
100
AcDbXrecord
 70
     0
  0
XRECORD
  5
330
102
{ACAD_REACTORS
330
324
102
}
100
AcDbXrecord
  1
{70B750C3-9D52-4D39-9D8A-2ED2175995AF}
  0
DICTIONARYVAR
  5
34E
102
{ACAD_REACTORS
330
34D
102
}
100
DictionaryVariables
280
     0
  1
1
  0
XRECORD
  5
348
102
{ACAD_REACTORS
330
347
102
}
100
AcDbXrecord
102
EXTNAMES
  1
MODEL
  2
Model
  0
XRECORD
  5
346
102
{ACAD_REACTORS
330
345
102
}
100
AcDbXrecord
102
EXTNAMES
  1
STANDARD
  2
Standard
  0
ENDSEC
  0
EOF
