  0
SECTION
  2
HEADER
  9
$ACADVER
  1
AC1014
  9
$ACADMAINTVER
 70
     0
  9
$DWGCODEPAGE
  3
ANSI_932
  9
$INSBASE
 10
0.0
 20
0.0
 30
0.0
  9
$EXTMIN
 10
78.584079
 20
68.440476
 30
0.0
  9
$EXTMAX
 10
230.096876
 20
132.630849
 30
0.0
  9
$LIMMIN
 10
0.0
 20
0.0
  9
$LIMMAX
 10
297.0
 20
210.0
  9
$ORTHOMODE
 70
     0
  9
$REGENMODE
 70
     1
  9
$FILLMODE
 70
     1
  9
$QTEXTMODE
 70
     0
  9
$MIRRTEXT
 70
     1
  9
$DRAGMODE
 70
     2
  9
$LTSCALE
 40
0.25
  9
$OSMODE
 70
    37
  9
$ATTMODE
 70
     1
  9
$TEXTSIZE
 40
4.0
  9
$TRACEWID
 40
1.0
  9
$TEXTSTYLE
  7
STANDARD
  9
$CLAYER
  8
0
  9
$CELTYPE
  6
BYLAYER
  9
$CECOLOR
 62
   256
  9
$CELTSCALE
 40
1.0
  9
$DELOBJ
 70
     1
  9
$DISPSILH
 70
     0
  9
$DIMSCALE
 40
1.0
  9
$DIMASZ
 40
3.0
  9
$DIMEXO
 40
1.0
  9
$DIMDLI
 40
0.0
  9
$DIMRND
 40
0.0
  9
$DIMDLE
 40
0.0
  9
$DIMEXE
 40
1.0
  9
$DIMTP
 40
0.1
  9
$DIMTM
 40
0.0
  9
$DIMTXT
 40
3.2
  9
$DIMCEN
 40
0.0
  9
$DIMTSZ
 40
0.0
  9
$DIMTOL
 70
     0
  9
$DIMLIM
 70
     0
  9
$DIMTIH
 70
     0
  9
$DIMTOH
 70
     0
  9
$DIMSE1
 70
     0
  9
$DIMSE2
 70
     0
  9
$DIMTAD
 70
     0
  9
$DIMZIN
 70
     8
  9
$DIMBLK
  1

  9
$DIMASO
 70
     1
  9
$DIMSHO
 70
     1
  9
$DIMPOST
  1

  9
$DIMAPOST
  1

  9
$DIMALT
 70
     0
  9
$DIMALTD
 70
     2
  9
$DIMALTF
 40
0.04
  9
$DIMLFAC
 40
1.0
  9
$DIMTOFL
 70
     1
  9
$DIMTVP
 40
1.0
  9
$DIMTIX
 70
     1
  9
$DIMSOXD
 70
     0
  9
$DIMSAH
 70
     1
  9
$DIMBLK1
  1
DOT
  9
$DIMBLK2
  1
ARROW
  9
$DIMSTYLE
  2
DA1
  9
$DIMCLRD
 70
     0
  9
$DIMCLRE
 70
     0
  9
$DIMCLRT
 70
     0
  9
$DIMTFAC
 40
0.6
  9
$DIMGAP
 40
0.0
  9
$DIMJUST
 70
     0
  9
$DIMSD1
 70
     0
  9
$DIMSD2
 70
     0
  9
$DIMTOLJ
 70
     1
  9
$DIMTZIN
 70
     0
  9
$DIMALTZ
 70
     0
  9
$DIMALTTZ
 70
     0
  9
$DIMFIT
 70
     3
  9
$DIMUPT
 70
     0
  9
$DIMUNIT
 70
     2
  9
$DIMDEC
 70
     4
  9
$DIMTDEC
 70
     4
  9
$DIMALTU
 70
     2
  9
$DIMALTTD
 70
     2
  9
$DIMTXSTY
  7
STANDARD
  9
$DIMAUNIT
 70
     0
  9
$LUNITS
 70
     2
  9
$LUPREC
 70
     2
  9
$SKETCHINC
 40
1.0
  9
$FILLETRAD
 40
10.0
  9
$AUNITS
 70
     0
  9
$AUPREC
 70
     0
  9
$MENU
  1
acad
  9
$ELEVATION
 40
0.0
  9
$PELEVATION
 40
0.0
  9
$THICKNESS
 40
0.0
  9
$LIMCHECK
 70
     0
  9
$BLIPMODE
 70
     0
  9
$CHAMFERA
 40
0.0
  9
$CHAMFERB
 40
0.0
  9
$CHAMFERC
 40
0.0
  9
$CHAMFERD
 40
0.0
  9
$SKPOLY
 70
     0
  9
$TDCREATE
 40
2451466.513757986
  9
$TDUPDATE
 40
2452821.781602430
  9
$TDINDWG
 40
0.0007380787
  9
$TDUSRTIMER
 40
0.0007380787
  9
$USRTIMER
 70
     1
  9
$ANGBASE
 50
0.0
  9
$ANGDIR
 70
     0
  9
$PDMODE
 70
     1
  9
$PDSIZE
 40
0.0
  9
$PLINEWID
 40
0.0
  9
$COORDS
 70
     1
  9
$SPLFRAME
 70
     0
  9
$SPLINETYPE
 70
     6
  9
$SPLINESEGS
 70
     8
  9
$ATTDIA
 70
     0
  9
$ATTREQ
 70
     1
  9
$HANDLING
 70
     1
  9
$HANDSEED
  5
366
  9
$SURFTAB1
 70
     6
  9
$SURFTAB2
 70
     6
  9
$SURFTYPE
 70
     6
  9
$SURFU
 70
     6
  9
$SURFV
 70
     6
  9
$UCSNAME
  2

  9
$UCSORG
 10
0.0
 20
0.0
 30
0.0
  9
$UCSXDIR
 10
1.0
 20
0.0
 30
0.0
  9
$UCSYDIR
 10
0.0
 20
1.0
 30
0.0
  9
$PUCSNAME
  2

  9
$PUCSORG
 10
0.0
 20
0.0
 30
0.0
  9
$PUCSXDIR
 10
1.0
 20
0.0
 30
0.0
  9
$PUCSYDIR
 10
0.0
 20
1.0
 30
0.0
  9
$USERI1
 70
     0
  9
$USERI2
 70
     0
  9
$USERI3
 70
     0
  9
$USERI4
 70
     0
  9
$USERI5
 70
     0
  9
$USERR1
 40
0.0
  9
$USERR2
 40
0.0
  9
$USERR3
 40
0.0
  9
$USERR4
 40
0.0
  9
$USERR5
 40
0.0
  9
$WORLDVIEW
 70
     1
  9
$SHADEDGE
 70
     3
  9
$SHADEDIF
 70
    70
  9
$TILEMODE
 70
     1
  9
$MAXACTVP
 70
    16
  9
$PINSBASE
 10
0.0
 20
0.0
 30
0.0
  9
$PLIMCHECK
 70
     0
  9
$PEXTMIN
 10
1.000000E+20
 20
1.000000E+20
 30
1.000000E+20
  9
$PEXTMAX
 10
-1.000000E+20
 20
-1.000000E+20
 30
-1.000000E+20
  9
$PLIMMIN
 10
0.0
 20
0.0
  9
$PLIMMAX
 10
420.0
 20
297.0
  9
$UNITMODE
 70
     0
  9
$VISRETAIN
 70
     0
  9
$PLINEGEN
 70
     0
  9
$PSLTSCALE
 70
     0
  9
$TREEDEPTH
 70
  3020
  9
$PICKSTYLE
 70
     1
  9
$CMLSTYLE
  2
STANDARD
  9
$CMLJUST
 70
     0
  9
$CMLSCALE
 40
1.0
  9
$PROXYGRAPHICS
 70
     1
  9
$MEASUREMENT
 70
     0
  0
ENDSEC
  0
SECTION
  2
CLASSES
  0
CLASS
  1
ACDBDICTIONARYWDFLT
  2
AcDbDictionaryWithDefault
  3
AutoCAD 2000
 90
        0
280
     0
281
     0
  0
CLASS
  1
ACDBPLACEHOLDER
  2
AcDbPlaceHolder
  3
AutoCAD 2000
 90
        0
280
     0
281
     0
  0
CLASS
  1
LAYOUT
  2
AcDbLayout
  3
AutoCAD 2000
 90
        0
280
     0
281
     0
  0
CLASS
  1
DICTIONARYVAR
  2
AcDbDictionaryVar
  3
"AutoCAD"
 90
        0
280
     0
281
     0
  0
CLASS
  1
LONG_TRANSACTION
  2
AcDbLongTransaction
  3
AutoCAD 2000
 90
        0
280
     0
281
     0
  0
CLASS
  1
LWPOLYLINE
  2
AcDbPolyline
  3
"AutoCAD"
 90
        0
280
     0
281
     1
  0
CLASS
  1
HATCH
  2
AcDbHatch
  3
"ACAD_SEDONA"
 90
        0
280
     0
281
     1
  0
CLASS
  1
XRECORD
  2
AcDbXrecord
  3
"<Built In>"
 90
        0
280
     0
281
     0
  0
ENDSEC
  0
SECTION
  2
TABLES
  0
TABLE
  2
VPORT
  5
197
100
AcDbSymbolTable
 70
     1
  0
VPORT
  5
32D
102
{ACAD_XDICTIONARY
360
336
102
}
100
AcDbSymbolTableRecord
100
AcDbViewportTableRecord
  2
*ACTIVE
 70
     0
 10
0.0
 20
0.0
 11
1.0
 21
1.0
 12
148.500001
 22
153.221306
 13
0.0
 23
0.0
 14
10.0
 24
10.0
 15
0.0
 25
0.0
 16
0.0
 26
0.0
 36
1.0
 17
0.0
 27
0.0
 37
0.0
 40
337.317527
 41
1.570997
 42
50.0
 43
0.0
 44
0.0
 50
0.0
 51
0.0
 71
     0
 72
   100
 73
     1
 74
     0
 75
     0
 76
     0
 77
     0
 78
     1
  0
ENDTAB
  0
TABLE
  2
LTYPE
  5
194
100
AcDbSymbolTable
 70
     2
  0
LTYPE
  5
1A2
102
{ACAD_XDICTIONARY
360
332
102
}
100
AcDbSymbolTableRecord
100
AcDbLinetypeTableRecord
  2
BYBLOCK
 70
     0
  3

 72
    65
 73
     0
 40
0.0
  0
LTYPE
  5
1A3
102
{ACAD_XDICTIONARY
360
334
102
}
100
AcDbSymbolTableRecord
100
AcDbLinetypeTableRecord
  2
BYLAYER
 70
     0
  3

 72
    65
 73
     0
 40
0.0
  0
LTYPE
  5
1A4
100
AcDbSymbolTableRecord
100
AcDbLinetypeTableRecord
  2
CONTINUOUS
 70
     0
  3
Solid line
 72
    65
 73
     0
 40
0.0
  0
LTYPE
  5
1B2
100
AcDbSymbolTableRecord
100
AcDbLinetypeTableRecord
  2
CENTER
 70
     0
  3
____ _ ____ _ ____ _ ____ _ ____ _ ____ _ ____ 
 72
    65
 73
     4
 40
50.8
 49
31.75
 74
     0
 49
-6.35
 74
     0
 49
6.35
 74
     0
 49
-6.35
 74
     0
  0
ENDTAB
  0
TABLE
  2
LAYER
  5
191
100
AcDbSymbolTable
 70
     3
  0
LAYER
  5
19F
100
AcDbSymbolTableRecord
100
AcDbLayerTableRecord
  2
0
 70
     0
 62
     7
  6
CONTINUOUS
  0
LAYER
  5
1B3
100
AcDbSymbolTableRecord
100
AcDbLayerTableRecord
  2
DIMENSION
 70
     0
 62
    -4
  6
CONTINUOUS
  0
LAYER
  5
1B4
100
AcDbSymbolTableRecord
100
AcDbLayerTableRecord
  2
CENTER
 70
     0
 62
     1
  6
CENTER
  0
ENDTAB
  0
TABLE
  2
STYLE
  5
192
100
AcDbSymbolTable
 70
     1
  0
STYLE
  5
1A0
100
AcDbSymbolTableRecord
100
AcDbTextStyleTableRecord
  2
STANDARD
 70
     0
 40
0.0
 41
1.0
 50
0.0
 71
     0
 42
4.0
  3
txt
  4

  0
ENDTAB
  0
TABLE
  2
VIEW
  5
195
100
AcDbSymbolTable
 70
     0
  0
ENDTAB
  0
TABLE
  2
UCS
  5
196
100
AcDbSymbolTable
 70
     0
  0
ENDTAB
  0
TABLE
  2
APPID
  5
198
100
AcDbSymbolTable
 70
     1
  0
APPID
  5
1A1
100
AcDbSymbolTableRecord
100
AcDbRegAppTableRecord
  2
ACAD
 70
     0
  0
ENDTAB
  0
TABLE
  2
DIMSTYLE
  5
199
100
AcDbSymbolTable
 70
     1
  0
DIMSTYLE
105
1B5
102
{ACAD_XDICTIONARY
360
35F
102
}
100
AcDbSymbolTableRecord
100
AcDbDimStyleTableRecord
  2
DA1
 70
     0
  3

  4

  5

  6

  7

 40
1.0
 41
3.0
 42
1.0
 43
0.0
 44
1.0
 45
0.0
 46
0.0
 47
0.1
 48
0.0
140
3.2
141
0.0
142
0.0
143
0.04
144
1.0
145
1.0
146
0.6
147
0.0
 71
     1
 72
     0
 73
     0
 74
     0
 75
     0
 76
     0
 77
     0
 78
     8
170
     0
171
     2
172
     1
173
     1
174
     1
175
     0
176
     0
177
     0
178
     0
270
     2
271
     2
272
     2
273
     2
274
     2
340
1A0
275
     0
280
     0
281
     0
282
     0
283
     1
284
     8
285
     8
286
     8
287
     5
288
     0
  0
ENDTAB
  0
TABLE
  2
BLOCK_RECORD
  5
190
100
AcDbSymbolTable
 70
     4
  0
BLOCK_RECORD
  5
1AD
102
{ACAD_XDICTIONARY
360
32E
102
}
100
AcDbSymbolTableRecord
100
AcDbBlockTableRecord
  2
*MODEL_SPACE
  0
BLOCK_RECORD
  5
1A9
102
{ACAD_XDICTIONARY
360
330
102
}
100
AcDbSymbolTableRecord
100
AcDbBlockTableRecord
  2
*PAPER_SPACE
  0
BLOCK_RECORD
  5
1B7
100
AcDbSymbolTableRecord
100
AcDbBlockTableRecord
  2
$MODEL_SPACE
  0
BLOCK_RECORD
  5
1BA
100
AcDbSymbolTableRecord
100
AcDbBlockTableRecord
  2
$PAPER_SPACE
  0
BLOCK_RECORD
  5
1BD
100
AcDbSymbolTableRecord
100
AcDbBlockTableRecord
  2
ARROW
  0
BLOCK_RECORD
  5
1C3
100
AcDbSymbolTableRecord
100
AcDbBlockTableRecord
  2
DOT
  0
ENDTAB
  0
ENDSEC
  0
SECTION
  2
BLOCKS
  0
BLOCK
  5
1AE
100
AcDbEntity
  8
0
100
AcDbBlockBegin
  2
*MODEL_SPACE
 70
     0
 10
0.0
 20
0.0
 30
0.0
  3
*MODEL_SPACE
  1

  0
ENDBLK
  5
1AF
100
AcDbEntity
  8
0
100
AcDbBlockEnd
  0
BLOCK
  5
1AA
100
AcDbEntity
 67
     1
  8
0
100
AcDbBlockBegin
  2
*PAPER_SPACE
 70
     0
 10
0.0
 20
0.0
 30
0.0
  3
*PAPER_SPACE
  1

  0
ENDBLK
  5
1AB
100
AcDbEntity
 67
     1
  8
0
100
AcDbBlockEnd
  0
BLOCK
  5
1B8
100
AcDbEntity
  8
0
100
AcDbBlockBegin
  2
$MODEL_SPACE
 70
     0
 10
0.0
 20
0.0
 30
0.0
  3
$MODEL_SPACE
  1

  0
ENDBLK
  5
1B9
100
AcDbEntity
  8
0
100
AcDbBlockEnd
  0
BLOCK
  5
1BB
100
AcDbEntity
  8
0
100
AcDbBlockBegin
  2
$PAPER_SPACE
 70
     0
 10
0.0
 20
0.0
 30
0.0
  3
$PAPER_SPACE
  1

  0
ENDBLK
  5
1BC
100
AcDbEntity
  8
0
100
AcDbBlockEnd
  0
BLOCK
  5
1BE
100
AcDbEntity
  8
0
100
AcDbBlockBegin
  2
ARROW
 70
     0
 10
0.0
 20
0.0
 30
0.0
  3
ARROW
  1

  0
LINE
  5
1BF
100
AcDbEntity
  8
DIMENSION
100
AcDbLine
 10
0.0
 20
0.0
 30
0.0
 11
-1.0
 21
0.176327
 31
0.0
  0
LINE
  5
1C0
100
AcDbEntity
  8
DIMENSION
100
AcDbLine
 10
0.0
 20
0.0
 30
0.0
 11
-1.0
 21
-0.176327
 31
0.0
  0
LINE
  5
1C1
100
AcDbEntity
  8
DIMENSION
100
AcDbLine
 10
-1.0
 20
0.0
 30
0.0
 11
0.0
 21
0.0
 31
0.0
  0
ENDBLK
  5
1C2
100
AcDbEntity
  8
0
100
AcDbBlockEnd
  0
BLOCK
  5
1C4
100
AcDbEntity
  8
0
100
AcDbBlockBegin
  2
DOT
 70
     0
 10
0.0
 20
0.0
 30
0.0
  3
DOT
  1
DOT2
  0
LWPOLYLINE
  5
1C5
100
AcDbEntity
  8
DIMENSION
100
AcDbPolyline
 90
        2
 70
     1
 43
0.165
 10
-0.082512
 20
0.000018
 42
1.0
 10
0.082488
 20
0.000018
 42
1.0
  0
LINE
  5
1C9
100
AcDbEntity
  8
DIMENSION
100
AcDbLine
 10
-0.000012
 20
0.000018
 30
0.0
 11
-1.000012
 21
0.000018
 31
0.0
  0
ENDBLK
  5
1CA
100
AcDbEntity
  8
0
100
AcDbBlockEnd
  0
ENDSEC
  0
SECTION
  2
ENTITIES
  0
LINE
  5
1CB
100
AcDbEntity
  8
0
100
AcDbLine
 10
90.434079
 20
87.135662
 30
0.0
 11
90.434079
 21
113.935662
 31
0.0
  0
LINE
  5
1CC
100
AcDbEntity
  8
0
100
AcDbLine
 10
82.434079
 20
115.235662
 30
0.0
 11
82.434079
 21
85.835662
 31
0.0
  0
LINE
  5
1CD
100
AcDbEntity
  8
0
100
AcDbLine
 10
81.134079
 20
115.235662
 30
0.0
 11
81.134079
 21
85.835662
 31
0.0
  0
LINE
  5
1CE
100
AcDbEntity
  8
0
100
AcDbLine
 10
113.034079
 20
115.235662
 30
0.0
 11
113.034079
 21
85.835662
 31
0.0
  0
LINE
  5
1CF
100
AcDbEntity
  8
0
100
AcDbLine
 10
111.734079
 20
115.235662
 30
0.0
 11
111.734079
 21
85.835662
 31
0.0
  0
LINE
  5
1D0
100
AcDbEntity
  8
0
100
AcDbLine
 10
114.584079
 20
83.535662
 30
0.0
 11
114.584079
 21
117.535662
 31
0.0
  0
LINE
  5
1D1
100
AcDbEntity
  8
0
100
AcDbLine
 10
103.734079
 20
87.135662
 30
0.0
 11
103.734079
 21
113.935662
 31
0.0
  0
LINE
  5
1D2
100
AcDbEntity
  8
0
100
AcDbLine
 10
79.584079
 20
83.535662
 30
0.0
 11
79.584079
 21
117.535662
 31
0.0
  0
LINE
  5
1D5
100
AcDbEntity
  8
CENTER
  6
CENTER
 62
     1
100
AcDbLine
 10
78.584079
 20
100.535662
 30
0.0
 11
117.034027
 21
100.535662
 31
0.0
  0
LINE
  5
1D6
100
AcDbEntity
  8
0
100
AcDbLine
 10
97.584079
 20
83.535662
 30
0.0
 11
114.584079
 21
83.535662
 31
0.0
  0
LINE
  5
1D7
100
AcDbEntity
  8
0
100
AcDbLine
 10
90.434079
 20
88.535662
 30
0.0
 11
103.734079
 21
88.535662
 31
0.0
  0
LINE
  5
1D8
100
AcDbEntity
  8
0
100
AcDbLine
 10
83.772394
 20
87.954855
 30
0.0
 11
83.837053
 21
88.694392
 31
0.0
  0
LINE
  5
1D9
100
AcDbEntity
  8
0
100
AcDbLine
 10
83.573891
 20
87.975699
 30
0.0
 11
83.617089
 21
88.852742
 31
0.0
  0
LINE
  5
1DA
100
AcDbEntity
  8
0
100
AcDbLine
 10
83.817079
 20
88.465672
 30
0.0
 11
83.817079
 21
88.935672
 31
0.0
  0
LINE
  5
1DB
100
AcDbEntity
  8
0
100
AcDbLine
 10
90.434079
 20
87.135662
 30
0.0
 11
90.434079
 21
100.535662
 31
0.0
  0
LINE
  5
1DC
100
AcDbEntity
  8
0
100
AcDbLine
 10
89.051079
 20
88.465672
 30
0.0
 11
89.051079
 21
88.935672
 31
0.0
  0
LINE
  5
1DD
100
AcDbEntity
  8
0
100
AcDbLine
 10
89.294267
 20
87.975699
 30
0.0
 11
89.251069
 21
88.852742
 31
0.0
  0
LINE
  5
1DE
100
AcDbEntity
  8
0
100
AcDbLine
 10
89.095764
 20
87.954855
 30
0.0
 11
89.031105
 21
88.694392
 31
0.0
  0
CIRCLE
  5
1DF
100
AcDbEntity
  8
0
100
AcDbCircle
 10
86.434079
 20
90.285662
 30
0.0
 40
2.38125
  0
LINE
  5
1E0
100
AcDbEntity
  8
CENTER
  6
CENTER
 62
     1
100
AcDbLine
 10
98.584079
 20
78.535662
 30
0.0
 11
88.584079
 21
78.535662
 31
0.0
  0
ARC
  5
1E1
100
AcDbEntity
  8
0
100
AcDbCircle
 10
89.834079
 20
87.135662
 30
0.0
 40
0.6
100
AcDbArc
 50
270.0
 51
0.0
  0
LINE
  5
1E2
100
AcDbEntity
  8
0
100
AcDbLine
 10
93.484079
 20
76.285662
 30
0.0
 11
89.584079
 21
76.285662
 31
0.0
  0
LINE
  5
1E3
100
AcDbEntity
  8
0
100
AcDbLine
 10
97.584079
 20
73.535662
 30
0.0
 11
89.584079
 21
73.535662
 31
0.0
  0
LINE
  5
1E4
100
AcDbEntity
  8
0
100
AcDbLine
 10
93.484079
 20
80.785662
 30
0.0
 11
89.584079
 21
80.785662
 31
0.0
  0
LINE
  5
1E5
100
AcDbEntity
  8
0
100
AcDbLine
 10
89.584079
 20
73.535662
 30
0.0
 11
89.584079
 21
83.535662
 31
0.0
  0
LINE
  5
1E6
100
AcDbEntity
  8
0
100
AcDbLine
 10
89.834079
 20
86.535662
 30
0.0
 11
82.434079
 21
86.535662
 31
0.0
  0
LINE
  5
1E7
100
AcDbEntity
  8
0
100
AcDbLine
 10
79.584079
 20
83.535662
 30
0.0
 11
89.584079
 21
83.535662
 31
0.0
  0
LINE
  5
1E8
100
AcDbEntity
  8
0
100
AcDbLine
 10
82.434079
 20
88.335662
 30
0.0
 11
81.134079
 21
88.335662
 31
0.0
  0
LINE
  5
1E9
100
AcDbEntity
  8
0
100
AcDbLine
 10
82.434079
 20
85.835662
 30
0.0
 11
81.134079
 21
85.835662
 31
0.0
  0
LINE
  5
1EA
100
AcDbEntity
  8
0
100
AcDbLine
 10
81.134079
 20
86.535662
 30
0.0
 11
79.584079
 21
86.535662
 31
0.0
  0
ARC
  5
1EB
100
AcDbEntity
  8
0
100
AcDbCircle
 10
83.147305
 20
88.214218
 30
0.0
 40
0.2
100
AcDbArc
 50
129.913694
 51
219.998032
  0
LINE
  5
1EC
100
AcDbEntity
  8
0
100
AcDbLine
 10
83.172089
 20
88.495702
 30
0.0
 11
83.018978
 21
88.36762
 31
0.0
  0
LINE
  5
1ED
100
AcDbEntity
  8
0
100
AcDbLine
 10
82.994092
 20
88.085665
 30
0.0
 11
83.243714
 21
87.788156
 31
0.0
  0
LINE
  5
1EE
100
AcDbEntity
  8
0
100
AcDbLine
 10
83.172089
 20
88.495682
 30
0.0
 11
83.300079
 21
88.342702
 31
0.0
  0
LINE
  5
1EF
100
AcDbEntity
  8
0
100
AcDbLine
 10
83.300089
 20
88.342712
 30
0.0
 11
83.147099
 21
88.214722
 31
0.0
  0
LINE
  5
1F0
100
AcDbEntity
  8
0
100
AcDbLine
 10
82.534079
 20
88.085682
 30
0.0
 11
82.994079
 21
88.085682
 31
0.0
  0
ARC
  5
1F1
100
AcDbEntity
  8
0
100
AcDbCircle
 10
83.034079
 20
87.135662
 30
0.0
 40
0.6
100
AcDbArc
 50
180.0
 51
270.0
  0
ARC
  5
1F2
100
AcDbEntity
  8
0
100
AcDbCircle
 10
82.534079
 20
87.985682
 30
0.0
 40
0.1
100
AcDbArc
 50
90.0
 51
180.0
  0
ARC
  5
1F3
100
AcDbEntity
  8
0
100
AcDbCircle
 10
83.474012
 20
87.980618
 30
0.0
 40
0.1
100
AcDbArc
 50
219.997846
 51
357.180215
  0
ARC
  5
1F4
100
AcDbEntity
  8
0
100
AcDbCircle
 10
83.473534
 20
87.980985
 30
0.0
 40
0.3
100
AcDbArc
 50
219.998032
 51
355.003239
  0
LINE
  5
1F5
100
AcDbEntity
  8
0
100
AcDbLine
 10
83.147079
 20
88.214692
 30
0.0
 11
83.397405
 21
87.916343
 31
0.0
  0
LINE
  5
1F6
100
AcDbEntity
  8
0
100
AcDbLine
 10
90.334079
 20
88.085682
 30
0.0
 11
89.874079
 21
88.085682
 31
0.0
  0
ARC
  5
1F7
100
AcDbEntity
  8
0
100
AcDbCircle
 10
90.334079
 20
87.985682
 30
0.0
 40
0.1
100
AcDbArc
 50
0.0
 51
90.0
  0
ARC
  5
1F8
100
AcDbEntity
  8
0
100
AcDbCircle
 10
89.394146
 20
87.980618
 30
0.0
 40
0.1
100
AcDbArc
 50
182.819785
 51
320.002154
  0
LINE
  5
1F9
100
AcDbEntity
  8
0
100
AcDbLine
 10
89.696069
 20
88.495702
 30
0.0
 11
89.849179
 21
88.36762
 31
0.0
  0
ARC
  5
1FA
100
AcDbEntity
  8
0
100
AcDbCircle
 10
89.720853
 20
88.214218
 30
0.0
 40
0.2
100
AcDbArc
 50
320.001968
 51
50.086306
  0
LINE
  5
1FB
100
AcDbEntity
  8
0
100
AcDbLine
 10
89.568069
 20
88.342712
 30
0.0
 11
89.721059
 21
88.214722
 31
0.0
  0
LINE
  5
1FC
100
AcDbEntity
  8
0
100
AcDbLine
 10
89.696069
 20
88.495682
 30
0.0
 11
89.568079
 21
88.342702
 31
0.0
  0
LINE
  5
1FD
100
AcDbEntity
  8
0
100
AcDbLine
 10
89.721079
 20
88.214692
 30
0.0
 11
89.470753
 21
87.916343
 31
0.0
  0
LINE
  5
1FE
100
AcDbEntity
  8
0
100
AcDbLine
 10
89.874066
 20
88.085665
 30
0.0
 11
89.624444
 21
87.788156
 31
0.0
  0
ARC
  5
1FF
100
AcDbEntity
  8
0
100
AcDbCircle
 10
89.394624
 20
87.980985
 30
0.0
 40
0.3
100
AcDbArc
 50
184.996761
 51
320.001968
  0
LINE
  5
200
100
AcDbEntity
  8
0
100
AcDbLine
 10
93.484079
 20
74.535662
 30
0.0
 11
93.484079
 21
80.785662
 31
0.0
  0
LINE
  5
201
100
AcDbEntity
  8
0
100
AcDbLine
 10
97.584079
 20
73.535662
 30
0.0
 11
97.584079
 21
83.535662
 31
0.0
  0
LINE
  5
202
100
AcDbEntity
  8
0
100
AcDbLine
 10
97.584079
 20
74.535662
 30
0.0
 11
93.484079
 21
74.535662
 31
0.0
  0
LINE
  5
203
100
AcDbEntity
  8
0
100
AcDbLine
 10
97.584079
 20
82.535662
 30
0.0
 11
93.484079
 21
82.535662
 31
0.0
  0
LINE
  5
204
100
AcDbEntity
  8
0
100
AcDbLine
 10
93.484079
 20
80.785662
 30
0.0
 11
93.484079
 21
82.535662
 31
0.0
  0
ARC
  5
205
100
AcDbEntity
  8
0
100
AcDbCircle
 10
89.834079
 20
93.935662
 30
0.0
 40
0.6
100
AcDbArc
 50
0.0
 51
90.0
  0
LINE
  5
206
100
AcDbEntity
  8
0
100
AcDbLine
 10
89.834079
 20
94.535662
 30
0.0
 11
83.034079
 21
94.535662
 31
0.0
  0
ARC
  5
207
100
AcDbEntity
  8
0
100
AcDbCircle
 10
83.427998
 20
92.585662
 30
0.0
 40
0.2
100
AcDbArc
 50
20.008355
 51
90.0
  0
LINE
  5
208
100
AcDbEntity
  8
0
100
AcDbLine
 10
82.934099
 20
92.385702
 30
0.0
 11
83.2097
 21
92.714207
 31
0.0
  0
LINE
  5
209
100
AcDbEntity
  8
0
100
AcDbLine
 10
82.634079
 20
92.385682
 30
0.0
 11
82.934079
 21
92.385682
 31
0.0
  0
ARC
  5
20A
100
AcDbEntity
  8
0
100
AcDbCircle
 10
83.067079
 20
91.985672
 30
0.0
 40
0.2
100
AcDbArc
 50
90.0
 51
180.0
  0
ARC
  5
20B
100
AcDbEntity
  8
0
100
AcDbCircle
 10
82.634079
 20
92.585682
 30
0.0
 40
0.2
100
AcDbArc
 50
180.0
 51
270.0
  0
LINE
  5
20C
100
AcDbEntity
  8
0
100
AcDbLine
 10
82.867079
 20
89.602682
 30
0.0
 11
82.867079
 21
91.985672
 31
0.0
  0
LINE
  5
20D
100
AcDbEntity
  8
0
100
AcDbLine
 10
83.067079
 20
89.685672
 30
0.0
 11
83.067079
 21
91.985672
 31
0.0
  0
LINE
  5
20E
100
AcDbEntity
  8
0
100
AcDbLine
 10
83.615926
 20
92.654094
 30
0.0
 11
83.884244
 21
91.917231
 31
0.0
  0
ARC
  5
20F
100
AcDbEntity
  8
0
100
AcDbCircle
 10
83.936673
 20
88.685682
 30
0.0
 40
0.1
100
AcDbArc
 50
90.000885
 51
175.003239
  0
LINE
  5
210
100
AcDbEntity
  8
0
100
AcDbLine
 10
83.936671
 20
88.785682
 30
0.0
 11
84.584669
 21
88.785692
 31
0.0
  0
ARC
  5
211
100
AcDbEntity
  8
0
100
AcDbCircle
 10
84.072173
 20
91.985662
 30
0.0
 40
0.2
100
AcDbArc
 50
200.008355
 51
270.0
  0
LINE
  5
212
100
AcDbEntity
  8
0
100
AcDbLine
 10
84.072173
 20
91.785662
 30
0.0
 11
84.584659
 21
91.785662
 31
0.0
  0
LINE
  5
213
100
AcDbEntity
  8
0
100
AcDbLine
 10
83.517079
 20
92.185672
 30
0.0
 11
83.517079
 21
91.985692
 31
0.0
  0
LINE
  5
214
100
AcDbEntity
  8
0
100
AcDbLine
 10
83.817069
 20
88.935652
 30
0.0
 11
83.067069
 21
89.685652
 31
0.0
  0
LINE
  5
215
100
AcDbEntity
  8
0
100
AcDbLine
 10
83.617069
 20
88.852662
 30
0.0
 11
82.867079
 21
89.602652
 31
0.0
  0
LINE
  5
216
100
AcDbEntity
  8
0
100
AcDbLine
 10
83.067079
 20
92.185672
 30
0.0
 11
83.517079
 21
92.185672
 31
0.0
  0
LINE
  5
217
100
AcDbEntity
  8
0
100
AcDbLine
 10
83.517079
 20
91.985672
 30
0.0
 11
83.067079
 21
91.985672
 31
0.0
  0
ARC
  5
218
100
AcDbEntity
  8
0
100
AcDbCircle
 10
83.36292
 20
92.585662
 30
0.0
 40
0.2
100
AcDbArc
 50
90.0
 51
140.004804
  0
ARC
  5
219
100
AcDbEntity
  8
0
100
AcDbCircle
 10
83.034079
 20
93.935662
 30
0.0
 40
0.6
100
AcDbArc
 50
90.0
 51
180.0
  0
LINE
  5
21A
100
AcDbEntity
  8
0
100
AcDbLine
 10
83.36292
 20
92.785662
 30
0.0
 11
83.427998
 21
92.785662
 31
0.0
  0
ARC
  5
21B
100
AcDbEntity
  8
0
100
AcDbCircle
 10
89.44016
 20
92.585662
 30
0.0
 40
0.2
100
AcDbArc
 50
90.0
 51
159.991645
  0
LINE
  5
21C
100
AcDbEntity
  8
0
100
AcDbLine
 10
89.934059
 20
92.385702
 30
0.0
 11
89.658458
 21
92.714207
 31
0.0
  0
ARC
  5
21D
100
AcDbEntity
  8
0
100
AcDbCircle
 10
88.931485
 20
88.685682
 30
0.0
 40
0.1
100
AcDbArc
 50
4.996761
 51
89.999115
  0
LINE
  5
21E
100
AcDbEntity
  8
0
100
AcDbLine
 10
88.931487
 20
88.785682
 30
0.0
 11
88.283489
 21
88.785692
 31
0.0
  0
ARC
  5
21F
100
AcDbEntity
  8
0
100
AcDbCircle
 10
88.795985
 20
91.985662
 30
0.0
 40
0.2
100
AcDbArc
 50
270.0
 51
339.991645
  0
LINE
  5
220
100
AcDbEntity
  8
0
100
AcDbLine
 10
88.795985
 20
91.785662
 30
0.0
 11
88.283499
 21
91.785662
 31
0.0
  0
LINE
  5
221
100
AcDbEntity
  8
0
100
AcDbLine
 10
89.251089
 20
88.852662
 30
0.0
 11
90.001079
 21
89.602652
 31
0.0
  0
ARC
  5
222
100
AcDbEntity
  8
0
100
AcDbCircle
 10
89.801079
 20
91.985672
 30
0.0
 40
0.2
100
AcDbArc
 50
0.0
 51
90.0
  0
LINE
  5
223
100
AcDbEntity
  8
0
100
AcDbLine
 10
90.234079
 20
92.385682
 30
0.0
 11
89.934079
 21
92.385682
 31
0.0
  0
ARC
  5
224
100
AcDbEntity
  8
0
100
AcDbCircle
 10
90.234079
 20
92.585682
 30
0.0
 40
0.2
100
AcDbArc
 50
270.0
 51
0.0
  0
LINE
  5
225
100
AcDbEntity
  8
0
100
AcDbLine
 10
90.001079
 20
89.602682
 30
0.0
 11
90.001079
 21
91.985672
 31
0.0
  0
LINE
  5
226
100
AcDbEntity
  8
0
100
AcDbLine
 10
89.351079
 20
92.185672
 30
0.0
 11
89.351079
 21
91.985692
 31
0.0
  0
LINE
  5
227
100
AcDbEntity
  8
0
100
AcDbLine
 10
89.351079
 20
91.985672
 30
0.0
 11
89.801079
 21
91.985672
 31
0.0
  0
LINE
  5
228
100
AcDbEntity
  8
0
100
AcDbLine
 10
89.801079
 20
92.185672
 30
0.0
 11
89.351079
 21
92.185672
 31
0.0
  0
LINE
  5
229
100
AcDbEntity
  8
0
100
AcDbLine
 10
89.801079
 20
89.685672
 30
0.0
 11
89.801079
 21
91.985672
 31
0.0
  0
LINE
  5
22A
100
AcDbEntity
  8
0
100
AcDbLine
 10
89.051089
 20
88.935652
 30
0.0
 11
89.801089
 21
89.685652
 31
0.0
  0
LINE
  5
22B
100
AcDbEntity
  8
0
100
AcDbLine
 10
89.252231
 20
92.654094
 30
0.0
 11
88.983914
 21
91.917231
 31
0.0
  0
LINE
  5
22C
100
AcDbEntity
  8
0
100
AcDbLine
 10
89.505238
 20
92.785662
 30
0.0
 11
89.44016
 21
92.785662
 31
0.0
  0
ARC
  5
22D
100
AcDbEntity
  8
0
100
AcDbCircle
 10
89.505238
 20
92.585662
 30
0.0
 40
0.2
100
AcDbArc
 50
39.995196
 51
90.0
  0
LINE
  5
22E
100
AcDbEntity
  8
0
100
AcDbLine
 10
110.351079
 20
88.465672
 30
0.0
 11
110.351079
 21
88.935672
 31
0.0
  0
LINE
  5
22F
100
AcDbEntity
  8
0
100
AcDbLine
 10
110.594267
 20
87.975699
 30
0.0
 11
110.551069
 21
88.852742
 31
0.0
  0
LINE
  5
230
100
AcDbEntity
  8
0
100
AcDbLine
 10
110.395764
 20
87.954855
 30
0.0
 11
110.331105
 21
88.694392
 31
0.0
  0
LINE
  5
231
100
AcDbEntity
  8
0
100
AcDbLine
 10
105.072394
 20
87.954855
 30
0.0
 11
105.137053
 21
88.694392
 31
0.0
  0
LINE
  5
232
100
AcDbEntity
  8
0
100
AcDbLine
 10
104.873891
 20
87.975699
 30
0.0
 11
104.917089
 21
88.852742
 31
0.0
  0
LINE
  5
233
100
AcDbEntity
  8
0
100
AcDbLine
 10
105.117079
 20
88.465672
 30
0.0
 11
105.117079
 21
88.935672
 31
0.0
  0
LINE
  5
234
100
AcDbEntity
  8
0
100
AcDbLine
 10
103.734079
 20
87.135662
 30
0.0
 11
103.734079
 21
100.535662
 31
0.0
  0
CIRCLE
  5
235
100
AcDbEntity
  8
0
100
AcDbCircle
 10
107.734079
 20
90.285662
 30
0.0
 40
2.38125
  0
LINE
  5
236
100
AcDbEntity
  8
0
100
AcDbLine
 10
113.034079
 20
86.535662
 30
0.0
 11
114.584079
 21
86.535662
 31
0.0
  0
LINE
  5
237
100
AcDbEntity
  8
0
100
AcDbLine
 10
104.334079
 20
86.535662
 30
0.0
 11
111.734079
 21
86.535662
 31
0.0
  0
ARC
  5
238
100
AcDbEntity
  8
0
100
AcDbCircle
 10
104.773534
 20
87.980985
 30
0.0
 40
0.3
100
AcDbArc
 50
219.998032
 51
355.003239
  0
LINE
  5
239
100
AcDbEntity
  8
0
100
AcDbLine
 10
104.294092
 20
88.085665
 30
0.0
 11
104.543714
 21
87.788156
 31
0.0
  0
LINE
  5
23A
100
AcDbEntity
  8
0
100
AcDbLine
 10
104.447079
 20
88.214692
 30
0.0
 11
104.697405
 21
87.916343
 31
0.0
  0
LINE
  5
23B
100
AcDbEntity
  8
0
100
AcDbLine
 10
104.472089
 20
88.495682
 30
0.0
 11
104.600079
 21
88.342702
 31
0.0
  0
LINE
  5
23C
100
AcDbEntity
  8
0
100
AcDbLine
 10
104.600089
 20
88.342712
 30
0.0
 11
104.447099
 21
88.214722
 31
0.0
  0
ARC
  5
23D
100
AcDbEntity
  8
0
100
AcDbCircle
 10
104.447305
 20
88.214218
 30
0.0
 40
0.2
100
AcDbArc
 50
129.913694
 51
219.998032
  0
LINE
  5
23E
100
AcDbEntity
  8
0
100
AcDbLine
 10
104.472089
 20
88.495702
 30
0.0
 11
104.318978
 21
88.36762
 31
0.0
  0
ARC
  5
23F
100
AcDbEntity
  8
0
100
AcDbCircle
 10
104.774012
 20
87.980618
 30
0.0
 40
0.1
100
AcDbArc
 50
219.997846
 51
357.180215
  0
ARC
  5
240
100
AcDbEntity
  8
0
100
AcDbCircle
 10
103.834079
 20
87.985682
 30
0.0
 40
0.1
100
AcDbArc
 50
90.0
 51
180.0
  0
LINE
  5
241
100
AcDbEntity
  8
0
100
AcDbLine
 10
103.834079
 20
88.085682
 30
0.0
 11
104.294079
 21
88.085682
 31
0.0
  0
ARC
  5
242
100
AcDbEntity
  8
0
100
AcDbCircle
 10
104.334079
 20
87.135662
 30
0.0
 40
0.6
100
AcDbArc
 50
180.0
 51
270.0
  0
LINE
  5
243
100
AcDbEntity
  8
0
100
AcDbLine
 10
111.021079
 20
88.214692
 30
0.0
 11
110.770753
 21
87.916343
 31
0.0
  0
ARC
  5
244
100
AcDbEntity
  8
0
100
AcDbCircle
 10
110.694624
 20
87.980985
 30
0.0
 40
0.3
100
AcDbArc
 50
184.996761
 51
320.001968
  0
ARC
  5
245
100
AcDbEntity
  8
0
100
AcDbCircle
 10
110.694146
 20
87.980618
 30
0.0
 40
0.1
100
AcDbArc
 50
182.819785
 51
320.002154
  0
LINE
  5
246
100
AcDbEntity
  8
0
100
AcDbLine
 10
111.734079
 20
88.335662
 30
0.0
 11
113.034079
 21
88.335662
 31
0.0
  0
LINE
  5
247
100
AcDbEntity
  8
0
100
AcDbLine
 10
111.734079
 20
85.835662
 30
0.0
 11
113.034079
 21
85.835662
 31
0.0
  0
ARC
  5
248
100
AcDbEntity
  8
0
100
AcDbCircle
 10
111.634079
 20
87.985682
 30
0.0
 40
0.1
100
AcDbArc
 50
360.0
 51
90.0
  0
ARC
  5
249
100
AcDbEntity
  8
0
100
AcDbCircle
 10
111.134079
 20
87.135662
 30
0.0
 40
0.6
100
AcDbArc
 50
270.0
 51
360.0
  0
LINE
  5
24A
100
AcDbEntity
  8
0
100
AcDbLine
 10
111.634079
 20
88.085682
 30
0.0
 11
111.174079
 21
88.085682
 31
0.0
  0
LINE
  5
24B
100
AcDbEntity
  8
0
100
AcDbLine
 10
110.868069
 20
88.342712
 30
0.0
 11
111.021059
 21
88.214722
 31
0.0
  0
LINE
  5
24C
100
AcDbEntity
  8
0
100
AcDbLine
 10
110.996069
 20
88.495682
 30
0.0
 11
110.868079
 21
88.342702
 31
0.0
  0
LINE
  5
24D
100
AcDbEntity
  8
0
100
AcDbLine
 10
111.174066
 20
88.085665
 30
0.0
 11
110.924444
 21
87.788156
 31
0.0
  0
LINE
  5
24E
100
AcDbEntity
  8
0
100
AcDbLine
 10
110.996069
 20
88.495702
 30
0.0
 11
111.149179
 21
88.36762
 31
0.0
  0
ARC
  5
24F
100
AcDbEntity
  8
0
100
AcDbCircle
 10
111.020853
 20
88.214218
 30
0.0
 40
0.2
100
AcDbArc
 50
320.001968
 51
50.086306
  0
LINE
  5
250
100
AcDbEntity
  8
0
100
AcDbLine
 10
104.334079
 20
94.535662
 30
0.0
 11
111.134079
 21
94.535662
 31
0.0
  0
LINE
  5
251
100
AcDbEntity
  8
0
100
AcDbLine
 10
104.234099
 20
92.385702
 30
0.0
 11
104.5097
 21
92.714207
 31
0.0
  0
ARC
  5
252
100
AcDbEntity
  8
0
100
AcDbCircle
 10
104.727998
 20
92.585662
 30
0.0
 40
0.2
100
AcDbArc
 50
20.008355
 51
90.0
  0
LINE
  5
253
100
AcDbEntity
  8
0
100
AcDbLine
 10
104.915926
 20
92.654094
 30
0.0
 11
105.184244
 21
91.917231
 31
0.0
  0
LINE
  5
254
100
AcDbEntity
  8
0
100
AcDbLine
 10
105.117069
 20
88.935652
 30
0.0
 11
104.367069
 21
89.685652
 31
0.0
  0
LINE
  5
255
100
AcDbEntity
  8
0
100
AcDbLine
 10
104.367079
 20
89.685672
 30
0.0
 11
104.367079
 21
91.985672
 31
0.0
  0
LINE
  5
256
100
AcDbEntity
  8
0
100
AcDbLine
 10
104.367079
 20
92.185672
 30
0.0
 11
104.817079
 21
92.185672
 31
0.0
  0
LINE
  5
257
100
AcDbEntity
  8
0
100
AcDbLine
 10
104.817079
 20
91.985672
 30
0.0
 11
104.367079
 21
91.985672
 31
0.0
  0
LINE
  5
258
100
AcDbEntity
  8
0
100
AcDbLine
 10
104.817079
 20
92.185672
 30
0.0
 11
104.817079
 21
91.985692
 31
0.0
  0
LINE
  5
259
100
AcDbEntity
  8
0
100
AcDbLine
 10
104.167079
 20
89.602682
 30
0.0
 11
104.167079
 21
91.985672
 31
0.0
  0
ARC
  5
25A
100
AcDbEntity
  8
0
100
AcDbCircle
 10
103.934079
 20
92.585682
 30
0.0
 40
0.2
100
AcDbArc
 50
180.0
 51
270.0
  0
LINE
  5
25B
100
AcDbEntity
  8
0
100
AcDbLine
 10
103.934079
 20
92.385682
 30
0.0
 11
104.234079
 21
92.385682
 31
0.0
  0
ARC
  5
25C
100
AcDbEntity
  8
0
100
AcDbCircle
 10
104.367079
 20
91.985672
 30
0.0
 40
0.2
100
AcDbArc
 50
90.0
 51
180.0
  0
LINE
  5
25D
100
AcDbEntity
  8
0
100
AcDbLine
 10
104.917069
 20
88.852662
 30
0.0
 11
104.167079
 21
89.602652
 31
0.0
  0
LINE
  5
25E
100
AcDbEntity
  8
0
100
AcDbLine
 10
105.372173
 20
91.785662
 30
0.0
 11
105.884659
 21
91.785662
 31
0.0
  0
ARC
  5
25F
100
AcDbEntity
  8
0
100
AcDbCircle
 10
105.372173
 20
91.985662
 30
0.0
 40
0.2
100
AcDbArc
 50
200.008355
 51
270.0
  0
LINE
  5
260
100
AcDbEntity
  8
0
100
AcDbLine
 10
105.236671
 20
88.785682
 30
0.0
 11
105.884669
 21
88.785692
 31
0.0
  0
ARC
  5
261
100
AcDbEntity
  8
0
100
AcDbCircle
 10
105.236673
 20
88.685682
 30
0.0
 40
0.1
100
AcDbArc
 50
90.000885
 51
175.003239
  0
ARC
  5
262
100
AcDbEntity
  8
0
100
AcDbCircle
 10
104.66292
 20
92.585662
 30
0.0
 40
0.2
100
AcDbArc
 50
90.0
 51
140.004804
  0
LINE
  5
263
100
AcDbEntity
  8
0
100
AcDbLine
 10
104.66292
 20
92.785662
 30
0.0
 11
104.727998
 21
92.785662
 31
0.0
  0
ARC
  5
264
100
AcDbEntity
  8
0
100
AcDbCircle
 10
104.334079
 20
93.935662
 30
0.0
 40
0.6
100
AcDbArc
 50
90.0
 51
180.0
  0
ARC
  5
265
100
AcDbEntity
  8
0
100
AcDbCircle
 10
110.74016
 20
92.585662
 30
0.0
 40
0.2
100
AcDbArc
 50
90.0
 51
159.991645
  0
LINE
  5
266
100
AcDbEntity
  8
0
100
AcDbLine
 10
111.234059
 20
92.385702
 30
0.0
 11
110.958458
 21
92.714207
 31
0.0
  0
LINE
  5
267
100
AcDbEntity
  8
0
100
AcDbLine
 10
110.651079
 20
91.985672
 30
0.0
 11
111.101079
 21
91.985672
 31
0.0
  0
LINE
  5
268
100
AcDbEntity
  8
0
100
AcDbLine
 10
111.101079
 20
92.185672
 30
0.0
 11
110.651079
 21
92.185672
 31
0.0
  0
LINE
  5
269
100
AcDbEntity
  8
0
100
AcDbLine
 10
110.551089
 20
88.852662
 30
0.0
 11
111.301079
 21
89.602652
 31
0.0
  0
LINE
  5
26A
100
AcDbEntity
  8
0
100
AcDbLine
 10
110.351089
 20
88.935652
 30
0.0
 11
111.101089
 21
89.685652
 31
0.0
  0
LINE
  5
26B
100
AcDbEntity
  8
0
100
AcDbLine
 10
110.651079
 20
92.185672
 30
0.0
 11
110.651079
 21
91.985692
 31
0.0
  0
LINE
  5
26C
100
AcDbEntity
  8
0
100
AcDbLine
 10
110.095985
 20
91.785662
 30
0.0
 11
109.583499
 21
91.785662
 31
0.0
  0
ARC
  5
26D
100
AcDbEntity
  8
0
100
AcDbCircle
 10
110.095985
 20
91.985662
 30
0.0
 40
0.2
100
AcDbArc
 50
270.0
 51
339.991645
  0
LINE
  5
26E
100
AcDbEntity
  8
0
100
AcDbLine
 10
110.231487
 20
88.785682
 30
0.0
 11
109.583489
 21
88.785692
 31
0.0
  0
ARC
  5
26F
100
AcDbEntity
  8
0
100
AcDbCircle
 10
110.231485
 20
88.685682
 30
0.0
 40
0.1
100
AcDbArc
 50
4.996761
 51
89.999115
  0
LINE
  5
270
100
AcDbEntity
  8
0
100
AcDbLine
 10
110.552231
 20
92.654094
 30
0.0
 11
110.283914
 21
91.917231
 31
0.0
  0
LINE
  5
271
100
AcDbEntity
  8
0
100
AcDbLine
 10
111.101079
 20
89.685672
 30
0.0
 11
111.101079
 21
91.985672
 31
0.0
  0
LINE
  5
272
100
AcDbEntity
  8
0
100
AcDbLine
 10
111.301079
 20
89.602682
 30
0.0
 11
111.301079
 21
91.985672
 31
0.0
  0
ARC
  5
273
100
AcDbEntity
  8
0
100
AcDbCircle
 10
111.534079
 20
92.585682
 30
0.0
 40
0.2
100
AcDbArc
 50
270.0
 51
360.0
  0
ARC
  5
274
100
AcDbEntity
  8
0
100
AcDbCircle
 10
111.101079
 20
91.985672
 30
0.0
 40
0.2
100
AcDbArc
 50
360.0
 51
90.0
  0
LINE
  5
275
100
AcDbEntity
  8
0
100
AcDbLine
 10
111.534079
 20
92.385682
 30
0.0
 11
111.234079
 21
92.385682
 31
0.0
  0
LINE
  5
276
100
AcDbEntity
  8
0
100
AcDbLine
 10
110.805238
 20
92.785662
 30
0.0
 11
110.74016
 21
92.785662
 31
0.0
  0
ARC
  5
277
100
AcDbEntity
  8
0
100
AcDbCircle
 10
110.805238
 20
92.585662
 30
0.0
 40
0.2
100
AcDbArc
 50
39.995196
 51
90.0
  0
ARC
  5
278
100
AcDbEntity
  8
0
100
AcDbCircle
 10
111.134079
 20
93.935662
 30
0.0
 40
0.6
100
AcDbArc
 50
360.0
 51
90.0
  0
LINE
  5
279
100
AcDbEntity
  8
0
100
AcDbLine
 10
97.584079
 20
117.535662
 30
0.0
 11
114.584079
 21
117.535662
 31
0.0
  0
LINE
  5
27A
100
AcDbEntity
  8
0
100
AcDbLine
 10
90.434079
 20
112.535662
 30
0.0
 11
103.734079
 21
112.535662
 31
0.0
  0
LINE
  5
27B
100
AcDbEntity
  8
0
100
AcDbLine
 10
97.584079
 20
127.535662
 30
0.0
 11
97.584079
 21
117.535662
 31
0.0
  0
LINE
  5
27C
100
AcDbEntity
  8
0
100
AcDbLine
 10
93.484079
 20
126.535662
 30
0.0
 11
93.484079
 21
120.285662
 31
0.0
  0
LINE
  5
27D
100
AcDbEntity
  8
0
100
AcDbLine
 10
89.584079
 20
127.535662
 30
0.0
 11
89.584079
 21
117.535662
 31
0.0
  0
ARC
  5
27E
100
AcDbEntity
  8
0
100
AcDbCircle
 10
89.834079
 20
113.935662
 30
0.0
 40
0.6
100
AcDbArc
 50
0.0
 51
90.0
  0
ARC
  5
27F
100
AcDbEntity
  8
0
100
AcDbCircle
 10
89.834079
 20
107.135662
 30
0.0
 40
0.6
100
AcDbArc
 50
270.0
 51
0.0
  0
LINE
  5
280
100
AcDbEntity
  8
0
100
AcDbLine
 10
93.484079
 20
120.285662
 30
0.0
 11
89.584079
 21
120.285662
 31
0.0
  0
ARC
  5
281
100
AcDbEntity
  8
0
100
AcDbCircle
 10
83.473534
 20
113.09034
 30
0.0
 40
0.3
100
AcDbArc
 50
4.996761
 51
140.001968
  0
ARC
  5
282
100
AcDbEntity
  8
0
100
AcDbCircle
 10
83.474012
 20
113.090706
 30
0.0
 40
0.1
100
AcDbArc
 50
2.819785
 51
140.002154
  0
ARC
  5
283
100
AcDbEntity
  8
0
100
AcDbCircle
 10
89.394624
 20
113.09034
 30
0.0
 40
0.3
100
AcDbArc
 50
39.998032
 51
175.003239
  0
LINE
  5
284
100
AcDbEntity
  8
0
100
AcDbLine
 10
89.874066
 20
112.985659
 30
0.0
 11
89.624444
 21
113.283168
 31
0.0
  0
ARC
  5
285
100
AcDbEntity
  8
0
100
AcDbCircle
 10
89.394146
 20
113.090706
 30
0.0
 40
0.1
100
AcDbArc
 50
39.997846
 51
177.180215
  0
LINE
  5
286
100
AcDbEntity
  8
0
100
AcDbLine
 10
82.994092
 20
112.985659
 30
0.0
 11
83.243714
 21
113.283168
 31
0.0
  0
LINE
  5
287
100
AcDbEntity
  8
0
100
AcDbLine
 10
89.834079
 20
106.535662
 30
0.0
 11
83.034079
 21
106.535662
 31
0.0
  0
CIRCLE
  5
288
100
AcDbEntity
  8
0
100
AcDbCircle
 10
86.434079
 20
110.785662
 30
0.0
 40
2.38125
  0
LINE
  5
289
100
AcDbEntity
  8
0
100
AcDbLine
 10
83.615926
 20
108.417231
 30
0.0
 11
83.884244
 21
109.154094
 31
0.0
  0
LINE
  5
28A
100
AcDbEntity
  8
0
100
AcDbLine
 10
83.067079
 20
111.385652
 30
0.0
 11
83.067079
 21
109.085652
 31
0.0
  0
LINE
  5
28B
100
AcDbEntity
  8
0
100
AcDbLine
 10
82.867079
 20
111.468642
 30
0.0
 11
82.867079
 21
109.085652
 31
0.0
  0
ARC
  5
28C
100
AcDbEntity
  8
0
100
AcDbCircle
 10
83.36292
 20
108.485662
 30
0.0
 40
0.2
100
AcDbArc
 50
219.995196
 51
270.0
  0
ARC
  5
28D
100
AcDbEntity
  8
0
100
AcDbCircle
 10
83.034079
 20
107.135662
 30
0.0
 40
0.6
100
AcDbArc
 50
180.0
 51
270.0
  0
ARC
  5
28E
100
AcDbEntity
  8
0
100
AcDbCircle
 10
82.634079
 20
108.485642
 30
0.0
 40
0.2
100
AcDbArc
 50
90.0
 51
180.0
  0
ARC
  5
28F
100
AcDbEntity
  8
0
100
AcDbCircle
 10
83.067079
 20
109.085652
 30
0.0
 40
0.2
100
AcDbArc
 50
180.0
 51
270.0
  0
LINE
  5
290
100
AcDbEntity
  8
0
100
AcDbLine
 10
82.934099
 20
108.685622
 30
0.0
 11
83.2097
 21
108.357118
 31
0.0
  0
LINE
  5
291
100
AcDbEntity
  8
0
100
AcDbLine
 10
82.634079
 20
108.685642
 30
0.0
 11
82.934079
 21
108.685642
 31
0.0
  0
ARC
  5
292
100
AcDbEntity
  8
0
100
AcDbCircle
 10
83.427998
 20
108.485662
 30
0.0
 40
0.2
100
AcDbArc
 50
270.0
 51
339.991645
  0
LINE
  5
293
100
AcDbEntity
  8
0
100
AcDbLine
 10
83.517079
 20
108.885652
 30
0.0
 11
83.517079
 21
109.085632
 31
0.0
  0
LINE
  5
294
100
AcDbEntity
  8
0
100
AcDbLine
 10
83.517079
 20
109.085652
 30
0.0
 11
83.067079
 21
109.085652
 31
0.0
  0
LINE
  5
295
100
AcDbEntity
  8
0
100
AcDbLine
 10
83.067079
 20
108.885652
 30
0.0
 11
83.517079
 21
108.885652
 31
0.0
  0
LINE
  5
296
100
AcDbEntity
  8
0
100
AcDbLine
 10
83.36292
 20
108.285662
 30
0.0
 11
83.427998
 21
108.285662
 31
0.0
  0
LINE
  5
297
100
AcDbEntity
  8
0
100
AcDbLine
 10
82.434079
 20
112.735662
 30
0.0
 11
81.134079
 21
112.735662
 31
0.0
  0
ARC
  5
298
100
AcDbEntity
  8
0
100
AcDbCircle
 10
82.534079
 20
113.085642
 30
0.0
 40
0.1
100
AcDbArc
 50
180.0
 51
270.0
  0
LINE
  5
299
100
AcDbEntity
  8
0
100
AcDbLine
 10
82.534079
 20
112.985642
 30
0.0
 11
82.994079
 21
112.985642
 31
0.0
  0
LINE
  5
29A
100
AcDbEntity
  8
0
100
AcDbLine
 10
83.300089
 20
112.728612
 30
0.0
 11
83.147099
 21
112.856602
 31
0.0
  0
LINE
  5
29B
100
AcDbEntity
  8
0
100
AcDbLine
 10
83.172089
 20
112.575642
 30
0.0
 11
83.300079
 21
112.728622
 31
0.0
  0
LINE
  5
29C
100
AcDbEntity
  8
0
100
AcDbLine
 10
83.172089
 20
112.575622
 30
0.0
 11
83.018978
 21
112.703705
 31
0.0
  0
ARC
  5
29D
100
AcDbEntity
  8
0
100
AcDbCircle
 10
83.147305
 20
112.857107
 30
0.0
 40
0.2
100
AcDbArc
 50
140.001968
 51
230.086306
  0
LINE
  5
29E
100
AcDbEntity
  8
0
100
AcDbLine
 10
84.072173
 20
109.285662
 30
0.0
 11
84.584659
 21
109.285662
 31
0.0
  0
ARC
  5
29F
100
AcDbEntity
  8
0
100
AcDbCircle
 10
84.072173
 20
109.085662
 30
0.0
 40
0.2
100
AcDbArc
 50
90.0
 51
159.991645
  0
LINE
  5
2A0
100
AcDbEntity
  8
0
100
AcDbLine
 10
83.936671
 20
112.285642
 30
0.0
 11
84.584669
 21
112.285632
 31
0.0
  0
LINE
  5
2A1
100
AcDbEntity
  8
0
100
AcDbLine
 10
83.817079
 20
112.605652
 30
0.0
 11
83.817079
 21
112.135652
 31
0.0
  0
LINE
  5
2A2
100
AcDbEntity
  8
0
100
AcDbLine
 10
83.573891
 20
113.095626
 30
0.0
 11
83.617089
 21
112.218582
 31
0.0
  0
LINE
  5
2A3
100
AcDbEntity
  8
0
100
AcDbLine
 10
83.772394
 20
113.11647
 30
0.0
 11
83.837053
 21
112.376932
 31
0.0
  0
ARC
  5
2A4
100
AcDbEntity
  8
0
100
AcDbCircle
 10
83.936673
 20
112.385642
 30
0.0
 40
0.1
100
AcDbArc
 50
184.996761
 51
269.999115
  0
LINE
  5
2A5
100
AcDbEntity
  8
0
100
AcDbLine
 10
83.617069
 20
112.218662
 30
0.0
 11
82.867079
 21
111.468672
 31
0.0
  0
LINE
  5
2A6
100
AcDbEntity
  8
0
100
AcDbLine
 10
83.817069
 20
112.135672
 30
0.0
 11
83.067069
 21
111.385672
 31
0.0
  0
LINE
  5
2A7
100
AcDbEntity
  8
0
100
AcDbLine
 10
83.147079
 20
112.856632
 30
0.0
 11
83.397405
 21
113.154982
 31
0.0
  0
LINE
  5
2A8
100
AcDbEntity
  8
0
100
AcDbLine
 10
89.252231
 20
108.417231
 30
0.0
 11
88.983914
 21
109.154094
 31
0.0
  0
LINE
  5
2A9
100
AcDbEntity
  8
0
100
AcDbLine
 10
90.001079
 20
111.468642
 30
0.0
 11
90.001079
 21
109.085652
 31
0.0
  0
LINE
  5
2AA
100
AcDbEntity
  8
0
100
AcDbLine
 10
89.801079
 20
111.385652
 30
0.0
 11
89.801079
 21
109.085652
 31
0.0
  0
ARC
  5
2AB
100
AcDbEntity
  8
0
100
AcDbCircle
 10
89.505238
 20
108.485662
 30
0.0
 40
0.2
100
AcDbArc
 50
270.0
 51
320.004804
  0
LINE
  5
2AC
100
AcDbEntity
  8
0
100
AcDbLine
 10
89.934059
 20
108.685622
 30
0.0
 11
89.658458
 21
108.357118
 31
0.0
  0
LINE
  5
2AD
100
AcDbEntity
  8
0
100
AcDbLine
 10
89.801079
 20
108.885652
 30
0.0
 11
89.351079
 21
108.885652
 31
0.0
  0
LINE
  5
2AE
100
AcDbEntity
  8
0
100
AcDbLine
 10
89.351079
 20
109.085652
 30
0.0
 11
89.801079
 21
109.085652
 31
0.0
  0
ARC
  5
2AF
100
AcDbEntity
  8
0
100
AcDbCircle
 10
90.234079
 20
108.485642
 30
0.0
 40
0.2
100
AcDbArc
 50
0.0
 51
90.0
  0
LINE
  5
2B0
100
AcDbEntity
  8
0
100
AcDbLine
 10
90.234079
 20
108.685642
 30
0.0
 11
89.934079
 21
108.685642
 31
0.0
  0
ARC
  5
2B1
100
AcDbEntity
  8
0
100
AcDbCircle
 10
89.801079
 20
109.085652
 30
0.0
 40
0.2
100
AcDbArc
 50
270.0
 51
0.0
  0
LINE
  5
2B2
100
AcDbEntity
  8
0
100
AcDbLine
 10
89.505238
 20
108.285662
 30
0.0
 11
89.44016
 21
108.285662
 31
0.0
  0
ARC
  5
2B3
100
AcDbEntity
  8
0
100
AcDbCircle
 10
89.44016
 20
108.485662
 30
0.0
 40
0.2
100
AcDbArc
 50
200.008355
 51
270.0
  0
LINE
  5
2B4
100
AcDbEntity
  8
0
100
AcDbLine
 10
89.351079
 20
108.885652
 30
0.0
 11
89.351079
 21
109.085632
 31
0.0
  0
LINE
  5
2B5
100
AcDbEntity
  8
0
100
AcDbLine
 10
88.795985
 20
109.285662
 30
0.0
 11
88.283499
 21
109.285662
 31
0.0
  0
ARC
  5
2B6
100
AcDbEntity
  8
0
100
AcDbCircle
 10
88.795985
 20
109.085662
 30
0.0
 40
0.2
100
AcDbArc
 50
20.008355
 51
90.0
  0
LINE
  5
2B7
100
AcDbEntity
  8
0
100
AcDbLine
 10
88.931487
 20
112.285642
 30
0.0
 11
88.283489
 21
112.285632
 31
0.0
  0
ARC
  5
2B8
100
AcDbEntity
  8
0
100
AcDbCircle
 10
88.931485
 20
112.385642
 30
0.0
 40
0.1
100
AcDbArc
 50
270.000885
 51
355.003239
  0
LINE
  5
2B9
100
AcDbEntity
  8
0
100
AcDbLine
 10
89.095764
 20
113.11647
 30
0.0
 11
89.031105
 21
112.376932
 31
0.0
  0
LINE
  5
2BA
100
AcDbEntity
  8
0
100
AcDbLine
 10
89.051079
 20
112.605652
 30
0.0
 11
89.051079
 21
112.135652
 31
0.0
  0
LINE
  5
2BB
100
AcDbEntity
  8
0
100
AcDbLine
 10
89.721079
 20
112.856632
 30
0.0
 11
89.470753
 21
113.154982
 31
0.0
  0
LINE
  5
2BC
100
AcDbEntity
  8
0
100
AcDbLine
 10
89.696069
 20
112.575642
 30
0.0
 11
89.568079
 21
112.728622
 31
0.0
  0
LINE
  5
2BD
100
AcDbEntity
  8
0
100
AcDbLine
 10
89.568069
 20
112.728612
 30
0.0
 11
89.721059
 21
112.856602
 31
0.0
  0
LINE
  5
2BE
100
AcDbEntity
  8
0
100
AcDbLine
 10
89.251089
 20
112.218662
 30
0.0
 11
90.001079
 21
111.468672
 31
0.0
  0
ARC
  5
2BF
100
AcDbEntity
  8
0
100
AcDbCircle
 10
90.334079
 20
113.085642
 30
0.0
 40
0.1
100
AcDbArc
 50
270.0
 51
0.0
  0
ARC
  5
2C0
100
AcDbEntity
  8
0
100
AcDbCircle
 10
89.720853
 20
112.857107
 30
0.0
 40
0.2
100
AcDbArc
 50
309.913694
 51
39.998032
  0
LINE
  5
2C1
100
AcDbEntity
  8
0
100
AcDbLine
 10
89.696069
 20
112.575622
 30
0.0
 11
89.849179
 21
112.703705
 31
0.0
  0
LINE
  5
2C2
100
AcDbEntity
  8
0
100
AcDbLine
 10
90.334079
 20
112.985642
 30
0.0
 11
89.874079
 21
112.985642
 31
0.0
  0
LINE
  5
2C3
100
AcDbEntity
  8
0
100
AcDbLine
 10
89.294267
 20
113.095626
 30
0.0
 11
89.251069
 21
112.218582
 31
0.0
  0
LINE
  5
2C4
100
AcDbEntity
  8
0
100
AcDbLine
 10
89.051089
 20
112.135672
 30
0.0
 11
89.801089
 21
111.385672
 31
0.0
  0
LINE
  5
2C5
100
AcDbEntity
  8
0
100
AcDbLine
 10
89.834079
 20
114.535662
 30
0.0
 11
82.434079
 21
114.535662
 31
0.0
  0
LINE
  5
2C6
100
AcDbEntity
  8
0
100
AcDbLine
 10
79.584079
 20
117.535662
 30
0.0
 11
89.584079
 21
117.535662
 31
0.0
  0
LINE
  5
2C7
100
AcDbEntity
  8
0
100
AcDbLine
 10
82.434079
 20
115.235662
 30
0.0
 11
81.134079
 21
115.235662
 31
0.0
  0
LINE
  5
2C8
100
AcDbEntity
  8
0
100
AcDbLine
 10
81.134079
 20
114.535662
 30
0.0
 11
79.584079
 21
114.535662
 31
0.0
  0
ARC
  5
2C9
100
AcDbEntity
  8
0
100
AcDbCircle
 10
83.034079
 20
113.935662
 30
0.0
 40
0.6
100
AcDbArc
 50
90.0
 51
180.0
  0
LINE
  5
2CA
100
AcDbEntity
  8
0
100
AcDbLine
 10
97.584079
 20
118.535662
 30
0.0
 11
93.484079
 21
118.535662
 31
0.0
  0
LINE
  5
2CB
100
AcDbEntity
  8
0
100
AcDbLine
 10
93.484079
 20
120.285662
 30
0.0
 11
93.484079
 21
118.535662
 31
0.0
  0
LINE
  5
2CC
100
AcDbEntity
  8
CENTER
  6
CENTER
 62
     1
100
AcDbLine
 10
98.584079
 20
122.535662
 30
0.0
 11
88.584079
 21
122.535662
 31
0.0
  0
LINE
  5
2CD
100
AcDbEntity
  8
0
100
AcDbLine
 10
93.484079
 20
124.785662
 30
0.0
 11
89.584079
 21
124.785662
 31
0.0
  0
LINE
  5
2CE
100
AcDbEntity
  8
0
100
AcDbLine
 10
97.584079
 20
127.535662
 30
0.0
 11
89.584079
 21
127.535662
 31
0.0
  0
LINE
  5
2CF
100
AcDbEntity
  8
0
100
AcDbLine
 10
97.584079
 20
126.535662
 30
0.0
 11
93.484079
 21
126.535662
 31
0.0
  0
LINE
  5
2D0
100
AcDbEntity
  8
0
100
AcDbLine
 10
95.584079
 20
127.535662
 30
0.0
 11
95.584079
 21
127.535762
 31
0.0
  0
LINE
  5
2D1
100
AcDbEntity
  8
0
100
AcDbLine
 10
93.584079
 20
127.535662
 30
0.0
 11
93.584179
 21
127.535662
 31
0.0
  0
LINE
  5
2D2
100
AcDbEntity
  8
0
100
AcDbLine
 10
113.034079
 20
114.535662
 30
0.0
 11
114.584079
 21
114.535662
 31
0.0
  0
LINE
  5
2D3
100
AcDbEntity
  8
0
100
AcDbLine
 10
111.174066
 20
112.985659
 30
0.0
 11
110.924444
 21
113.283168
 31
0.0
  0
ARC
  5
2D4
100
AcDbEntity
  8
0
100
AcDbCircle
 10
110.694146
 20
113.090706
 30
0.0
 40
0.1
100
AcDbArc
 50
39.997846
 51
177.180215
  0
ARC
  5
2D5
100
AcDbEntity
  8
0
100
AcDbCircle
 10
110.694624
 20
113.09034
 30
0.0
 40
0.3
100
AcDbArc
 50
39.998032
 51
175.003239
  0
ARC
  5
2D6
100
AcDbEntity
  8
0
100
AcDbCircle
 10
104.774012
 20
113.090706
 30
0.0
 40
0.1
100
AcDbArc
 50
2.819785
 51
140.002154
  0
LINE
  5
2D7
100
AcDbEntity
  8
0
100
AcDbLine
 10
104.294092
 20
112.985659
 30
0.0
 11
104.543714
 21
113.283168
 31
0.0
  0
ARC
  5
2D8
100
AcDbEntity
  8
0
100
AcDbCircle
 10
104.773534
 20
113.09034
 30
0.0
 40
0.3
100
AcDbArc
 50
4.996761
 51
140.001968
  0
LINE
  5
2D9
100
AcDbEntity
  8
0
100
AcDbLine
 10
104.334079
 20
106.535662
 30
0.0
 11
111.134079
 21
106.535662
 31
0.0
  0
CIRCLE
  5
2DA
100
AcDbEntity
  8
0
100
AcDbCircle
 10
107.734079
 20
110.785662
 30
0.0
 40
2.38125
  0
LINE
  5
2DB
100
AcDbEntity
  8
0
100
AcDbLine
 10
104.915926
 20
108.417231
 30
0.0
 11
105.184244
 21
109.154094
 31
0.0
  0
LINE
  5
2DC
100
AcDbEntity
  8
0
100
AcDbLine
 10
104.367079
 20
111.385652
 30
0.0
 11
104.367079
 21
109.085652
 31
0.0
  0
LINE
  5
2DD
100
AcDbEntity
  8
0
100
AcDbLine
 10
104.167079
 20
111.468642
 30
0.0
 11
104.167079
 21
109.085652
 31
0.0
  0
LINE
  5
2DE
100
AcDbEntity
  8
0
100
AcDbLine
 10
104.817079
 20
108.885652
 30
0.0
 11
104.817079
 21
109.085632
 31
0.0
  0
ARC
  5
2DF
100
AcDbEntity
  8
0
100
AcDbCircle
 10
104.727998
 20
108.485662
 30
0.0
 40
0.2
100
AcDbArc
 50
270.0
 51
339.991645
  0
LINE
  5
2E0
100
AcDbEntity
  8
0
100
AcDbLine
 10
104.66292
 20
108.285662
 30
0.0
 11
104.727998
 21
108.285662
 31
0.0
  0
ARC
  5
2E1
100
AcDbEntity
  8
0
100
AcDbCircle
 10
104.367079
 20
109.085652
 30
0.0
 40
0.2
100
AcDbArc
 50
180.0
 51
270.0
  0
LINE
  5
2E2
100
AcDbEntity
  8
0
100
AcDbLine
 10
103.934079
 20
108.685642
 30
0.0
 11
104.234079
 21
108.685642
 31
0.0
  0
ARC
  5
2E3
100
AcDbEntity
  8
0
100
AcDbCircle
 10
103.934079
 20
108.485642
 30
0.0
 40
0.2
100
AcDbArc
 50
90.0
 51
180.0
  0
LINE
  5
2E4
100
AcDbEntity
  8
0
100
AcDbLine
 10
104.817079
 20
109.085652
 30
0.0
 11
104.367079
 21
109.085652
 31
0.0
  0
LINE
  5
2E5
100
AcDbEntity
  8
0
100
AcDbLine
 10
104.367079
 20
108.885652
 30
0.0
 11
104.817079
 21
108.885652
 31
0.0
  0
LINE
  5
2E6
100
AcDbEntity
  8
0
100
AcDbLine
 10
104.234099
 20
108.685622
 30
0.0
 11
104.5097
 21
108.357118
 31
0.0
  0
ARC
  5
2E7
100
AcDbEntity
  8
0
100
AcDbCircle
 10
104.66292
 20
108.485662
 30
0.0
 40
0.2
100
AcDbArc
 50
219.995196
 51
270.0
  0
ARC
  5
2E8
100
AcDbEntity
  8
0
100
AcDbCircle
 10
104.334079
 20
107.135662
 30
0.0
 40
0.6
100
AcDbArc
 50
180.0
 51
270.0
  0
LINE
  5
2E9
100
AcDbEntity
  8
0
100
AcDbLine
 10
105.117069
 20
112.135672
 30
0.0
 11
104.367069
 21
111.385672
 31
0.0
  0
LINE
  5
2EA
100
AcDbEntity
  8
0
100
AcDbLine
 10
104.873891
 20
113.095626
 30
0.0
 11
104.917089
 21
112.218582
 31
0.0
  0
LINE
  5
2EB
100
AcDbEntity
  8
0
100
AcDbLine
 10
103.834079
 20
112.985642
 30
0.0
 11
104.294079
 21
112.985642
 31
0.0
  0
LINE
  5
2EC
100
AcDbEntity
  8
0
100
AcDbLine
 10
104.472089
 20
112.575622
 30
0.0
 11
104.318978
 21
112.703705
 31
0.0
  0
ARC
  5
2ED
100
AcDbEntity
  8
0
100
AcDbCircle
 10
104.447305
 20
112.857107
 30
0.0
 40
0.2
100
AcDbArc
 50
140.001968
 51
230.086306
  0
ARC
  5
2EE
100
AcDbEntity
  8
0
100
AcDbCircle
 10
103.834079
 20
113.085642
 30
0.0
 40
0.1
100
AcDbArc
 50
180.0
 51
270.0
  0
LINE
  5
2EF
100
AcDbEntity
  8
0
100
AcDbLine
 10
104.917069
 20
112.218662
 30
0.0
 11
104.167079
 21
111.468672
 31
0.0
  0
LINE
  5
2F0
100
AcDbEntity
  8
0
100
AcDbLine
 10
104.600089
 20
112.728612
 30
0.0
 11
104.447099
 21
112.856602
 31
0.0
  0
LINE
  5
2F1
100
AcDbEntity
  8
0
100
AcDbLine
 10
104.472089
 20
112.575642
 30
0.0
 11
104.600079
 21
112.728622
 31
0.0
  0
LINE
  5
2F2
100
AcDbEntity
  8
0
100
AcDbLine
 10
104.447079
 20
112.856632
 30
0.0
 11
104.697405
 21
113.154982
 31
0.0
  0
LINE
  5
2F3
100
AcDbEntity
  8
0
100
AcDbLine
 10
105.117079
 20
112.605652
 30
0.0
 11
105.117079
 21
112.135652
 31
0.0
  0
LINE
  5
2F4
100
AcDbEntity
  8
0
100
AcDbLine
 10
105.072394
 20
113.11647
 30
0.0
 11
105.137053
 21
112.376932
 31
0.0
  0
ARC
  5
2F5
100
AcDbEntity
  8
0
100
AcDbCircle
 10
105.236673
 20
112.385642
 30
0.0
 40
0.1
100
AcDbArc
 50
184.996761
 51
269.999115
  0
LINE
  5
2F6
100
AcDbEntity
  8
0
100
AcDbLine
 10
105.236671
 20
112.285642
 30
0.0
 11
105.884669
 21
112.285632
 31
0.0
  0
ARC
  5
2F7
100
AcDbEntity
  8
0
100
AcDbCircle
 10
105.372173
 20
109.085662
 30
0.0
 40
0.2
100
AcDbArc
 50
90.0
 51
159.991645
  0
LINE
  5
2F8
100
AcDbEntity
  8
0
100
AcDbLine
 10
105.372173
 20
109.285662
 30
0.0
 11
105.884659
 21
109.285662
 31
0.0
  0
LINE
  5
2F9
100
AcDbEntity
  8
0
100
AcDbLine
 10
110.552231
 20
108.417231
 30
0.0
 11
110.283914
 21
109.154094
 31
0.0
  0
LINE
  5
2FA
100
AcDbEntity
  8
0
100
AcDbLine
 10
111.301079
 20
111.468642
 30
0.0
 11
111.301079
 21
109.085652
 31
0.0
  0
LINE
  5
2FB
100
AcDbEntity
  8
0
100
AcDbLine
 10
111.101079
 20
111.385652
 30
0.0
 11
111.101079
 21
109.085652
 31
0.0
  0
LINE
  5
2FC
100
AcDbEntity
  8
0
100
AcDbLine
 10
110.805238
 20
108.285662
 30
0.0
 11
110.74016
 21
108.285662
 31
0.0
  0
LINE
  5
2FD
100
AcDbEntity
  8
0
100
AcDbLine
 10
111.101079
 20
108.885652
 30
0.0
 11
110.651079
 21
108.885652
 31
0.0
  0
LINE
  5
2FE
100
AcDbEntity
  8
0
100
AcDbLine
 10
110.651079
 20
109.085652
 30
0.0
 11
111.101079
 21
109.085652
 31
0.0
  0
LINE
  5
2FF
100
AcDbEntity
  8
0
100
AcDbLine
 10
110.651079
 20
108.885652
 30
0.0
 11
110.651079
 21
109.085632
 31
0.0
  0
ARC
  5
300
100
AcDbEntity
  8
0
100
AcDbCircle
 10
110.74016
 20
108.485662
 30
0.0
 40
0.2
100
AcDbArc
 50
200.008355
 51
270.0
  0
LINE
  5
301
100
AcDbEntity
  8
0
100
AcDbLine
 10
111.534079
 20
108.685642
 30
0.0
 11
111.234079
 21
108.685642
 31
0.0
  0
ARC
  5
302
100
AcDbEntity
  8
0
100
AcDbCircle
 10
110.805238
 20
108.485662
 30
0.0
 40
0.2
100
AcDbArc
 50
270.0
 51
320.004804
  0
LINE
  5
303
100
AcDbEntity
  8
0
100
AcDbLine
 10
111.234059
 20
108.685622
 30
0.0
 11
110.958458
 21
108.357118
 31
0.0
  0
ARC
  5
304
100
AcDbEntity
  8
0
100
AcDbCircle
 10
111.101079
 20
109.085652
 30
0.0
 40
0.2
100
AcDbArc
 50
270.0
 51
0.0
  0
ARC
  5
305
100
AcDbEntity
  8
0
100
AcDbCircle
 10
111.534079
 20
108.485642
 30
0.0
 40
0.2
100
AcDbArc
 50
0.0
 51
90.0
  0
ARC
  5
306
100
AcDbEntity
  8
0
100
AcDbCircle
 10
111.134079
 20
107.135662
 30
0.0
 40
0.6
100
AcDbArc
 50
270.0
 51
0.0
  0
LINE
  5
307
100
AcDbEntity
  8
0
100
AcDbLine
 10
111.021079
 20
112.856632
 30
0.0
 11
110.770753
 21
113.154982
 31
0.0
  0
LINE
  5
308
100
AcDbEntity
  8
0
100
AcDbLine
 10
110.351089
 20
112.135672
 30
0.0
 11
111.101089
 21
111.385672
 31
0.0
  0
LINE
  5
309
100
AcDbEntity
  8
0
100
AcDbLine
 10
110.551089
 20
112.218662
 30
0.0
 11
111.301079
 21
111.468672
 31
0.0
  0
ARC
  5
30A
100
AcDbEntity
  8
0
100
AcDbCircle
 10
110.231485
 20
112.385642
 30
0.0
 40
0.1
100
AcDbArc
 50
270.000885
 51
355.003239
  0
LINE
  5
30B
100
AcDbEntity
  8
0
100
AcDbLine
 10
110.395764
 20
113.11647
 30
0.0
 11
110.331105
 21
112.376932
 31
0.0
  0
LINE
  5
30C
100
AcDbEntity
  8
0
100
AcDbLine
 10
110.594267
 20
113.095626
 30
0.0
 11
110.551069
 21
112.218582
 31
0.0
  0
LINE
  5
30D
100
AcDbEntity
  8
0
100
AcDbLine
 10
110.351079
 20
112.605652
 30
0.0
 11
110.351079
 21
112.135652
 31
0.0
  0
LINE
  5
30E
100
AcDbEntity
  8
0
100
AcDbLine
 10
110.231487
 20
112.285642
 30
0.0
 11
109.583489
 21
112.285632
 31
0.0
  0
ARC
  5
30F
100
AcDbEntity
  8
0
100
AcDbCircle
 10
110.095985
 20
109.085662
 30
0.0
 40
0.2
100
AcDbArc
 50
20.008355
 51
90.0
  0
LINE
  5
310
100
AcDbEntity
  8
0
100
AcDbLine
 10
110.095985
 20
109.285662
 30
0.0
 11
109.583499
 21
109.285662
 31
0.0
  0
LINE
  5
311
100
AcDbEntity
  8
0
100
AcDbLine
 10
111.734079
 20
112.735662
 30
0.0
 11
113.034079
 21
112.735662
 31
0.0
  0
ARC
  5
312
100
AcDbEntity
  8
0
100
AcDbCircle
 10
111.020853
 20
112.857107
 30
0.0
 40
0.2
100
AcDbArc
 50
309.913694
 51
39.998032
  0
LINE
  5
313
100
AcDbEntity
  8
0
100
AcDbLine
 10
110.996069
 20
112.575622
 30
0.0
 11
111.149179
 21
112.703705
 31
0.0
  0
LINE
  5
314
100
AcDbEntity
  8
0
100
AcDbLine
 10
110.996069
 20
112.575642
 30
0.0
 11
110.868079
 21
112.728622
 31
0.0
  0
LINE
  5
315
100
AcDbEntity
  8
0
100
AcDbLine
 10
110.868069
 20
112.728612
 30
0.0
 11
111.021059
 21
112.856602
 31
0.0
  0
LINE
  5
316
100
AcDbEntity
  8
0
100
AcDbLine
 10
111.634079
 20
112.985642
 30
0.0
 11
111.174079
 21
112.985642
 31
0.0
  0
ARC
  5
317
100
AcDbEntity
  8
0
100
AcDbCircle
 10
111.634079
 20
113.085642
 30
0.0
 40
0.1
100
AcDbArc
 50
270.0
 51
0.0
  0
LINE
  5
318
100
AcDbEntity
  8
0
100
AcDbLine
 10
104.334079
 20
114.535662
 30
0.0
 11
111.734079
 21
114.535662
 31
0.0
  0
ARC
  5
319
100
AcDbEntity
  8
0
100
AcDbCircle
 10
104.334079
 20
113.935662
 30
0.0
 40
0.6
100
AcDbArc
 50
90.0
 51
180.0
  0
LINE
  5
31A
100
AcDbEntity
  8
0
100
AcDbLine
 10
111.734079
 20
115.235662
 30
0.0
 11
113.034079
 21
115.235662
 31
0.0
  0
ARC
  5
31B
100
AcDbEntity
  8
0
100
AcDbCircle
 10
111.134079
 20
113.935662
 30
0.0
 40
0.6
100
AcDbArc
 50
0.0
 51
90.0
  0
CIRCLE
  5
31C
100
AcDbEntity
  8
CENTER
  6
CENTER
 62
     1
100
AcDbCircle
 10
198.001689
 20
100.535662
 30
0.0
 40
22.0
  0
LINE
  5
31D
100
AcDbEntity
  8
CENTER
  6
CENTER
 62
     1
100
AcDbLine
 10
198.001689
 20
68.440476
 30
0.0
 11
198.001689
 21
132.630849
 31
0.0
  0
CIRCLE
  5
31E
100
AcDbEntity
  8
0
100
AcDbCircle
 10
198.001689
 20
100.535662
 30
0.0
 40
17.0
  0
CIRCLE
  5
31F
100
AcDbEntity
  8
0
100
AcDbCircle
 10
198.001689
 20
100.535662
 30
0.0
 40
6.0
  0
CIRCLE
  5
320
100
AcDbEntity
  8
0
100
AcDbCircle
 10
198.001689
 20
100.535662
 30
0.0
 40
14.0
  0
CIRCLE
  5
321
100
AcDbEntity
  8
0
100
AcDbCircle
 10
198.001689
 20
100.535662
 30
0.0
 40
27.0
  0
LINE
  5
322
100
AcDbEntity
  8
CENTER
  6
CENTER
 62
     1
100
AcDbLine
 10
165.906502
 20
100.535662
 30
0.0
 11
230.096876
 21
100.535662
 31
0.0
  0
CIRCLE
  5
323
100
AcDbEntity
  8
0
100
AcDbCircle
 10
198.001689
 20
78.535662
 30
0.0
 40
4.0
  0
CIRCLE
  5
324
100
AcDbEntity
  8
0
100
AcDbCircle
 10
176.001689
 20
100.535662
 30
0.0
 40
4.0
  0
CIRCLE
  5
325
100
AcDbEntity
  8
0
100
AcDbCircle
 10
176.001689
 20
100.535662
 30
0.0
 40
2.15
  0
LINE
  5
326
100
AcDbEntity
  8
CENTER
  6
CENTER
 62
     1
100
AcDbLine
 10
213.001689
 20
100.535662
 30
0.0
 11
225.001689
 21
100.535662
 31
0.0
  0
CIRCLE
  5
327
100
AcDbEntity
  8
0
100
AcDbCircle
 10
220.001689
 20
100.535662
 30
0.0
 40
2.15
  0
CIRCLE
  5
328
100
AcDbEntity
  8
0
100
AcDbCircle
 10
220.001689
 20
100.535662
 30
0.0
 40
4.0
  0
CIRCLE
  5
329
100
AcDbEntity
  8
0
100
AcDbCircle
 10
198.001689
 20
78.535662
 30
0.0
 40
2.15
  0
CIRCLE
  5
32A
100
AcDbEntity
  8
0
100
AcDbCircle
 10
198.001689
 20
122.535662
 30
0.0
 40
4.0
  0
CIRCLE
  5
32B
100
AcDbEntity
  8
0
100
AcDbCircle
 10
198.001689
 20
122.535662
 30
0.0
 40
2.15
  0
ENDSEC
  0
SECTION
  2
OBJECTS
  0
DICTIONARY
  5
19B
100
AcDbDictionary
  3
ACAD_GROUP
350
19C
  3
ACAD_LAYOUT
350
1A8
  3
ACAD_MLINESTYLE
350
1A5
  3
ACAD_PLOTSETTINGS
350
1A7
  3
ACAD_PLOTSTYLENAME
350
19D
  3
ACDBHEADERROUNDTRIPXREC
350
338
  3
AcDbVariableDictionary
350
361
  0
DICTIONARY
  5
336
100
AcDbDictionary
280
     1
  3
ACAD_XREC_ROUNDTRIP
360
337
  0
DICTIONARY
  5
332
100
AcDbDictionary
280
     1
  3
ACAD_XREC_ROUNDTRIP
360
333
  0
DICTIONARY
  5
334
100
AcDbDictionary
280
     1
  3
ACAD_XREC_ROUNDTRIP
360
335
  0
DICTIONARY
  5
35F
100
AcDbDictionary
280
     1
  3
ACAD_XREC_ROUNDTRIP
360
360
  0
DICTIONARY
  5
32E
100
AcDbDictionary
280
     1
  3
ACAD_LAYOUTSELFREF
360
35E
  3
ACAD_XREC_ROUNDTRIP
360
32F
  0
DICTIONARY
  5
330
100
AcDbDictionary
280
     1
  3
ACAD_LAYOUTSELFREF
360
35D
  3
ACAD_XREC_ROUNDTRIP
360
331
  0
DICTIONARY
  5
19C
102
{ACAD_REACTORS
330
19B
102
}
100
AcDbDictionary
  0
DICTIONARY
  5
1A8
102
{ACAD_XDICTIONARY
360
35B
102
}
102
{ACAD_REACTORS
330
19B
102
}
100
AcDbDictionary
  3
MODEL
350
1B0
  3
ﾚｲｱｳﾄ1
350
1AC
  0
DICTIONARY
  5
1A5
102
{ACAD_XDICTIONARY
360
359
102
}
102
{ACAD_REACTORS
330
19B
102
}
100
AcDbDictionary
  3
STANDARD
350
1A6
  0
DICTIONARY
  5
1A7
102
{ACAD_REACTORS
330
19B
102
}
100
AcDbDictionary
  0
ACAD_PROXY_OBJECT
  5
19D
102
{ACAD_REACTORS
330
19B
102
}
100
AcDbProxyObject
 90
      499
 91
      500
 93
       86
310
405010041939BDC9B585B2
350
19E
340
19E
 94
        0
  0
DICTIONARY
  5
338
102
{ACAD_REACTORS
330
19B
102
}
100
AcDbDictionary
  3
CEPSNTYPE
350
342
  3
DIMSTYLEDATA
350
346
  3
FINGERPRINTGUID
350
343
  3
HYPERLINKBASE
350
33B
  3
INSUNITS
350
341
  3
LAYOUTDICT
350
33D
  3
LWETCUNION
350
340
  3
PLOTSETDICT
350
33E
  3
PLOTSTYLNAMDICT
350
33F
  3
PSVPSCALE
350
345
  3
PUCSBASE
350
349
  3
PUCSORGBACK
350
34F
  3
PUCSORGBOTTOM
350
34B
  3
PUCSORGFRONT
350
34E
  3
PUCSORGLEFT
350
34C
  3
PUCSORGRIGHT
350
34D
  3
PUCSORGTOP
350
34A
  3
PUCSORTHOREF
350
347
  3
PUCSORTHOVIEW
350
348
  3
STYLESHEET
350
33C
  3
TSTACKALIGN
350
339
  3
TSTACKSIZE
350
33A
  3
UCSBASE
350
352
  3
UCSORGBACK
350
358
  3
UCSORGBOTTOM
350
354
  3
UCSORGFRONT
350
357
  3
UCSORGLEFT
350
355
  3
UCSORGRIGHT
350
356
  3
UCSORGTOP
350
353
  3
UCSORTHOREF
350
350
  3
UCSORTHOVIEW
350
351
  3
VERSIONGUID
350
344
  0
DICTIONARY
  5
361
102
{ACAD_REACTORS
330
19B
102
}
100
AcDbDictionary
  3
DIMASSOC
350
362
  0
XRECORD
  5
337
102
{ACAD_REACTORS
330
336
102
}
100
AcDbXrecord
102
EXTNAMES
  1
*ACTIVE
  2
*Active
102
UCS
 74
     0
 71
     0
 10
0.0
 20
0.0
 30
0.0
 10
1.0
 20
0.0
 30
0.0
 10
0.0
 20
1.0
 30
0.0
146
0.0
 79
     0
102
VIEW
281
     0
  0
XRECORD
  5
333
102
{ACAD_REACTORS
330
332
102
}
100
AcDbXrecord
102
EXTNAMES
  1
BYBLOCK
  2
ByBlock
  0
XRECORD
  5
335
102
{ACAD_REACTORS
330
334
102
}
100
AcDbXrecord
102
EXTNAMES
  1
BYLAYER
  2
ByLayer
  0
XRECORD
  5
360
102
{ACAD_REACTORS
330
35F
102
}
100
AcDbXrecord
102
ACADR14ROUNDTRIP
1000
DSTYLE
1002
{
1070
   279
 70
     2
1002
}
  0
XRECORD
  5
35E
102
{ACAD_REACTORS
330
32E
102
}
100
AcDbXrecord
340
1AD
  0
XRECORD
  5
32F
102
{ACAD_REACTORS
330
32E
102
}
100
AcDbXrecord
102
EXTNAMES
  1
*MODEL_SPACE
  2
*Model_Space
  0
XRECORD
  5
35D
102
{ACAD_REACTORS
330
330
102
}
100
AcDbXrecord
340
1A9
  0
XRECORD
  5
331
102
{ACAD_REACTORS
330
330
102
}
100
AcDbXrecord
102
EXTNAMES
  1
*PAPER_SPACE
  2
*Paper_Space
  0
DICTIONARY
  5
35B
100
AcDbDictionary
280
     1
  3
ACAD_XREC_ROUNDTRIP
360
35C
  0
ACAD_PROXY_OBJECT
  5
1B0
102
{ACAD_REACTORS
330
1A8
102
}
100
AcDbProxyObject
 90
      499
 91
      502
 93
      836
310
932433A5C50524F4752414D2046494C45535C4D4454365C706C6F74746572735C526F6C616E64204458592D313235302E7063332C01AAAAAAAAA5A69054D6F64656C901A800000000000000000000000000000000000000000000A1000000000000008902A6A6AAAAF
330
1AD
330
0
340
0
340
0
 94
        0
  0
ACAD_PROXY_OBJECT
  5
1AC
102
{ACAD_REACTORS
330
1A8
102
}
100
AcDbProxyObject
 90
      499
 91
      502
 93
     1244
310
932433A5C50524F4752414D2046494C45535C4D4454365C706C6F74746572735C526F6C616E64204458592D313235302E7063332C00AAAAAA416AA59106906DAB2B1B3C431406A800000000000000000000000000000000000000000101E900000000000241C902A6A6A10232D5E076BC5510408CB5781DAF154410232D5E0
310
76BC5510408CB5781DAF15C410232D5E076BC5710408CB5781DAF15C42
330
1A9
330
0
340
0
340
0
 94
        0
  0
DICTIONARY
  5
359
100
AcDbDictionary
280
     1
  3
ACAD_XREC_ROUNDTRIP
360
35A
  0
MLINESTYLE
  5
1A6
102
{ACAD_REACTORS
330
1A5
102
}
100
AcDbMlineStyle
  2
STANDARD
 70
     0
  3

 62
   256
 51
90.0
 52
90.0
 71
     2
 49
0.5
 62
   256
  6
BYLAYER
 49
-0.5
 62
   256
  6
BYLAYER
  0
ACAD_PROXY_OBJECT
  5
19E
102
{ACAD_REACTORS
330
19D
102
}
100
AcDbProxyObject
 90
      499
 91
      501
 93
        0
 94
        0
  0
XRECORD
  5
342
102
{ACAD_REACTORS
330
338
102
}
100
AcDbXrecord
 90
        0
  0
XRECORD
  5
346
102
{ACAD_REACTORS
330
338
102
}
100
AcDbXrecord
1000
DSTYLE
1002
{
1070
   341
340
1C3
1070
   343
340
1C3
1070
   344
340
1BD
1002
}
  0
XRECORD
  5
343
102
{ACAD_REACTORS
330
338
102
}
100
AcDbXrecord
  1
{E77FC982-B012-46BC-BD3D-A718F902D280}
  0
XRECORD
  5
33B
102
{ACAD_REACTORS
330
338
102
}
100
AcDbXrecord
  1

  0
XRECORD
  5
341
102
{ACAD_REACTORS
330
338
102
}
100
AcDbXrecord
 90
        0
  0
XRECORD
  5
33D
102
{ACAD_REACTORS
330
338
102
}
100
AcDbXrecord
340
1A8
  0
XRECORD
  5
340
102
{ACAD_REACTORS
330
338
102
}
100
AcDbXrecord
 90
    10781
  0
XRECORD
  5
33E
102
{ACAD_REACTORS
330
338
102
}
100
AcDbXrecord
340
1A7
  0
XRECORD
  5
33F
102
{ACAD_REACTORS
330
338
102
}
100
AcDbXrecord
340
19D
  0
XRECORD
  5
345
102
{ACAD_REACTORS
330
338
102
}
100
AcDbXrecord
 40
0.0
  0
XRECORD
  5
349
102
{ACAD_REACTORS
330
338
102
}
100
AcDbXrecord
340
0
  0
XRECORD
  5
34F
102
{ACAD_REACTORS
330
338
102
}
100
AcDbXrecord
 10
0.0
 20
0.0
 30
0.0
  0
XRECORD
  5
34B
102
{ACAD_REACTORS
330
338
102
}
100
AcDbXrecord
 10
0.0
 20
0.0
 30
0.0
  0
XRECORD
  5
34E
102
{ACAD_REACTORS
330
338
102
}
100
AcDbXrecord
 10
0.0
 20
0.0
 30
0.0
  0
XRECORD
  5
34C
102
{ACAD_REACTORS
330
338
102
}
100
AcDbXrecord
 10
0.0
 20
0.0
 30
0.0
  0
XRECORD
  5
34D
102
{ACAD_REACTORS
330
338
102
}
100
AcDbXrecord
 10
0.0
 20
0.0
 30
0.0
  0
XRECORD
  5
34A
102
{ACAD_REACTORS
330
338
102
}
100
AcDbXrecord
 10
0.0
 20
0.0
 30
0.0
  0
XRECORD
  5
347
102
{ACAD_REACTORS
330
338
102
}
100
AcDbXrecord
340
0
  0
XRECORD
  5
348
102
{ACAD_REACTORS
330
338
102
}
100
AcDbXrecord
 70
     0
  0
XRECORD
  5
33C
102
{ACAD_REACTORS
330
338
102
}
100
AcDbXrecord
  1

  0
XRECORD
  5
339
102
{ACAD_REACTORS
330
338
102
}
100
AcDbXrecord
 90
        1
  0
XRECORD
  5
33A
102
{ACAD_REACTORS
330
338
102
}
100
AcDbXrecord
 90
       70
  0
XRECORD
  5
352
102
{ACAD_REACTORS
330
338
102
}
100
AcDbXrecord
340
0
  0
XRECORD
  5
358
102
{ACAD_REACTORS
330
338
102
}
100
AcDbXrecord
 10
0.0
 20
0.0
 30
0.0
  0
XRECORD
  5
354
102
{ACAD_REACTORS
330
338
102
}
100
AcDbXrecord
 10
0.0
 20
0.0
 30
0.0
  0
XRECORD
  5
357
102
{ACAD_REACTORS
330
338
102
}
100
AcDbXrecord
 10
0.0
 20
0.0
 30
0.0
  0
XRECORD
  5
355
102
{ACAD_REACTORS
330
338
102
}
100
AcDbXrecord
 10
0.0
 20
0.0
 30
0.0
  0
XRECORD
  5
356
102
{ACAD_REACTORS
330
338
102
}
100
AcDbXrecord
 10
0.0
 20
0.0
 30
0.0
  0
XRECORD
  5
353
102
{ACAD_REACTORS
330
338
102
}
100
AcDbXrecord
 10
0.0
 20
0.0
 30
0.0
  0
XRECORD
  5
350
102
{ACAD_REACTORS
330
338
102
}
100
AcDbXrecord
340
0
  0
XRECORD
  5
351
102
{ACAD_REACTORS
330
338
102
}
100
AcDbXrecord
 70
     0
  0
XRECORD
  5
344
102
{ACAD_REACTORS
330
338
102
}
100
AcDbXrecord
  1
{D992EAF6-FBB1-4425-AA8F-C0642270159E}
  0
DICTIONARYVAR
  5
362
102
{ACAD_REACTORS
330
361
102
}
100
DictionaryVariables
280
     0
  1
1
  0
XRECORD
  5
35C
102
{ACAD_REACTORS
330
35B
102
}
100
AcDbXrecord
102
EXTNAMES
  1
MODEL
  2
Model
  0
XRECORD
  5
35A
102
{ACAD_REACTORS
330
359
102
}
100
AcDbXrecord
102
EXTNAMES
  1
STANDARD
  2
Standard
  0
ENDSEC
  0
EOF
