  0
SECTION
  2
HEADER
  9
$ACADVER
  1
AC1014
  9
$ACADMAINTVER
 70
     0
  9
$DWGCODEPAGE
  3
ANSI_932
  9
$INSBASE
 10
0.0
 20
0.0
 30
0.0
  9
$EXTMIN
 10
23.5
 20
14.2
 30
0.0
  9
$EXTMAX
 10
135.5
 20
77.5
 30
0.0
  9
$LIMMIN
 10
0.0
 20
0.0
  9
$LIMMAX
 10
420.0
 20
297.0
  9
$ORTHOMODE
 70
     1
  9
$REGENMODE
 70
     1
  9
$FILLMODE
 70
     1
  9
$QTEXTMODE
 70
     0
  9
$MIRRTEXT
 70
     1
  9
$DRAGMODE
 70
     2
  9
$LTSCALE
 40
0.25
  9
$OSMODE
 70
   545
  9
$ATTMODE
 70
     1
  9
$TEXTSIZE
 40
2.0
  9
$TRACEWID
 40
1.0
  9
$TEXTSTYLE
  7
STANDARD
  9
$CLAYER
  8
0
  9
$CELTYPE
  6
BYLAYER
  9
$CECOLOR
 62
   256
  9
$CELTSCALE
 40
1.0
  9
$DELOBJ
 70
     1
  9
$DISPSILH
 70
     0
  9
$DIMSCALE
 40
1.0
  9
$DIMASZ
 40
2.5
  9
$DIMEXO
 40
0.625
  9
$DIMDLI
 40
3.75
  9
$DIMRND
 40
0.0
  9
$DIMDLE
 40
0.0
  9
$DIMEXE
 40
1.25
  9
$DIMTP
 40
0.0
  9
$DIMTM
 40
0.0
  9
$DIMTXT
 40
2.5
  9
$DIMCEN
 40
2.5
  9
$DIMTSZ
 40
0.0
  9
$DIMTOL
 70
     0
  9
$DIMLIM
 70
     0
  9
$DIMTIH
 70
     0
  9
$DIMTOH
 70
     0
  9
$DIMSE1
 70
     0
  9
$DIMSE2
 70
     0
  9
$DIMTAD
 70
     1
  9
$DIMZIN
 70
     8
  9
$DIMBLK
  1

  9
$DIMASO
 70
     1
  9
$DIMSHO
 70
     1
  9
$DIMPOST
  1

  9
$DIMAPOST
  1

  9
$DIMALT
 70
     0
  9
$DIMALTD
 70
     4
  9
$DIMALTF
 40
0.0394
  9
$DIMLFAC
 40
1.0
  9
$DIMTOFL
 70
     1
  9
$DIMTVP
 40
0.0
  9
$DIMTIX
 70
     0
  9
$DIMSOXD
 70
     0
  9
$DIMSAH
 70
     0
  9
$DIMBLK1
  1

  9
$DIMBLK2
  1

  9
$DIMSTYLE
  2
ISO-25
  9
$DIMCLRD
 70
     0
  9
$DIMCLRE
 70
     0
  9
$DIMCLRT
 70
     0
  9
$DIMTFAC
 40
1.0
  9
$DIMGAP
 40
0.625
  9
$DIMJUST
 70
     0
  9
$DIMSD1
 70
     0
  9
$DIMSD2
 70
     0
  9
$DIMTOLJ
 70
     1
  9
$DIMTZIN
 70
     0
  9
$DIMALTZ
 70
     0
  9
$DIMALTTZ
 70
     0
  9
$DIMFIT
 70
     3
  9
$DIMUPT
 70
     0
  9
$DIMUNIT
 70
     2
  9
$DIMDEC
 70
     4
  9
$DIMTDEC
 70
     4
  9
$DIMALTU
 70
     2
  9
$DIMALTTD
 70
     2
  9
$DIMTXSTY
  7
STANDARD
  9
$DIMAUNIT
 70
     0
  9
$LUNITS
 70
     2
  9
$LUPREC
 70
     2
  9
$SKETCHINC
 40
1.0
  9
$FILLETRAD
 40
2.5
  9
$AUNITS
 70
     0
  9
$AUPREC
 70
     0
  9
$MENU
  1
.
  9
$ELEVATION
 40
0.0
  9
$PELEVATION
 40
0.0
  9
$THICKNESS
 40
0.0
  9
$LIMCHECK
 70
     0
  9
$BLIPMODE
 70
     0
  9
$CHAMFERA
 40
2.5
  9
$CHAMFERB
 40
2.5
  9
$CHAMFERC
 40
0.0
  9
$CHAMFERD
 40
0.0
  9
$SKPOLY
 70
     1
  9
$TDCREATE
 40
2451788.667148263
  9
$TDUPDATE
 40
2452950.767044676
  9
$TDINDWG
 40
0.0015638889
  9
$TDUSRTIMER
 40
0.0015638889
  9
$USRTIMER
 70
     1
  9
$ANGBASE
 50
0.0
  9
$ANGDIR
 70
     0
  9
$PDMODE
 70
     0
  9
$PDSIZE
 40
0.0
  9
$PLINEWID
 40
0.0
  9
$COORDS
 70
     1
  9
$SPLFRAME
 70
     0
  9
$SPLINETYPE
 70
     6
  9
$SPLINESEGS
 70
     8
  9
$ATTDIA
 70
     1
  9
$ATTREQ
 70
     1
  9
$HANDLING
 70
     1
  9
$HANDSEED
  5
8B
  9
$SURFTAB1
 70
     6
  9
$SURFTAB2
 70
     6
  9
$SURFTYPE
 70
     6
  9
$SURFU
 70
     6
  9
$SURFV
 70
     6
  9
$UCSNAME
  2

  9
$UCSORG
 10
0.0
 20
0.0
 30
0.0
  9
$UCSXDIR
 10
1.0
 20
0.0
 30
0.0
  9
$UCSYDIR
 10
0.0
 20
1.0
 30
0.0
  9
$PUCSNAME
  2

  9
$PUCSORG
 10
0.0
 20
0.0
 30
0.0
  9
$PUCSXDIR
 10
1.0
 20
0.0
 30
0.0
  9
$PUCSYDIR
 10
0.0
 20
1.0
 30
0.0
  9
$USERI1
 70
     0
  9
$USERI2
 70
     0
  9
$USERI3
 70
     0
  9
$USERI4
 70
     0
  9
$USERI5
 70
     0
  9
$USERR1
 40
0.0
  9
$USERR2
 40
0.0
  9
$USERR3
 40
0.0
  9
$USERR4
 40
0.0
  9
$USERR5
 40
0.0
  9
$WORLDVIEW
 70
     1
  9
$SHADEDGE
 70
     3
  9
$SHADEDIF
 70
    70
  9
$TILEMODE
 70
     1
  9
$MAXACTVP
 70
    48
  9
$PINSBASE
 10
0.0
 20
0.0
 30
0.0
  9
$PLIMCHECK
 70
     0
  9
$PEXTMIN
 10
1.000000E+20
 20
1.000000E+20
 30
1.000000E+20
  9
$PEXTMAX
 10
-1.000000E+20
 20
-1.000000E+20
 30
-1.000000E+20
  9
$PLIMMIN
 10
0.0
 20
0.0
  9
$PLIMMAX
 10
420.0
 20
297.0
  9
$UNITMODE
 70
     0
  9
$VISRETAIN
 70
     1
  9
$PLINEGEN
 70
     0
  9
$PSLTSCALE
 70
     1
  9
$TREEDEPTH
 70
  3020
  9
$PICKSTYLE
 70
     1
  9
$CMLSTYLE
  2
STANDARD
  9
$CMLJUST
 70
     0
  9
$CMLSCALE
 40
1.0
  9
$PROXYGRAPHICS
 70
     1
  9
$MEASUREMENT
 70
     0
  0
ENDSEC
  0
SECTION
  2
CLASSES
  0
ENDSEC
  0
SECTION
  2
TABLES
  0
TABLE
  2
VPORT
  5
63
100
AcDbSymbolTable
 70
     1
  0
VPORT
  5
86
100
AcDbSymbolTableRecord
100
AcDbViewportTableRecord
  2
*ACTIVE
 70
     0
 10
0.0
 20
0.0
 11
1.0
 21
1.0
 12
78.5
 22
50.5
 13
0.0
 23
0.0
 14
1.0
 24
1.0
 15
10.0
 25
10.0
 16
0.0
 26
0.0
 36
1.0
 17
0.0
 27
0.0
 37
0.0
 40
96.946411
 41
1.454412
 42
50.0
 43
0.0
 44
0.0
 50
0.0
 51
0.0
 71
     0
 72
   100
 73
     1
 74
     1
 75
     1
 76
     1
 77
     0
 78
     0
  0
ENDTAB
  0
TABLE
  2
LTYPE
  5
60
100
AcDbSymbolTable
 70
     3
  0
LTYPE
  5
6D
100
AcDbSymbolTableRecord
100
AcDbLinetypeTableRecord
  2
BYBLOCK
 70
     0
  3

 72
    65
 73
     0
 40
0.0
  0
LTYPE
  5
6E
100
AcDbSymbolTableRecord
100
AcDbLinetypeTableRecord
  2
BYLAYER
 70
     0
  3

 72
    65
 73
     0
 40
0.0
  0
LTYPE
  5
6F
100
AcDbSymbolTableRecord
100
AcDbLinetypeTableRecord
  2
CONTINUOUS
 70
     0
  3
Solid line
 72
    65
 73
     0
 40
0.0
  0
LTYPE
  5
7A
100
AcDbSymbolTableRecord
100
AcDbLinetypeTableRecord
  2
CENTER
 70
     0
  3
Center ____ _ ____ _ ____ _ ____ _ ____ _ ____
 72
    65
 73
     4
 40
50.8
 49
31.75
 74
     0
 49
-6.35
 74
     0
 49
6.35
 74
     0
 49
-6.35
 74
     0
  0
LTYPE
  5
7B
100
AcDbSymbolTableRecord
100
AcDbLinetypeTableRecord
  2
DASHED
 70
     0
  3
Dashed __ __ __ __ __ __ __ __ __ __ __ __ __ _
 72
    65
 73
     2
 40
19.05
 49
12.7
 74
     0
 49
-6.35
 74
     0
  0
ENDTAB
  0
TABLE
  2
LAYER
  5
5D
100
AcDbSymbolTable
 70
     2
  0
LAYER
  5
69
100
AcDbSymbolTableRecord
100
AcDbLayerTableRecord
  2
0
 70
     0
 62
     7
  6
CONTINUOUS
  0
LAYER
  5
7C
100
AcDbSymbolTableRecord
100
AcDbLayerTableRecord
  2
CENTER
 70
     0
 62
     1
  6
CENTER
  0
ENDTAB
  0
TABLE
  2
STYLE
  5
5E
100
AcDbSymbolTable
 70
     1
  0
STYLE
  5
6A
100
AcDbSymbolTableRecord
100
AcDbTextStyleTableRecord
  2
STANDARD
 70
     0
 40
0.0
 41
1.0
 50
0.0
 71
     0
 42
2.0
  3
txt.shx
  4
extfont.shx
  0
ENDTAB
  0
TABLE
  2
VIEW
  5
61
100
AcDbSymbolTable
 70
     0
  0
ENDTAB
  0
TABLE
  2
UCS
  5
62
100
AcDbSymbolTable
 70
     0
  0
ENDTAB
  0
TABLE
  2
APPID
  5
64
100
AcDbSymbolTable
 70
     1
  0
APPID
  5
6B
100
AcDbSymbolTableRecord
100
AcDbRegAppTableRecord
  2
ACAD
 70
     0
  0
ENDTAB
  0
TABLE
  2
DIMSTYLE
  5
65
100
AcDbSymbolTable
 70
     1
  0
DIMSTYLE
105
7D
100
AcDbSymbolTableRecord
100
AcDbDimStyleTableRecord
  2
ISO-25
 70
     0
  3

  4

  5

  6

  7

 40
1.0
 41
2.5
 42
0.625
 43
3.75
 44
1.25
 45
0.0
 46
0.0
 47
0.0
 48
0.0
140
2.5
141
2.5
142
0.0
143
0.0394
144
1.0
145
0.0
146
1.0
147
0.625
 71
     0
 72
     0
 73
     0
 74
     0
 75
     0
 76
     0
 77
     1
 78
     8
170
     0
171
     4
172
     1
173
     0
174
     0
175
     0
176
     0
177
     0
178
     0
270
     2
271
     4
272
     4
273
     2
274
     2
340
6A
275
     0
280
     0
281
     0
282
     0
283
     1
284
     0
285
     0
286
     0
287
     3
288
     0
  0
ENDTAB
  0
TABLE
  2
BLOCK_RECORD
  5
5C
100
AcDbSymbolTable
 70
     2
  0
BLOCK_RECORD
  5
73
100
AcDbSymbolTableRecord
100
AcDbBlockTableRecord
  2
*MODEL_SPACE
  0
BLOCK_RECORD
  5
70
100
AcDbSymbolTableRecord
100
AcDbBlockTableRecord
  2
*PAPER_SPACE
  0
BLOCK_RECORD
  5
7F
100
AcDbSymbolTableRecord
100
AcDbBlockTableRecord
  2
$MODEL_SPACE
  0
BLOCK_RECORD
  5
81
100
AcDbSymbolTableRecord
100
AcDbBlockTableRecord
  2
$PAPER_SPACE
  0
ENDTAB
  0
ENDSEC
  0
SECTION
  2
BLOCKS
  0
BLOCK
  5
74
100
AcDbEntity
  8
0
100
AcDbBlockBegin
  2
*MODEL_SPACE
 70
     0
 10
0.0
 20
0.0
 30
0.0
  3
*MODEL_SPACE
  1

  0
ENDBLK
  5
75
100
AcDbEntity
  8
0
100
AcDbBlockEnd
  0
BLOCK
  5
71
100
AcDbEntity
 67
     1
  8
0
100
AcDbBlockBegin
  2
*PAPER_SPACE
 70
     0
 10
0.0
 20
0.0
 30
0.0
  3
*PAPER_SPACE
  1

  0
ENDBLK
  5
72
100
AcDbEntity
 67
     1
  8
0
100
AcDbBlockEnd
  0
BLOCK
  5
80
100
AcDbEntity
  8
0
100
AcDbBlockBegin
  2
$MODEL_SPACE
 70
     0
 10
0.0
 20
0.0
 30
0.0
  3
$MODEL_SPACE
  1

  0
ENDBLK
  5
6
100
AcDbEntity
  8
0
100
AcDbBlockEnd
  0
BLOCK
  5
82
100
AcDbEntity
  8
0
100
AcDbBlockBegin
  2
$PAPER_SPACE
 70
     0
 10
0.0
 20
0.0
 30
0.0
  3
$PAPER_SPACE
  1

  0
ENDBLK
  5
9
100
AcDbEntity
  8
0
100
AcDbBlockEnd
  0
ENDSEC
  0
SECTION
  2
ENTITIES
  0
LINE
  5
1D
100
AcDbEntity
  8
0
  6
DASHED
 62
     3
100
AcDbLine
 10
33.0
 20
64.0
 30
0.0
 11
33.0
 21
36.0
 31
0.0
  0
LINE
  5
1F
100
AcDbEntity
  8
0
  6
DASHED
 62
     3
100
AcDbLine
 10
42.0
 20
64.0
 30
0.0
 11
42.0
 21
36.0
 31
0.0
  0
LINE
  5
20
100
AcDbEntity
  8
0
100
AcDbLine
 10
42.0
 20
67.0
 30
0.0
 11
42.0
 21
33.0
 31
0.0
  0
LINE
  5
21
100
AcDbEntity
  8
0
100
AcDbLine
 10
50.0
 20
76.0
 30
0.0
 11
50.0
 21
50.0
 31
0.0
  0
LINE
  5
22
100
AcDbEntity
  8
0
100
AcDbLine
 10
25.0
 20
50.0
 30
0.0
 11
25.0
 21
67.0
 31
0.0
  0
LINE
  5
25
100
AcDbEntity
  8
CENTER
  6
CENTER
 62
     1
100
AcDbLine
 10
23.5
 20
50.0
 30
0.0
 11
51.5
 21
50.0
 31
0.0
  0
LINE
  5
2A
100
AcDbEntity
  8
CENTER
  6
CENTER
 62
     1
100
AcDbLine
 10
40.5
 20
29.0
 30
0.0
 11
51.5
 21
29.0
 31
0.0
  0
LINE
  5
2B
100
AcDbEntity
  8
0
  6
DASHED
 62
     3
100
AcDbLine
 10
50.0
 20
25.0
 30
0.0
 11
45.9
 21
25.0
 31
0.0
  0
LINE
  5
2C
100
AcDbEntity
  8
0
  6
DASHED
 62
     3
100
AcDbLine
 10
50.0
 20
33.0
 30
0.0
 11
45.9
 21
33.0
 31
0.0
  0
LINE
  5
2D
100
AcDbEntity
  8
0
  6
DASHED
 62
     3
100
AcDbLine
 10
50.0
 20
44.0
 30
0.0
 11
42.0
 21
44.0
 31
0.0
  0
LINE
  5
2E
100
AcDbEntity
  8
0
  6
DASHED
 62
     3
100
AcDbLine
 10
50.0
 20
36.0
 30
0.0
 11
42.0
 21
36.0
 31
0.0
  0
LINE
  5
2F
100
AcDbEntity
  8
0
100
AcDbLine
 10
42.0
 20
24.0
 30
0.0
 11
50.0
 21
24.0
 31
0.0
  0
LINE
  5
30
100
AcDbEntity
  8
0
  6
DASHED
 62
     3
100
AcDbLine
 10
45.9
 20
33.0
 30
0.0
 11
45.9
 21
29.0
 31
0.0
  0
LINE
  5
31
100
AcDbEntity
  8
0
100
AcDbLine
 10
42.0
 20
33.0
 30
0.0
 11
42.0
 21
24.0
 31
0.0
  0
LINE
  5
32
100
AcDbEntity
  8
0
  6
DASHED
 62
     3
100
AcDbLine
 10
45.9
 20
25.0
 30
0.0
 11
45.9
 21
29.0
 31
0.0
  0
LINE
  5
33
100
AcDbEntity
  8
0
  6
DASHED
 62
     3
100
AcDbLine
 10
45.9
 20
26.75
 30
0.0
 11
42.0
 21
26.75
 31
0.0
  0
LINE
  5
34
100
AcDbEntity
  8
0
  6
DASHED
 62
     3
100
AcDbLine
 10
45.9
 20
31.25
 30
0.0
 11
42.0
 21
31.25
 31
0.0
  0
LINE
  5
35
100
AcDbEntity
  8
0
  6
DASHED
 62
     3
100
AcDbLine
 10
25.0
 20
44.0
 30
0.0
 11
33.0
 21
44.0
 31
0.0
  0
LINE
  5
36
100
AcDbEntity
  8
0
  6
DASHED
 62
     3
100
AcDbLine
 10
25.0
 20
36.0
 30
0.0
 11
33.0
 21
36.0
 31
0.0
  0
LINE
  5
37
100
AcDbEntity
  8
0
100
AcDbLine
 10
25.0
 20
33.0
 30
0.0
 11
42.0
 21
33.0
 31
0.0
  0
LINE
  5
38
100
AcDbEntity
  8
0
100
AcDbLine
 10
25.0
 20
50.0
 30
0.0
 11
25.0
 21
33.0
 31
0.0
  0
LINE
  5
39
100
AcDbEntity
  8
0
  6
DASHED
 62
     3
100
AcDbLine
 10
33.0
 20
38.0
 30
0.0
 11
42.0
 21
38.0
 31
0.0
  0
LINE
  5
3A
100
AcDbEntity
  8
0
100
AcDbLine
 10
50.0
 20
24.0
 30
0.0
 11
50.0
 21
50.0
 31
0.0
  0
LINE
  5
3B
100
AcDbEntity
  8
CENTER
  6
CENTER
 62
     1
100
AcDbLine
 10
40.5
 20
71.0
 30
0.0
 11
51.5
 21
71.0
 31
0.0
  0
LINE
  5
3C
100
AcDbEntity
  8
0
  6
DASHED
 62
     3
100
AcDbLine
 10
50.0
 20
56.0
 30
0.0
 11
42.0
 21
56.0
 31
0.0
  0
LINE
  5
3D
100
AcDbEntity
  8
0
  6
DASHED
 62
     3
100
AcDbLine
 10
50.0
 20
75.0
 30
0.0
 11
45.9
 21
75.0
 31
0.0
  0
LINE
  5
3E
100
AcDbEntity
  8
0
  6
DASHED
 62
     3
100
AcDbLine
 10
50.0
 20
67.0
 30
0.0
 11
45.9
 21
67.0
 31
0.0
  0
LINE
  5
3F
100
AcDbEntity
  8
0
  6
DASHED
 62
     3
100
AcDbLine
 10
50.0
 20
64.0
 30
0.0
 11
42.0
 21
64.0
 31
0.0
  0
LINE
  5
40
100
AcDbEntity
  8
0
100
AcDbLine
 10
42.0
 20
76.0
 30
0.0
 11
50.0
 21
76.0
 31
0.0
  0
LINE
  5
41
100
AcDbEntity
  8
0
  6
DASHED
 62
     3
100
AcDbLine
 10
25.0
 20
56.0
 30
0.0
 11
33.0
 21
56.0
 31
0.0
  0
LINE
  5
42
100
AcDbEntity
  8
0
  6
DASHED
 62
     3
100
AcDbLine
 10
25.0
 20
64.0
 30
0.0
 11
33.0
 21
64.0
 31
0.0
  0
LINE
  5
43
100
AcDbEntity
  8
0
100
AcDbLine
 10
25.0
 20
67.0
 30
0.0
 11
42.0
 21
67.0
 31
0.0
  0
LINE
  5
44
100
AcDbEntity
  8
0
  6
DASHED
 62
     3
100
AcDbLine
 10
45.9
 20
67.0
 30
0.0
 11
45.9
 21
71.0
 31
0.0
  0
LINE
  5
45
100
AcDbEntity
  8
0
100
AcDbLine
 10
42.0
 20
67.0
 30
0.0
 11
42.0
 21
76.0
 31
0.0
  0
LINE
  5
46
100
AcDbEntity
  8
0
  6
DASHED
 62
     3
100
AcDbLine
 10
33.0
 20
62.0
 30
0.0
 11
42.0
 21
62.0
 31
0.0
  0
LINE
  5
47
100
AcDbEntity
  8
0
  6
DASHED
 62
     3
100
AcDbLine
 10
45.9
 20
75.0
 30
0.0
 11
45.9
 21
71.0
 31
0.0
  0
LINE
  5
48
100
AcDbEntity
  8
0
  6
DASHED
 62
     3
100
AcDbLine
 10
45.9
 20
68.75
 30
0.0
 11
42.0
 21
68.75
 31
0.0
  0
LINE
  5
49
100
AcDbEntity
  8
0
  6
DASHED
 62
     3
100
AcDbLine
 10
45.9
 20
73.25
 30
0.0
 11
42.0
 21
73.25
 31
0.0
  0
LINE
  5
4A
100
AcDbEntity
  8
CENTER
  6
CENTER
 62
     1
100
AcDbLine
 10
116.0
 20
77.5
 30
0.0
 11
116.0
 21
22.5
 31
0.0
  0
CIRCLE
  5
4B
100
AcDbEntity
  8
0
  6
DASHED
 62
     3
100
AcDbCircle
 10
116.0
 20
50.0
 30
0.0
 40
17.0
  0
CIRCLE
  5
4C
100
AcDbEntity
  8
0
100
AcDbCircle
 10
116.0
 20
50.0
 30
0.0
 40
6.0
  0
CIRCLE
  5
4D
100
AcDbEntity
  8
0
100
AcDbCircle
 10
116.0
 20
50.0
 30
0.0
 40
14.0
  0
LINE
  5
4E
100
AcDbEntity
  8
0
100
AcDbLine
 10
134.0
 20
68.761663
 30
0.0
 11
134.0
 21
31.238337
 31
0.0
  0
LINE
  5
4F
100
AcDbEntity
  8
0
100
AcDbLine
 10
98.0
 20
68.761663
 30
0.0
 11
98.0
 21
31.238337
 31
0.0
  0
LINE
  5
50
100
AcDbEntity
  8
CENTER
  6
CENTER
 62
     1
100
AcDbLine
 10
135.5
 20
50.0
 30
0.0
 11
96.5
 21
50.0
 31
0.0
  0
LINE
  5
51
100
AcDbEntity
  8
CENTER
  6
CENTER
 62
     1
100
AcDbLine
 10
116.0
 20
29.0
 30
0.0
 11
110.5
 21
29.0
 31
0.0
  0
ARC
  5
52
100
AcDbEntity
  8
0
100
AcDbCircle
 10
116.0
 20
50.0
 30
0.0
 40
26.0
100
AcDbArc
 50
226.186939
 51
313.813061
  0
CIRCLE
  5
53
100
AcDbEntity
  8
0
100
AcDbCircle
 10
116.0
 20
29.0
 30
0.0
 40
4.0
  0
LINE
  5
54
100
AcDbEntity
  8
CENTER
  6
CENTER
 62
     1
100
AcDbLine
 10
116.0
 20
29.0
 30
0.0
 11
121.5
 21
29.0
 31
0.0
  0
CIRCLE
  5
55
100
AcDbEntity
  8
0
100
AcDbCircle
 10
116.0
 20
29.0
 30
0.0
 40
2.25
  0
LINE
  5
56
100
AcDbEntity
  8
CENTER
  6
CENTER
 62
     1
100
AcDbLine
 10
116.0
 20
71.0
 30
0.0
 11
110.5
 21
71.0
 31
0.0
  0
ARC
  5
57
100
AcDbEntity
  8
0
100
AcDbCircle
 10
116.0
 20
50.0
 30
0.0
 40
26.0
100
AcDbArc
 50
46.186939
 51
133.813061
  0
CIRCLE
  5
58
100
AcDbEntity
  8
0
100
AcDbCircle
 10
116.0
 20
71.0
 30
0.0
 40
4.0
  0
LINE
  5
59
100
AcDbEntity
  8
CENTER
  6
CENTER
 62
     1
100
AcDbLine
 10
116.0
 20
71.0
 30
0.0
 11
121.5
 21
71.0
 31
0.0
  0
CIRCLE
  5
5A
100
AcDbEntity
  8
0
100
AcDbCircle
 10
116.0
 20
71.0
 30
0.0
 40
2.25
  0
TEXT
  5
83
100
AcDbEntity
  8
0
100
AcDbText
 10
60.0
 20
19.0
 30
0.0
 40
2.0
  1
DC-6001ZZ
100
AcDbText
  0
TEXT
  5
84
100
AcDbEntity
  8
0
100
AcDbText
 10
60.0
 20
16.6
 30
0.0
 40
2.0
  1
DCM-6001ZZ
100
AcDbText
  0
TEXT
  5
85
100
AcDbEntity
  8
0
100
AcDbText
 10
60.0
 20
14.2
 30
0.0
 40
2.0
  1
DCS-6001ZZ
100
AcDbText
  0
ENDSEC
  0
SECTION
  2
OBJECTS
  0
DICTIONARY
  5
67
100
AcDbDictionary
  3
ACAD_GROUP
350
68
  3
ACAD_MLINESTYLE
350
76
  0
DICTIONARY
  5
68
102
{ACAD_REACTORS
330
67
102
}
100
AcDbDictionary
  0
DICTIONARY
  5
76
102
{ACAD_REACTORS
330
67
102
}
100
AcDbDictionary
  3
STANDARD
350
77
  0
MLINESTYLE
  5
77
102
{ACAD_REACTORS
330
76
102
}
100
AcDbMlineStyle
  2
STANDARD
 70
     0
  3

 62
   256
 51
90.0
 52
90.0
 71
     2
 49
0.5
 62
   256
  6
BYLAYER
 49
-0.5
 62
   256
  6
BYLAYER
  0
ENDSEC
  0
EOF
