  0
SECTION
  2
HEADER
  9
$ACADVER
  1
AC1015
  9
$ACADMAINTVER
 70
    13
  9
$DWGCODEPAGE
  3
ANSI_932
  9
$INSBASE
 10
0.0
 20
0.0
 30
0.0
  9
$EXTMIN
 10
69.05365085584765
 20
37.42080755697191
 30
-0.0015258207003583
  9
$EXTMAX
 10
308.9218147610333
 20
251.7366033905844
 30
0.0000000349246037
  9
$LIMMIN
 10
0.0
 20
0.0
  9
$LIMMAX
 10
375.0
 20
270.0
  9
$ORTHOMODE
 70
     1
  9
$REGENMODE
 70
     1
  9
$FILLMODE
 70
     1
  9
$QTEXTMODE
 70
     0
  9
$MIRRTEXT
 70
     0
  9
$LTSCALE
 40
10.0
  9
$ATTMODE
 70
     1
  9
$TEXTSIZE
 40
6.5
  9
$TRACEWID
 40
0.05
  9
$TEXTSTYLE
  7
STANDARD
  9
$CLAYER
  8
0
  9
$CELTYPE
  6
ByLayer
  9
$CECOLOR
 62
   256
  9
$CELTSCALE
 40
1.0
  9
$DISPSILH
 70
     0
  9
$DIMSCALE
 40
1.0
  9
$DIMASZ
 40
3.0
  9
$DIMEXO
 40
2.0
  9
$DIMDLI
 40
0.38
  9
$DIMRND
 40
0.0
  9
$DIMDLE
 40
0.0
  9
$DIMEXE
 40
2.0
  9
$DIMTP
 40
0.0
  9
$DIMTM
 40
0.0
  9
$DIMTXT
 40
3.0
  9
$DIMCEN
 40
0.0
  9
$DIMTSZ
 40
0.0
  9
$DIMTOL
 70
     0
  9
$DIMLIM
 70
     0
  9
$DIMTIH
 70
     0
  9
$DIMTOH
 70
     0
  9
$DIMSE1
 70
     0
  9
$DIMSE2
 70
     0
  9
$DIMTAD
 70
     1
  9
$DIMZIN
 70
     0
  9
$DIMBLK
  1

  9
$DIMASO
 70
     0
  9
$DIMSHO
 70
     0
  9
$DIMPOST
  1

  9
$DIMAPOST
  1

  9
$DIMALT
 70
     0
  9
$DIMALTD
 70
     2
  9
$DIMALTF
 40
25.4
  9
$DIMLFAC
 40
1.0
  9
$DIMTOFL
 70
     0
  9
$DIMTVP
 40
1.6
  9
$DIMTIX
 70
     1
  9
$DIMSOXD
 70
     0
  9
$DIMSAH
 70
     0
  9
$DIMBLK1
  1

  9
$DIMBLK2
  1

  9
$DIMSTYLE
  2
STANDARD
  9
$DIMCLRD
 70
     4
  9
$DIMCLRE
 70
     4
  9
$DIMCLRT
 70
     4
  9
$DIMTFAC
 40
1.0
  9
$DIMGAP
 40
0.09
  9
$DIMJUST
 70
     0
  9
$DIMSD1
 70
     0
  9
$DIMSD2
 70
     0
  9
$DIMTOLJ
 70
     1
  9
$DIMTZIN
 70
     0
  9
$DIMALTZ
 70
     0
  9
$DIMALTTZ
 70
     0
  9
$DIMUPT
 70
     0
  9
$DIMDEC
 70
     1
  9
$DIMTDEC
 70
     1
  9
$DIMALTU
 70
     2
  9
$DIMALTTD
 70
     2
  9
$DIMTXSTY
  7
STANDARD
  9
$DIMAUNIT
 70
     0
  9
$DIMADEC
 70
     0
  9
$DIMALTRND
 40
0.0
  9
$DIMAZIN
 70
     0
  9
$DIMDSEP
 70
    46
  9
$DIMATFIT
 70
     3
  9
$DIMFRAC
 70
     0
  9
$DIMLDRBLK
  1

  9
$DIMLUNIT
 70
     2
  9
$DIMLWD
 70
    -2
  9
$DIMLWE
 70
    -2
  9
$DIMTMOVE
 70
     2
  9
$LUNITS
 70
     2
  9
$LUPREC
 70
     1
  9
$SKETCHINC
 40
0.1
  9
$FILLETRAD
 40
22.0
  9
$AUNITS
 70
     0
  9
$AUPREC
 70
     0
  9
$MENU
  1
E:\r13\win\SUPPORT\ACAD
  9
$ELEVATION
 40
0.0
  9
$PELEVATION
 40
0.0
  9
$THICKNESS
 40
0.0
  9
$LIMCHECK
 70
     0
  9
$CHAMFERA
 40
1.199999999999999
  9
$CHAMFERB
 40
1.199999999999999
  9
$CHAMFERC
 40
0.0
  9
$CHAMFERD
 40
0.0
  9
$SKPOLY
 70
     0
  9
$TDCREATE
 40
2449954.602013888
  9
$TDUCREATE
 40
2449954.227013888
  9
$TDUPDATE
 40
2454537.389259791
  9
$TDUUPDATE
 40
2454537.014259791
  9
$TDINDWG
 40
0.1207008681
  9
$TDUSRTIMER
 40
0.1207008681
  9
$USRTIMER
 70
     1
  9
$ANGBASE
 50
0.0
  9
$ANGDIR
 70
     0
  9
$PDMODE
 70
     0
  9
$PDSIZE
 40
0.0
  9
$PLINEWID
 40
0.0
  9
$SPLFRAME
 70
     0
  9
$SPLINETYPE
 70
     6
  9
$SPLINESEGS
 70
     8
  9
$HANDSEED
  5
DED
  9
$SURFTAB1
 70
     6
  9
$SURFTAB2
 70
     6
  9
$SURFTYPE
 70
     6
  9
$SURFU
 70
     6
  9
$SURFV
 70
     6
  9
$UCSBASE
  2

  9
$UCSNAME
  2

  9
$UCSORG
 10
0.0
 20
0.0
 30
0.0
  9
$UCSXDIR
 10
1.0
 20
0.0
 30
0.0
  9
$UCSYDIR
 10
0.0
 20
1.0
 30
0.0
  9
$UCSORTHOREF
  2

  9
$UCSORTHOVIEW
 70
     0
  9
$UCSORGTOP
 10
0.0
 20
0.0
 30
0.0
  9
$UCSORGBOTTOM
 10
0.0
 20
0.0
 30
0.0
  9
$UCSORGLEFT
 10
0.0
 20
0.0
 30
0.0
  9
$UCSORGRIGHT
 10
0.0
 20
0.0
 30
0.0
  9
$UCSORGFRONT
 10
0.0
 20
0.0
 30
0.0
  9
$UCSORGBACK
 10
0.0
 20
0.0
 30
0.0
  9
$PUCSBASE
  2

  9
$PUCSNAME
  2

  9
$PUCSORG
 10
0.0
 20
0.0
 30
0.0
  9
$PUCSXDIR
 10
1.0
 20
0.0
 30
0.0
  9
$PUCSYDIR
 10
0.0
 20
1.0
 30
0.0
  9
$PUCSORTHOREF
  2

  9
$PUCSORTHOVIEW
 70
     0
  9
$PUCSORGTOP
 10
0.0
 20
0.0
 30
0.0
  9
$PUCSORGBOTTOM
 10
0.0
 20
0.0
 30
0.0
  9
$PUCSORGLEFT
 10
0.0
 20
0.0
 30
0.0
  9
$PUCSORGRIGHT
 10
0.0
 20
0.0
 30
0.0
  9
$PUCSORGFRONT
 10
0.0
 20
0.0
 30
0.0
  9
$PUCSORGBACK
 10
0.0
 20
0.0
 30
0.0
  9
$USERI1
 70
     0
  9
$USERI2
 70
     1
  9
$USERI3
 70
     1
  9
$USERI4
 70
     0
  9
$USERI5
 70
     0
  9
$USERR1
 40
0.0
  9
$USERR2
 40
0.0
  9
$USERR3
 40
0.0
  9
$USERR4
 40
0.0
  9
$USERR5
 40
0.0
  9
$WORLDVIEW
 70
     1
  9
$SHADEDGE
 70
     3
  9
$SHADEDIF
 70
    70
  9
$TILEMODE
 70
     1
  9
$MAXACTVP
 70
    16
  9
$PINSBASE
 10
0.0
 20
0.0
 30
0.0
  9
$PLIMCHECK
 70
     0
  9
$PEXTMIN
 10
1.000000000000000E+20
 20
1.000000000000000E+20
 30
1.000000000000000E+20
  9
$PEXTMAX
 10
-1.000000000000000E+20
 20
-1.000000000000000E+20
 30
-1.000000000000000E+20
  9
$PLIMMIN
 10
0.0
 20
0.0
  9
$PLIMMAX
 10
12.0
 20
9.0
  9
$UNITMODE
 70
     0
  9
$VISRETAIN
 70
     0
  9
$PLINEGEN
 70
     0
  9
$PSLTSCALE
 70
     0
  9
$TREEDEPTH
 70
  3020
  9
$CMLSTYLE
  2
Standard
  9
$CMLJUST
 70
     0
  9
$CMLSCALE
 40
1.0
  9
$PROXYGRAPHICS
 70
     1
  9
$MEASUREMENT
 70
     0
  9
$CELWEIGHT
370
    -1
  9
$ENDCAPS
280
     0
  9
$JOINSTYLE
280
     0
  9
$LWDISPLAY
290
     0
  9
$INSUNITS
 70
     0
  9
$HYPERLINKBASE
  1

  9
$STYLESHEET
  1

  9
$XEDIT
290
     1
  9
$CEPSNTYPE
380
     0
  9
$PSTYLEMODE
290
     1
  9
$FINGERPRINTGUID
  2
{D9C53296-CDCC-4F39-ABE0-A95CB235F5A5}
  9
$VERSIONGUID
  2
{30E6FE0A-4A36-4DCB-8A20-831E2883401F}
  9
$EXTNAMES
290
     1
  9
$PSVPSCALE
 40
0.0
  9
$OLESTARTUP
290
     0
  0
ENDSEC
  0
SECTION
  2
CLASSES
  0
CLASS
  1
ACDBDICTIONARYWDFLT
  2
AcDbDictionaryWithDefault
  3
AutoCAD 2000
 90
        0
280
     0
281
     0
  0
CLASS
  1
ACDBPLACEHOLDER
  2
AcDbPlaceHolder
  3
AutoCAD 2000
 90
        0
280
     0
281
     0
  0
CLASS
  1
LAYOUT
  2
AcDbLayout
  3
AutoCAD 2000
 90
        0
280
     0
281
     0
  0
CLASS
  1
DICTIONARYVAR
  2
AcDbDictionaryVar
  3
AutoCAD 2000
 90
        0
280
     0
281
     0
  0
CLASS
  1
ACME_DOCUMENT
  2
AcMeDbDoc
  3
AcMeServices
 90
        0
280
     0
281
     0
  0
CLASS
  1
AMGSETTINGSOBJ
  2
AmgSettingsObj
  3
"AcadM|Product Description: AutoCAD Mechanical 2000|Company: Autodesk"
 90
        0
280
     0
281
     0
  0
CLASS
  1
ACMESCOPE
  2
AcMeScope
  3
AcMeServices
 90
        0
280
     0
281
     0
  0
CLASS
  1
ACMECOMMANDHISTORY
  2
AcMeCommandHistory
  3
AcMeServices
 90
        0
280
     0
281
     0
  0
CLASS
  1
ACIMSYSVARMAN
  2
AcImSysVarManager
  3
AcMeServices
 90
        0
280
     0
281
     0
  0
CLASS
  1
ACIMREALSYSVAR
  2
AcImRealSysVar
  3
AcMeServices
 90
        0
280
     0
281
     0
  0
CLASS
  1
ACIMINTSYSVAR
  2
AcImIntSysVar
  3
AcMeServices
 90
        0
280
     0
281
     0
  0
CLASS
  1
ACMEDRAWINGMAN
  2
AcMeDrawingMan
  3
AcMeServices
 90
        0
280
     0
281
     0
  0
CLASS
  1
ACMEVIEW
  2
AcMeView
  3
AcMeServices
 90
        0
280
     0
281
     0
  0
CLASS
  1
ACDBENTITYCACHE
  2
AcMeEntityCache
  3
AcMeServices
 90
        0
280
     0
281
     0
  0
CLASS
  1
GSMANAGER
  2
AcMeGSManager
  3
AcMeServices
 90
        0
280
     0
281
     0
  0
CLASS
  1
AMDTINTERNALREACTOR
  2
AmdtInternalReactor
  3
AcMeServices
 90
        0
280
     0
281
     0
  0
CLASS
  1
ACMESTATEMGR
  2
AcMeStateMgr
  3
AcMeServices
 90
        0
280
     0
281
     0
  0
CLASS
  1
ACGREFMASTER
  2
AcGrefMaster
  3
AcAttribServices
 90
        0
280
     0
281
     0
  0
CLASS
  1
AM_DRAWING_MGR
  2
AcDmDwgMgr
  3
AcMechDwgViewMgmt
 90
        0
280
     0
281
     0
  0
CLASS
  1
AM_DWG_DOCUMENT
  2
AcDmDwgDocument
  3
AcMechDwgViewMgmt
 90
        0
280
     0
281
     0
  0
CLASS
  1
AM_DWG_SHEET
  2
AcDmSheet
  3
AcMechDwgViewMgmt
 90
        0
280
     0
281
     0
  0
CLASS
  1
AM_VIEWDIMPARMAP
  2
AcDmViewDimParMap
  3
AcMechDwgViewMgmt
 90
        0
280
     0
281
     0
  0
CLASS
  1
AM_DWGMGR_NAME
  2
AcDmDwgMgrName
  3
AcMechDwgViewMgmt
 90
        0
280
     0
281
     0
  0
CLASS
  1
ACME_DATABASE
  2
AcMeDbDatabase
  3
AcMeServices
 90
        0
280
     0
281
     0
  0
CLASS
  1
ACRFINSADJUSTERMGR
  2
AcRfInsAdjusterMgr
  3
AcMeServices
 90
        0
280
     0
281
     0
  0
CLASS
  1
ACGREFACADMASTER
  2
AcGrefacadMaster
  3
AcGrefServices
 90
        0
280
     0
281
     0
  0
CLASS
  1
AMDTMENUSTATEMGR
  2
AmdtMenuStateMgr
  3
McadcomServices
 90
        0
280
     0
281
     0
  0
CLASS
  1
AMDTMCOMMENUSTATE
  2
AmdtMcomMenuState
  3
McadcomServices
 90
        0
280
     0
281
     0
  0
CLASS
  1
AMIMASTER
  2
AmiMaster
  3
AmiServices
 90
        0
280
     0
281
     0
  0
CLASS
  1
ASAPP
  2
AcAsAppObject
  3
AutoSurfServices
 90
        0
280
     0
281
     0
  0
CLASS
  1
IM_STATIC_MAN
  2
AcImStaticVarManager
  3
AcMeServices
 90
        0
280
     0
281
     0
  0
CLASS
  1
ACIMSTRSYSVAR
  2
AcImStrSysVar
  3
AcMeServices
 90
        0
280
     0
281
     0
  0
CLASS
  1
ACIMDBLSTATICVAR
  2
AcImDblStaticVar
  3
AcMeServices
 90
        0
280
     0
281
     0
  0
CLASS
  1
ACIMSTRSTATICVAR
  2
AcImStrStaticVar
  3
AcMeServices
 90
        0
280
     0
281
     0
  0
CLASS
  1
ACIMINTSTATICVAR
  2
AcImIntStaticVar
  3
AcMeServices
 90
        0
280
     0
281
     0
  0
CLASS
  1
ACASGREFMASTER
  2
AcAsGrefMaster
  3
AutoSurfResolverServices
 90
        0
280
     0
281
     0
  0
CLASS
  1
ACADGREFMODULE
  2
AcAdGrefModule
  3
AdGrefServices
 90
        0
280
     0
281
     0
  0
CLASS
  1
AMDTMAPISURFMOUDULE
  2
AmdtMApiSurfModule
  3
MApiSurfServices
 90
        0
280
     0
281
     0
  0
CLASS
  1
MAPIAMMOUDLE
  2
MApiAmModule
  3
MApiAmServices
 90
        0
280
     0
281
     0
  0
CLASS
  1
AMDTADMENUSTATE
  2
AmdtAdMenuState
  3
DesignerServices
 90
        0
280
     0
281
     0
  0
CLASS
  1
ADAPPL
  2
AcAdAppl
  3
DesignerServices
 90
        0
280
     0
281
     0
  0
CLASS
  1
DEPMGR
  2
AcAdDepMgr
  3
DesignerServices
 90
        0
280
     0
281
     0
  0
CLASS
  1
PARAMMGR
  2
AcAdParamMgr
  3
DesignerServices
 90
        0
280
     0
281
     0
  0
CLASS
  1
PARAMSCOPE
  2
AcAdParamScope
  3
DesignerServices
 90
        0
280
     0
281
     0
  0
CLASS
  1
NAMEDAPPL
  2
AcAdNamedAppl
  3
DesignerServices
 90
        0
280
     0
281
     0
  0
CLASS
  1
AMDTDMMENUSTATE
  2
AmdtDmMenuState
  3
AcMechDwgViewMgmt
 90
        0
280
     0
281
     0
  0
CLASS
  1
MAPIADMODULE
  2
MApiAdModule
  3
MApiAdServices
 90
        0
280
     0
281
     0
  0
CLASS
  1
AMDTAMMENUSTATE
  2
AmdtAmMenuState
  3
DesignerAssemblies
 90
        0
280
     0
281
     0
  0
CLASS
  1
ACAMPROJECT
  2
AcAmProject
  3
DesignerAssemblies
 90
        0
280
     0
281
     0
  0
CLASS
  1
ACAMGRCOMPDEF
  2
AcAmGrCompDef
  3
DesignerAssemblies
 90
        0
280
     0
281
     0
  0
CLASS
  1
ACCMCONTEXT
  2
AcCmContext
  3
DesignerAssemblies
 90
        0
280
     0
281
     0
  0
CLASS
  1
ACAMCOMPDEF
  2
AcAmCompDef
  3
DesignerAssemblies
 90
        0
280
     0
281
     0
  0
CLASS
  1
ACAMCOMPDEFMGR
  2
AcAmCompDefMgr
  3
DesignerAssemblies
 90
        0
280
     0
281
     0
  0
CLASS
  1
AMCONTEXTMGR
  2
AcAmContextMgr
  3
DesignerAssemblies
 90
        0
280
     0
281
     0
  0
CLASS
  1
ACAMCONTEXTMODELER
  2
AcAmContextModeler
  3
DesignerAssemblies
 90
        0
280
     0
281
     0
  0
CLASS
  1
ACMDATADICTIONARY
  2
AcmDataDictionary
  3
"AcmSymBB|Product Description: AutoCAD Mechanical 2000|Company: Autodesk"
 90
        0
280
     0
281
     0
  0
CLASS
  1
ACMDATAENTRYBLOCK
  2
AcmDataEntryBlock
  3
"AcmSymBB|Product Description: AutoCAD Mechanical 2000|Company: Autodesk"
 90
        0
280
     0
281
     0
  0
CLASS
  1
CATALOGSTATE
  2
AcAmCatalogState
  3
DesignerAssemblies
 90
        0
280
     0
281
     0
  0
CLASS
  1
ACAMGRCOMPDEFSET
  2
AcAmGrCompDefSet
  3
DesignerAssemblies
 90
        0
280
     0
281
     0
  0
CLASS
  1
AMDTBROWSERDBTAB
  2
AmdtBrowserDbTab
  3
McadcomServices
 90
        0
280
     0
281
     0
  0
CLASS
  1
CBROWSERAPPOBJECT
  2
CBrowserAppObject
  3
McadcomServices
 90
        0
280
     0
281
     0
  0
CLASS
  1
DM_PLACEHOLDER
  2
AcDmSelsetPlaceholder
  3
AcMechDwgViewMgmt
 90
        0
280
     0
281
     0
  0
CLASS
  1
ACMSTANDARDANSI
  2
AcmStandardANSI
  3
"Amdt_StdImp|Product Description: AutoCAD Mechanical 2000|Company: Autodesk"
 90
        0
280
     0
281
     0
  0
CLASS
  1
AMGOBJPROPCFG
  2
AmgObjPropCfg
  3
"AmgLay|Product Description: AutoCAD Mechanical 2000|Company: Autodesk"
 90
        1
280
     0
281
     0
  0
CLASS
  1
ACMSURFSTANDARDANSI
  2
AcmSurfTextStdANSI
  3
"Amdt_StdImp|Product Description: AutoCAD Mechanical 2000|Company: Autodesk"
 90
        0
280
     0
281
     0
  0
CLASS
  1
ACMFCFSTANDARDANSI
  2
AcmFCFStdANSI
  3
"Amdt_StdImp|Product Description: AutoCAD Mechanical 2000|Company: Autodesk"
 90
        0
280
     0
281
     0
  0
CLASS
  1
ACMWELDSTANDARDANSI
  2
AcmWeldingStdANSI
  3
"Amdt_StdImp|Product Description: AutoCAD Mechanical 2000|Company: Autodesk"
 90
        0
280
     0
281
     0
  0
CLASS
  1
ACMIDSTANDARDANSI
  2
AcmIdStdANSI
  3
"Amdt_StdImp|Product Description: AutoCAD Mechanical 2000|Company: Autodesk"
 90
        0
280
     0
281
     0
  0
CLASS
  1
ACMDATUMSTANDARDANSI
  2
AcmDatumStdANSI
  3
"Amdt_StdImp|Product Description: AutoCAD Mechanical 2000|Company: Autodesk"
 90
        0
280
     0
281
     0
  0
CLASS
  1
ACMBOMSTANDARDANSI
  2
AcmBOMStdANSI
  3
"Amdt_StdImp|Product Description: AutoCAD Mechanical 2000|Company: Autodesk"
 90
        0
280
     0
281
     0
  0
CLASS
  1
ACMDETAILSTANDARDANSI
  2
AmdtDetailSymStdANSI
  3
"Amdt_StdImp|Product Description: AutoCAD Mechanical 2000|Company: Autodesk"
 90
        0
280
     0
281
     0
  0
CLASS
  1
ACMSECTIONSTANDARDANSI
  2
AmdtSectionSymStdANSI
  3
"Amdt_StdImp|Product Description: AutoCAD Mechanical 2000|Company: Autodesk"
 90
        0
280
     0
281
     0
  0
CLASS
  1
ACMCENTERLINESTANDARDANSI
  2
AmdtCenterLineStdANSI
  3
"Amdt_StdImp|Product Description: AutoCAD Mechanical 2000|Company: Autodesk"
 90
        0
280
     0
281
     0
  0
CLASS
  1
ACMTHREADLINESTANDARDANSI
  2
AmdtThreadLineStdANSI
  3
"Amdt_StdImp|Product Description: AutoCAD Mechanical 2000|Company: Autodesk"
 90
        0
280
     0
281
     0
  0
CLASS
  1
ACMNOTESTANDARDANSI
  2
AmdtNoteStdANSI
  3
"Amdt_StdImp|Product Description: AutoCAD Mechanical 2000|Company: Autodesk"
 90
        0
280
     0
281
     0
  0
CLASS
  1
ACAMGLAYSTD
  2
AcAmgLayStd
  3
"AcAmgLayStd|Product Description: AutoCAD Mechanical 2000|Company: Autodesk"
 90
        0
280
     0
281
     0
  0
CLASS
  1
ACAMGDIMSTD
  2
AcAmgDimStd
  3
"AcAmgDimStd|Product Description: AutoCAD Mechanical 2000|Company: Autodesk"
 90
        0
280
     0
281
     0
  0
CLASS
  1
ACAMGHOLECHARTSTDANSI
  2
AcAmgHoleChartStdANSI
  3
ACMSYMBB_MODULE_NAME
 90
        0
280
     0
281
     0
  0
CLASS
  1
ACAMGTITLESTD
  2
AcAmgTitleStd
  3
"TITLEAPP"
 90
        0
280
     0
281
     0
  0
CLASS
  1
LAYER_INDEX
  2
AcDbLayerIndex
  3
AutoCAD 2000
 90
        0
280
     0
281
     0
  0
CLASS
  1
IDBUFFER
  2
AcDbIdBuffer
  3
AutoCAD 2000
 90
        0
280
     0
281
     0
  0
CLASS
  1
ACAMGFILTERDAT
  2
AcAmgFilterDat
  3
"AcadM|Product Description: AutoCAD Mechanical 2000|Company: Autodesk"
 90
        0
280
     0
281
     0
  0
ENDSEC
  0
SECTION
  2
TABLES
  0
TABLE
  2
VPORT
  5
B33
330
0
100
AcDbSymbolTable
 70
     6
  0
VPORT
  5
DEC
330
B33
100
AcDbSymbolTableRecord
100
AcDbViewportTableRecord
  2
*Active
 70
     0
 10
0.0
 20
0.0
 11
1.0
 21
1.0
 12
-152.1037665947816
 22
-41.82133973008563
 13
0.0
 23
0.0
 14
10.0
 24
10.0
 15
10.0
 25
10.0
 16
0.0
 26
0.0
 36
1.0
 17
339.6037665947817
 27
176.8213397300856
 37
0.0
 40
272.035175879397
 41
1.515723270440251
 42
50.0
 43
0.0
 44
0.0
 50
0.0
 51
0.0
 71
     0
 72
   500
 73
     1
 74
     0
 75
     0
 76
     0
 77
     0
 78
     2
281
     0
 65
     0
110
0.0
120
0.0
130
0.0
111
1.0
121
0.0
131
0.0
112
0.0
122
1.0
132
0.0
 79
     0
146
0.0
  0
ENDTAB
  0
TABLE
  2
LTYPE
  5
B30
330
0
100
AcDbSymbolTable
 70
    18
  0
LTYPE
  5
B3E
330
B30
100
AcDbSymbolTableRecord
100
AcDbLinetypeTableRecord
  2
ByBlock
 70
     0
  3

 72
    65
 73
     0
 40
0.0
  0
LTYPE
  5
B3F
330
B30
100
AcDbSymbolTableRecord
100
AcDbLinetypeTableRecord
  2
ByLayer
 70
     0
  3

 72
    65
 73
     0
 40
0.0
  0
LTYPE
  5
B40
330
B30
100
AcDbSymbolTableRecord
100
AcDbLinetypeTableRecord
  2
CONTINUOUS
 70
     0
  3
Solid Line
 72
    65
 73
     0
 40
0.0
  0
LTYPE
  5
B4E
330
B30
100
AcDbSymbolTableRecord
100
AcDbLinetypeTableRecord
  2
CENTER
 70
     0
  3
____ _ ____ _ ____ _ ____ _ ____ _ ____ _ ____
 72
    65
 73
     4
 40
2.0
 49
1.25
 74
     0
 49
-0.25
 74
     0
 49
0.25
 74
     0
 49
-0.25
 74
     0
  0
LTYPE
  5
B4F
330
B30
100
AcDbSymbolTableRecord
100
AcDbLinetypeTableRecord
  2
HIDDEN
 70
     0
  3
_ _ _ _ _ _ _ _ _ _ _ _ _ _ _ _ _ _ _ _ _ _ _
 72
    65
 73
     2
 40
0.375
 49
0.25
 74
     0
 49
-0.125
 74
     0
  0
LTYPE
  5
D02
330
B30
100
AcDbSymbolTableRecord
100
AcDbLinetypeTableRecord
  2
PHANTOM2
 70
     0
  3
Phantom (.5x) ___ _ _ ___ _ _ ___ _ _ ___ _ _
 72
    65
 73
     6
 40
1.25
 49
0.625
 74
     0
 49
-0.125
 74
     0
 49
0.125
 74
     0
 49
-0.125
 74
     0
 49
0.125
 74
     0
 49
-0.125
 74
     0
  0
LTYPE
  5
D64
330
B30
100
AcDbSymbolTableRecord
100
AcDbLinetypeTableRecord
  2
ASULTYPE
 70
     0
  3
実線
 72
    65
 73
     2
 40
3.0
 49
2.5
 74
     0
 49
0.5
 74
     0
  0
LTYPE
  5
D65
330
B30
100
AcDbSymbolTableRecord
100
AcDbLinetypeTableRecord
  2
ASVLTYPE
 70
     0
  3
__ __ __ __ __ __ __ __ __ __ __ __ __ __ __ __ __ __ __ __ __
 72
    65
 73
     2
 40
0.75
 49
0.5
 74
     0
 49
-0.25
 74
     0
  0
LTYPE
  5
DA9
330
B30
100
AcDbSymbolTableRecord
100
AcDbLinetypeTableRecord
  2
AM_ISO02W050
 70
     0
  3
__ __ __ __ __ __ __ __ __ __ __ __ __ __ __
 72
    65
 73
     2
 40
7.5
 49
6.0
 74
     0
 49
-1.5
 74
     0
  0
LTYPE
  5
DAA
330
B30
100
AcDbSymbolTableRecord
100
AcDbLinetypeTableRecord
  2
AM_ISO08W050
 70
     0
  3
____ . ____ . ____ . ____ . ____ . ____ . ____
 72
    65
 73
     4
 40
18.0
 49
12.0
 74
     0
 49
-1.5
 74
     0
 49
3.0
 74
     0
 49
-1.5
 74
     0
  0
LTYPE
  5
DAB
330
B30
100
AcDbSymbolTableRecord
100
AcDbLinetypeTableRecord
  2
AM_ISO09W050
 70
     0
  3
_____ . . _____ . . _____ . . ____ .. ____
 72
    65
 73
     6
 40
22.5
 49
12.0
 74
     0
 49
-1.5
 74
     0
 49
3.0
 74
     0
 49
-1.5
 74
     0
 49
3.0
 74
     0
 49
-1.5
 74
     0
  0
LTYPE
  5
DAC
330
B30
100
AcDbSymbolTableRecord
100
AcDbLinetypeTableRecord
  2
Amconstr
 70
     0
  3
_______________________
 72
    65
 73
     2
 40
9999.0
 49
9999.0
 74
     0
 49
0.0
 74
     0
  0
LTYPE
  5
DAD
330
B30
100
AcDbSymbolTableRecord
100
AcDbLinetypeTableRecord
  2
AM_ISO08W050x2
 70
     0
  3
__ . __ . __ . __ . __ . __
 72
    65
 73
     4
 40
9.0
 49
6.0
 74
     0
 49
-0.75
 74
     0
 49
1.5
 74
     0
 49
-0.75
 74
     0
  0
LTYPE
  5
DAE
330
B30
100
AcDbSymbolTableRecord
100
AcDbLinetypeTableRecord
  2
AM_ISO02W050x2
 70
     0
  3
 _ _ _ _ _ _ _ _ _ _ _ _
 72
    65
 73
     2
 40
3.75
 49
3.0
 74
     0
 49
-0.75
 74
     0
  0
LTYPE
  5
DB1
330
B30
100
AcDbSymbolTableRecord
100
AcDbLinetypeTableRecord
  2
Amzigzag
 70
     0
  3
/\/-/\/-/\/-/\/-/\/-/\/
 72
    65
 73
     2
 40
11.00009999999999
 49
0.0001
 74
     4
 75
   135
340
DB0
 46
0.04
 50
0.0
 44
0.0
 45
0.0
 49
-11.0
 74
     0
  0
LTYPE
  5
DB2
330
B30
100
AcDbSymbolTableRecord
100
AcDbLinetypeTableRecord
  2
CENTER2
 70
     0
  3
Center (.5x) ___ _ ___ _ ___ _ ___ _ ___ _ ___
 72
    65
 73
     4
 40
1.125
 49
0.75
 74
     0
 49
-0.125
 74
     0
 49
0.125
 74
     0
 49
-0.125
 74
     0
  0
LTYPE
  5
DB3
330
B30
100
AcDbSymbolTableRecord
100
AcDbLinetypeTableRecord
  2
HIDDEN2
 70
     0
  3
Hidden (.5x) _ _ _ _ _ _ _ _ _ _ _ _ _ _ _ _ _
 72
    65
 73
     2
 40
0.1875
 49
0.125
 74
     0
 49
-0.0625
 74
     0
  0
LTYPE
  5
DB4
330
B30
100
AcDbSymbolTableRecord
100
AcDbLinetypeTableRecord
  2
Amzigzag2
 70
     0
  3
/\/-/\/-/\/-/\/-/\/-/\/
 72
    65
 73
     2
 40
0.4401
 49
0.0001
 74
     4
 75
   135
340
DB0
 46
0.0016
 50
0.0
 44
0.0
 45
0.0
 49
-0.4400000000000001
 74
     0
  0
LTYPE
  5
DC2
330
B30
100
AcDbSymbolTableRecord
100
AcDbLinetypeTableRecord
  2
ACANSTGB
 70
     0
  3
__ . . __ . .
 72
    65
 73
     6
 40
0.35433070866
 49
0.15748031496
 74
     0
 49
-0.03937007874
 74
     0
 49
0.03937007874
 74
     0
 49
-0.03937007874
 74
     0
 49
0.03937007874
 74
     0
 49
-0.03937007874
 74
     0
  0
LTYPE
  5
DC3
330
B30
100
AcDbSymbolTableRecord
100
AcDbLinetypeTableRecord
  2
ACANSTGL
 70
     0
  3
_ _ _ _ _
 72
    65
 73
     2
 40
0.11811023622
 49
0.07874015748
 74
     0
 49
-0.03937007874
 74
     0
  0
ENDTAB
  0
TABLE
  2
LAYER
  5
B2D
330
0
100
AcDbSymbolTable
 70
     4
  0
LAYER
  5
B3B
330
B2D
100
AcDbSymbolTableRecord
100
AcDbLayerTableRecord
  2
0
 70
     0
 62
     7
  6
CONTINUOUS
370
    -3
390
B3A
  0
LAYER
  5
B53
330
B2D
100
AcDbSymbolTableRecord
100
AcDbLayerTableRecord
  2
1
 70
     0
 62
     1
  6
CENTER
370
    -3
390
B3A
  0
LAYER
  5
B54
330
B2D
100
AcDbSymbolTableRecord
100
AcDbLayerTableRecord
  2
3
 70
     0
 62
     7
  6
CONTINUOUS
370
    -3
390
B3A
  0
LAYER
  5
B57
330
B2D
100
AcDbSymbolTableRecord
100
AcDbLayerTableRecord
  2
2
 70
     0
 62
     3
  6
HIDDEN
370
    -3
390
B3A
  0
ENDTAB
  0
TABLE
  2
STYLE
  5
B2E
330
0
100
AcDbSymbolTable
 70
     4
  0
STYLE
  5
B3C
330
B2E
100
AcDbSymbolTableRecord
100
AcDbTextStyleTableRecord
  2
STANDARD
 70
     0
 40
0.0
 41
1.0
 50
0.0
 71
     0
 42
6.5
  3
SIMPLEX
  4
BIGFONT
  0
STYLE
  5
DB0
330
B2E
100
AcDbSymbolTableRecord
100
AcDbTextStyleTableRecord
  2

 70
     1
 40
0.0
 41
1.0
 50
0.0
 71
     0
 42
4.000000000000048
  3
ltypeshp.shx
  4

  0
STYLE
  5
DB5
330
B2E
100
AcDbSymbolTableRecord
100
AcDbTextStyleTableRecord
  2
ACANSTS
 70
     0
 40
1.0
 41
1.0
 50
0.0
 71
     0
 42
4.000000000000048
  3
romans.shx
  4
extfont.shx
  0
STYLE
  5
DC1
330
B2E
100
AcDbSymbolTableRecord
100
AcDbTextStyleTableRecord
  2
ACANSGDT
 70
     0
 40
0.0
 41
1.0
 50
0.0
 71
     0
 42
4.000000000000048
  3
amgdtans.shx
  4

  0
ENDTAB
  0
TABLE
  2
VIEW
  5
B31
330
0
100
AcDbSymbolTable
 70
     1
  0
VIEW
  5
B50
330
B31
100
AcDbSymbolTableRecord
100
AcDbViewTableRecord
  2
ALL
 70
     0
 40
270.0
 10
220.7859531772575
 20
135.0
 41
441.571906354515
 11
0.0
 21
0.0
 31
1.0
 12
0.0
 22
0.0
 32
0.0
 42
50.0
 43
0.0
 44
0.0
 50
0.0
 71
     0
281
     0
 72
     0
  0
ENDTAB
  0
TABLE
  2
UCS
  5
B32
330
0
100
AcDbSymbolTable
 70
     0
  0
ENDTAB
  0
TABLE
  2
APPID
  5
B34
330
0
100
AcDbSymbolTable
 70
    13
  0
APPID
  5
B3D
330
B34
100
AcDbSymbolTableRecord
100
AcDbRegAppTableRecord
  2
ACAD
 70
     0
  0
APPID
  5
CE0
330
B34
100
AcDbSymbolTableRecord
100
AcDbRegAppTableRecord
  2
GENIUS_GENDIM_13
 70
     0
  0
APPID
  5
CE1
330
B34
100
AcDbSymbolTableRecord
100
AcDbRegAppTableRecord
  2
GENIUS_GENDTOL_13
 70
     0
  0
APPID
  5
CE2
330
B34
100
AcDbSymbolTableRecord
100
AcDbRegAppTableRecord
  2
GENIUS_GE3DTOL_13
 70
     0
  0
APPID
  5
CE5
330
B34
100
AcDbSymbolTableRecord
100
AcDbRegAppTableRecord
  2
MCAD_NO_VIS
 70
     0
  0
APPID
  5
CE6
330
B34
100
AcDbSymbolTableRecord
100
AcDbRegAppTableRecord
  2
ACAD_TEMP_GRAPHIC
 70
     0
  0
APPID
  5
D17
330
B34
100
AcDbSymbolTableRecord
100
AcDbRegAppTableRecord
  2
AD_DRAW
 70
     0
  0
APPID
  5
D1A
330
B34
100
AcDbSymbolTableRecord
100
AcDbRegAppTableRecord
  2
ACATTRIBSERVICES
 70
     0
  0
APPID
  5
D66
330
B34
100
AcDbSymbolTableRecord
100
AcDbRegAppTableRecord
  2
ASURF_PCURVE_APPNAME
 70
     0
  0
APPID
  5
D6B
330
B34
100
AcDbSymbolTableRecord
100
AcDbRegAppTableRecord
  2
AMG_3D2D_5.0
 70
     0
  0
APPID
  5
D96
330
B34
100
AcDbSymbolTableRecord
100
AcDbRegAppTableRecord
  2
DESIGNERASSEMBLIES
 70
     0
  0
APPID
  5
D9E
330
B34
100
AcDbSymbolTableRecord
100
AcDbRegAppTableRecord
  2
ACADM_DIM_EDIT
 70
     0
  0
APPID
  5
D9F
330
B34
100
AcDbSymbolTableRecord
100
AcDbRegAppTableRecord
  2
AMDT_DM_ADJ
 70
     0
  0
ENDTAB
  0
TABLE
  2
DIMSTYLE
  5
B35
330
0
100
AcDbSymbolTable
 70
     7
100
AcDbDimStyleTable
 71
     0
  0
DIMSTYLE
105
B52
330
B35
100
AcDbSymbolTableRecord
100
AcDbDimStyleTableRecord
  2
STANDARD
 70
     0
271
     1
272
     1
279
     2
340
B3C
  0
DIMSTYLE
105
DC8
330
B35
100
AcDbSymbolTableRecord
100
AcDbDimStyleTableRecord
  2
AM_ANSI
 70
     0
  4
mm
 41
0.1
 42
0.05
 43
0.5
 44
0.1
 47
0.1
 48
0.1
 78
     7
 79
     2
140
0.12
141
0.0
146
0.71
147
0.06
176
   256
177
   256
178
     2
274
     4
284
     7
340
B3C
371
    -1
372
    -1
  0
DIMSTYLE
105
DC9
330
B35
100
AcDbSymbolTableRecord
100
AcDbDimStyleTableRecord
  2
AM_ANSI$3
 70
     0
  4
mm
 41
0.1
 42
0.05
 43
0.5
 44
0.1
 47
0.1
 48
0.1
 78
     7
 79
     2
140
0.12
141
0.0
146
0.71
147
0.06
176
   256
177
   256
178
     2
274
     4
284
     7
288
     1
289
     0
340
B3C
371
    -1
372
    -1
  0
DIMSTYLE
105
DCA
330
B35
100
AcDbSymbolTableRecord
100
AcDbDimStyleTableRecord
  2
AM_ANSI$4
 70
     0
  4
mm
 41
0.1
 42
0.05
 43
0.5
 44
0.1
 47
0.1
 48
0.1
 78
     7
 79
     2
140
0.12
141
0.0
146
0.71
147
0.06
176
   256
177
   256
178
     2
274
     4
284
     7
288
     1
289
     0
340
B3C
371
    -1
372
    -1
  0
DIMSTYLE
105
DCB
330
B35
100
AcDbSymbolTableRecord
100
AcDbDimStyleTableRecord
  2
AM_ANSI$7
 70
     0
  4
mm
 41
0.1
 42
0.05
 43
0.5
 44
0.1
 47
0.1
 48
0.1
 78
     7
 79
     2
140
0.24
141
0.0
146
0.71
147
0.06
176
   256
177
   256
178
     2
274
     4
284
     7
340
B3C
371
    -1
372
    -1
  0
DIMSTYLE
105
DCC
330
B35
100
AcDbSymbolTableRecord
100
AcDbDimStyleTableRecord
  2
AM_ANSI$SF
 70
     0
  4
mm
 41
0.1
 42
0.05
 43
0.5
 44
0.1
 47
0.1
 48
0.1
 75
     1
 76
     1
 78
     7
 79
     2
140
0.12
141
0.0
146
0.71
147
0.06
176
   256
177
   256
178
     2
274
     4
284
     7
340
B3C
371
    -1
372
    -1
  0
DIMSTYLE
105
DD1
330
B35
100
AcDbSymbolTableRecord
100
AcDbDimStyleTableRecord
  2
AM_ANSI$SH
 70
     0
  4
mm
 41
0.1
 42
0.05
 43
0.5
 44
0.1
 47
0.1
 48
0.1
 75
     1
 76
     1
 78
     7
 79
     2
140
0.12
141
0.0
146
0.71
147
0.06
173
     1
176
   256
177
   256
178
     2
274
     4
284
     7
340
B3C
343
DCD
371
    -1
372
    -1
  0
ENDTAB
  0
TABLE
  2
BLOCK_RECORD
  5
B2C
330
0
100
AcDbSymbolTable
 70
     3
  0
BLOCK_RECORD
  5
B49
102
{ACAD_XDICTIONARY
360
DD5
102
}
330
B2C
100
AcDbSymbolTableRecord
100
AcDbBlockTableRecord
  2
*Model_Space
340
B4C
  0
BLOCK_RECORD
  5
B45
330
B2C
100
AcDbSymbolTableRecord
100
AcDbBlockTableRecord
  2
*Paper_Space
340
B48
  0
BLOCK_RECORD
  5
B4D
330
B2C
100
AcDbSymbolTableRecord
100
AcDbBlockTableRecord
  2
STDGX5
340
0
102
{BLKREFS
331
38A
331
38B
331
38C
331
38D
331
452
331
453
331
454
331
455
331
7B1
331
7B2
331
7B3
331
7B4
331
A34
331
A35
331
A36
331
A37
331
A38
331
A39
331
A3A
331
A3B
331
A3C
331
A3D
331
A3E
331
A3F
331
A49
331
A4A
331
A4B
331
A4C
331
A4D
331
A4E
331
A4F
331
A50
331
A52
331
A53
331
A54
331
A55
331
A57
331
A58
331
A59
331
A5A
331
A5B
331
A5C
331
A5D
331
A5E
102
}
  0
BLOCK_RECORD
  5
D8D
330
B2C
100
AcDbSymbolTableRecord
100
AcDbBlockTableRecord
  2
*U1
340
0
  0
BLOCK_RECORD
  5
DCD
330
B2C
100
AcDbSymbolTableRecord
100
AcDbBlockTableRecord
  2
GENAXEH
340
0
  0
ENDTAB
  0
ENDSEC
  0
SECTION
  2
BLOCKS
  0
BLOCK
  5
B5A
330
B49
100
AcDbEntity
  8
0
100
AcDbBlockBegin
  2
*Model_Space
 70
     0
 10
0.0
 20
0.0
 30
0.0
  3
*Model_Space
  1

  0
ENDBLK
  5
B5B
330
B49
100
AcDbEntity
  8
0
100
AcDbBlockEnd
  0
BLOCK
  5
B58
330
B45
100
AcDbEntity
 67
     1
  8
0
100
AcDbBlockBegin
  2
*Paper_Space
 70
     0
 10
0.0
 20
0.0
 30
0.0
  3
*Paper_Space
  1

  0
ENDBLK
  5
B59
330
B45
100
AcDbEntity
 67
     1
  8
0
100
AcDbBlockEnd
  0
BLOCK
  5
2ED
330
B4D
100
AcDbEntity
  8
0
100
AcDbBlockBegin
  2
STDGX5
 70
     0
 10
0.0
 20
0.0
 30
0.0
  3
STDGX5
  1

  0
ENDBLK
  5
2EE
330
B4D
100
AcDbEntity
  8
0
100
AcDbBlockEnd
  0
BLOCK
  5
D8E
330
D8D
100
AcDbEntity
  8
0
100
AcDbBlockBegin
  2
*U1
 70
     1
 10
0.0
 20
0.0
 30
0.0
  3
*U1
  1

  0
ENDBLK
  5
D8F
330
D8D
100
AcDbEntity
  8
0
100
AcDbBlockEnd
  0
BLOCK
  5
DCF
330
DCD
100
AcDbEntity
  8
0
100
AcDbBlockBegin
  2
GENAXEH
 70
     0
 10
0.0
 20
0.0
 30
0.0
  3
GENAXEH
  1

  0
LINE
  5
DCE
330
DCD
100
AcDbEntity
  8
0
100
AcDbLine
 10
-1.0
 20
0.0
 30
0.0
 11
1.0
 21
0.0
 31
0.0
  0
ENDBLK
  5
DD0
330
DCD
100
AcDbEntity
  8
0
100
AcDbBlockEnd
  0
ENDSEC
  0
SECTION
  2
ENTITIES
  0
INSERT
  5
38A
330
B49
100
AcDbEntity
  8
0
100
AcDbBlockReference
  2
STDGX5
 10
0.0
 20
0.0
 30
0.0
  0
INSERT
  5
38B
330
B49
100
AcDbEntity
  8
0
100
AcDbBlockReference
  2
STDGX5
 10
0.0
 20
0.0
 30
0.0
  0
INSERT
  5
38C
330
B49
100
AcDbEntity
  8
0
100
AcDbBlockReference
  2
STDGX5
 10
275.0
 20
0.0
 30
0.0
  0
INSERT
  5
38D
330
B49
100
AcDbEntity
  8
0
100
AcDbBlockReference
  2
STDGX5
 10
275.0
 20
0.0
 30
0.0
  0
INSERT
  5
452
330
B49
100
AcDbEntity
  8
0
100
AcDbBlockReference
  2
STDGX5
 10
0.0
 20
0.0
 30
0.0
 41
2.0
 42
2.0
 43
2.0
  0
INSERT
  5
453
330
B49
100
AcDbEntity
  8
0
100
AcDbBlockReference
  2
STDGX5
 10
0.0
 20
0.0
 30
0.0
 41
2.0
 42
2.0
 43
2.0
  0
INSERT
  5
454
330
B49
100
AcDbEntity
  8
0
100
AcDbBlockReference
  2
STDGX5
 10
550.0
 20
0.0
 30
0.0
 41
2.0
 42
2.0
 43
2.0
  0
INSERT
  5
455
330
B49
100
AcDbEntity
  8
0
100
AcDbBlockReference
  2
STDGX5
 10
550.0
 20
0.0
 30
0.0
 41
2.0
 42
2.0
 43
2.0
  0
INSERT
  5
7B1
330
B49
100
AcDbEntity
  8
0
100
AcDbBlockReference
  2
STDGX5
 10
0.0
 20
0.0
 30
0.0
  0
INSERT
  5
7B2
330
B49
100
AcDbEntity
  8
0
100
AcDbBlockReference
  2
STDGX5
 10
0.0
 20
0.0
 30
0.0
  0
INSERT
  5
7B3
330
B49
100
AcDbEntity
  8
0
100
AcDbBlockReference
  2
STDGX5
 10
275.0
 20
0.0
 30
0.0
  0
INSERT
  5
7B4
330
B49
100
AcDbEntity
  8
0
100
AcDbBlockReference
  2
STDGX5
 10
275.0
 20
0.0
 30
0.0
  0
LINE
  5
93B
330
B49
100
AcDbEntity
  8
0
100
AcDbLine
 10
210.8002564907278
 20
168.452129157512
 30
0.0
 11
205.3002564907279
 21
168.452129157512
 31
0.0
  0
LINE
  5
93C
330
B49
100
AcDbEntity
  8
0
100
AcDbLine
 10
211.3002564907279
 20
162.9521291575108
 30
0.0
 11
211.3002564907279
 21
167.952129157512
 31
0.0
  0
LINE
  5
93D
330
B49
100
AcDbEntity
  8
0
100
AcDbLine
 10
210.8002564907278
 20
162.4521291575108
 30
0.0
 11
205.3002564907279
 21
162.4521291575107
 31
0.0
  0
ARC
  5
93E
330
B49
100
AcDbEntity
  8
0
100
AcDbCircle
 10
210.8002564907279
 20
167.952129157512
 30
0.0
 40
0.5
100
AcDbArc
 50
0.0
 51
90.0
  0
ARC
  5
93F
330
B49
100
AcDbEntity
  8
0
100
AcDbCircle
 10
210.8002564907279
 20
162.9521291575108
 30
0.0
 40
0.5
100
AcDbArc
 50
270.0
 51
0.0
  0
LINE
  5
940
330
B49
100
AcDbEntity
  8
0
100
AcDbLine
 10
175.3002564907279
 20
207.8984768993313
 30
0.0
 11
175.8002564907279
 21
207.8984768993313
 31
0.0
  0
LINE
  5
941
330
B49
100
AcDbEntity
  8
0
100
AcDbLine
 10
175.3002564907279
 20
245.8984768993313
 30
0.0
 11
175.3002564907279
 21
207.8984768993313
 31
0.0
  0
LINE
  5
942
330
B49
100
AcDbEntity
  8
0
100
AcDbLine
 10
175.8002564907279
 20
245.8984768993313
 30
0.0
 11
175.3002564907279
 21
245.8984768993313
 31
0.0
  0
CIRCLE
  5
943
330
B49
100
AcDbEntity
  8
0
100
AcDbCircle
 10
98.05553420851532
 20
135.4521291575121
 30
0.0
 40
19.0
  0
LINE
  5
944
330
B49
100
AcDbEntity
  8
0
100
AcDbLine
 10
200.3002564907279
 20
202.8984768993309
 30
0.0
 11
200.3002564907279
 21
250.898476899331
 31
0.0
  0
LINE
  5
945
330
B49
100
AcDbEntity
  8
1
100
AcDbLine
 10
216.3002564907279
 20
226.8984768993313
 30
0.0
 11
161.8002564907279
 21
226.8984768993313
 31
0.0
  0
LINE
  5
946
330
B49
100
AcDbEntity
  8
1
100
AcDbLine
 10
161.8002564907279
 20
135.4521291575121
 30
0.0
 11
212.3002564907279
 21
135.4521291575121
 31
0.0
  0
LINE
  5
947
330
B49
100
AcDbEntity
  8
2
100
AcDbLine
 10
106.4354875684608
 20
129.9953552309921
 30
0.0
 11
108.9505090811518
 21
127.4803337183011
 31
0.0
  0
LINE
  5
948
330
B49
100
AcDbEntity
  8
2
100
AcDbLine
 10
109.2041326811284
 20
127.8390645908317
 30
0.0
 11
106.6698331302961
 21
130.373364141664
 31
0.0
  0
LINE
  5
949
330
B49
100
AcDbEntity
  8
2
100
AcDbLine
 10
103.5123081350353
 20
127.0721757975666
 30
0.0
 11
106.0273296477262
 21
124.5571542848756
 31
0.0
  0
LINE
  5
94A
330
B49
100
AcDbEntity
  8
2
100
AcDbLine
 10
105.6685987751957
 20
124.303530684899
 30
0.0
 11
103.1342992243634
 21
126.8378302357313
 31
0.0
  0
LINE
  5
94B
330
B49
100
AcDbEntity
  8
0
100
AcDbLine
 10
105.668598775196
 20
124.3035306848987
 30
0.0
 11
105.8337088015675
 21
124.1384206585272
 31
0.0
  0
LINE
  5
94C
330
B49
100
AcDbEntity
  8
3
100
AcDbLine
 10
106.0273296477263
 20
124.5571542848755
 30
0.0
 11
106.139886037821
 21
124.4445978947808
 31
0.0
  0
LINE
  5
94D
330
B49
100
AcDbEntity
  8
0
100
AcDbLine
 10
109.204132681128
 20
127.839064590832
 30
0.0
 11
109.3692427075002
 21
127.6739545644599
 31
0.0
  0
LINE
  5
94E
330
B49
100
AcDbEntity
  8
3
100
AcDbLine
 10
108.9505090811518
 20
127.480333718301
 30
0.0
 11
109.0630654712466
 21
127.3677773282062
 31
0.0
  0
LINE
  5
950
330
B49
100
AcDbEntity
  8
2
100
AcDbLine
 10
203.3002564907279
 20
155.4521291575122
 30
0.0
 11
203.3002564907279
 21
115.4521291575121
 31
0.0
  0
LINE
  5
951
330
B49
100
AcDbEntity
  8
0
100
AcDbLine
 10
200.3002564907279
 20
177.4521291575124
 30
0.0
 11
200.3002564907279
 21
109.9521291575124
 31
0.0
  0
LINE
  5
952
330
B49
100
AcDbEntity
  8
0
100
AcDbLine
 10
178.800256490729
 20
209.3984768993313
 30
0.0
 11
178.800256490729
 21
244.3984768993313
 31
0.0
  0
LINE
  5
953
330
B49
100
AcDbEntity
  8
0
100
AcDbLine
 10
175.8002564907279
 20
206.8984768993309
 30
0.0
 11
175.8002564907279
 21
246.898476899331
 31
0.0
  0
LINE
  5
954
330
B49
100
AcDbEntity
  8
0
100
AcDbLine
 10
205.3002564907279
 20
202.8984768993309
 30
0.0
 11
205.3002564907279
 21
250.898476899331
 31
0.0
  0
LINE
  5
955
330
B49
100
AcDbEntity
  8
0
100
AcDbLine
 10
179.8002564907279
 20
202.8984768993309
 30
0.0
 11
205.3002564907279
 21
202.8984768993309
 31
0.0
  0
LINE
  5
956
330
B49
100
AcDbEntity
  8
0
100
AcDbLine
 10
205.3002564907279
 20
250.898476899331
 30
0.0
 11
179.8002564907279
 21
250.898476899331
 31
0.0
  0
LINE
  5
957
330
B49
100
AcDbEntity
  8
0
100
AcDbLine
 10
303.9148077751091
 20
116.6309180382191
 30
0.0
 11
303.9148077751091
 21
170.7733402768058
 31
0.0
  0
LINE
  5
958
330
B49
100
AcDbEntity
  8
1
100
AcDbLine
 10
250.9148077751091
 20
135.4521291575121
 30
0.0
 11
308.9148077751091
 21
135.4521291575121
 31
0.0
  0
LINE
  5
959
330
B49
100
AcDbEntity
  8
0
100
AcDbLine
 10
170.3785686542409
 20
126.7900710879767
 30
0.0
 11
169.656880817754
 21
125.9061876114936
 31
0.0
  0
LINE
  5
95A
330
B49
100
AcDbEntity
  8
0
100
AcDbLine
 10
170.3785686542409
 20
125.0223041350104
 30
0.0
 11
169.656880817754
 21
125.9061876114936
 31
0.0
  0
LINE
  5
95B
330
B49
100
AcDbEntity
  8
0
100
AcDbLine
 10
171.8219443272151
 20
125.0223041350104
 30
0.0
 11
172.543632163702
 21
125.9061876114936
 31
0.0
  0
LINE
  5
95C
330
B49
100
AcDbEntity
  8
0
100
AcDbLine
 10
171.8219443272151
 20
126.7900710879767
 30
0.0
 11
172.543632163702
 21
125.9061876114936
 31
0.0
  0
LINE
  5
95D
330
B49
100
AcDbEntity
  8
0
100
AcDbLine
 10
170.3785686542409
 20
125.0223041350103
 30
0.0
 11
171.8219443272151
 21
125.0223041350103
 31
0.0
  0
LINE
  5
95E
330
B49
100
AcDbEntity
  8
0
100
AcDbLine
 10
170.3785686542409
 20
126.7900710879767
 30
0.0
 11
171.8219443272151
 21
126.7900710879767
 31
0.0
  0
POLYLINE
  5
95F
330
B49
100
AcDbEntity
  8
3
100
AcDb2dPolyline
 66
     1
 10
0.0
 20
0.0
 30
0.0
 70
     1
  0
VERTEX
  5
960
330
95F
100
AcDbEntity
  8
3
100
AcDbVertex
100
AcDb2dVertex
 10
169.0332564907274
 20
125.9061876114936
 30
0.0
 42
0.1332561510789112
  0
VERTEX
  5
961
330
95F
100
AcDbEntity
  8
3
100
AcDbVertex
100
AcDb2dVertex
 10
169.1772926709339
 20
125.3753359414486
 30
0.0
 42
0.1067562697216285
  0
VERTEX
  5
962
330
95F
100
AcDbEntity
  8
3
100
AcDbVertex
100
AcDb2dVertex
 10
169.6386667740149
 20
124.8726876114934
 30
0.0
 42
0.0828275296409765
 70
     2
 50
324.7356103172502
  0
VERTEX
  5
963
330
95F
100
AcDbEntity
  8
3
100
AcDbVertex
100
AcDb2dVertex
 10
170.3498987484002
 20
124.5289462655324
 30
0.0
 42
0.0867079104441287
 50
324.7356103172502
  0
VERTEX
  5
964
330
95F
100
AcDbEntity
  8
3
100
AcDbVertex
100
AcDb2dVertex
 10
171.1002564907279
 20
124.4445978947808
 30
0.0
 42
0.0713517487530916
  0
VERTEX
  5
965
330
95F
100
AcDbEntity
  8
3
100
AcDbVertex
100
AcDb2dVertex
 10
171.9191057482227
 20
124.5620484972351
 30
0.0
 42
0.0828275296409883
  0
VERTEX
  5
966
330
95F
100
AcDbEntity
  8
3
100
AcDbVertex
100
AcDb2dVertex
 10
172.5618462074411
 20
124.8726876114934
 30
0.0
 42
0.1067562697216101
 70
     2
 50
35.26438968274903
  0
VERTEX
  5
967
330
95F
100
AcDbEntity
  8
3
100
AcDbVertex
100
AcDb2dVertex
 10
173.0232203105221
 20
125.3753359414486
 30
0.0
 42
0.1332561510788615
 50
35.26438968274903
  0
VERTEX
  5
968
330
95F
100
AcDbEntity
  8
3
100
AcDbVertex
100
AcDb2dVertex
 10
173.1672564907286
 20
125.9061876114935
 30
0.0
 42
0.1332561510788673
  0
VERTEX
  5
969
330
95F
100
AcDbEntity
  8
3
100
AcDbVertex
100
AcDb2dVertex
 10
173.0232203105221
 20
126.4370392815385
 30
0.0
 42
0.1067562697216111
  0
VERTEX
  5
96A
330
95F
100
AcDbEntity
  8
3
100
AcDbVertex
100
AcDb2dVertex
 10
172.5618462074411
 20
126.9396876114936
 30
0.0
 42
0.0828275296410134
 70
     2
 50
144.7356103172501
  0
VERTEX
  5
96B
330
95F
100
AcDbEntity
  8
3
100
AcDbVertex
100
AcDb2dVertex
 10
171.9191057482227
 20
127.2503267257519
 30
0.0
 42
0.0713517487531155
 50
144.7356103172501
  0
VERTEX
  5
96C
330
95F
100
AcDbEntity
  8
3
100
AcDbVertex
100
AcDb2dVertex
 10
171.1002564907279
 20
127.3677773282062
 30
0.0
 42
0.0713517487530977
  0
VERTEX
  5
96D
330
95F
100
AcDbEntity
  8
3
100
AcDbVertex
100
AcDb2dVertex
 10
170.2814072332331
 20
127.250326725752
 30
0.0
 42
0.0828275296409885
  0
VERTEX
  5
96E
330
95F
100
AcDbEntity
  8
3
100
AcDbVertex
100
AcDb2dVertex
 10
169.6386667740149
 20
126.9396876114937
 30
0.0
 42
0.1067562697216128
 70
     2
 50
215.264389682749
  0
VERTEX
  5
96F
330
95F
100
AcDbEntity
  8
3
100
AcDbVertex
100
AcDb2dVertex
 10
169.1772926709339
 20
126.4370392815385
 30
0.0
 42
0.1332561510788984
 50
215.264389682749
  0
SEQEND
  5
970
330
95F
100
AcDbEntity
  8
3
  0
POLYLINE
  5
971
330
B49
100
AcDbEntity
  8
0
100
AcDb2dPolyline
 66
     1
 10
0.0
 20
0.0
 30
0.0
 70
     1
  0
VERTEX
  5
972
330
971
100
AcDbEntity
  8
0
100
AcDbVertex
100
AcDb2dVertex
 10
173.6002564907279
 20
125.9061876114936
 30
0.0
 42
0.1332561510788753
  0
VERTEX
  5
973
330
971
100
AcDbEntity
  8
0
100
AcDbVertex
100
AcDb2dVertex
 10
173.4260472742229
 20
126.5482433323993
 30
0.0
 42
0.1067562697216228
  0
VERTEX
  5
974
330
971
100
AcDbEntity
  8
0
100
AcDbVertex
100
AcDb2dVertex
 10
172.8680234436943
 20
127.1561876114936
 30
0.0
 42
0.0828275296410038
 70
     2
 50
144.7356103172451
  0
VERTEX
  5
975
330
971
100
AcDbEntity
  8
0
100
AcDbVertex
100
AcDb2dVertex
 10
172.0078009299244
 20
127.5719366994966
 30
0.0
 42
0.0867079104441661
 50
144.7356103172451
  0
VERTEX
  5
976
330
971
100
AcDbEntity
  8
0
100
AcDbVertex
100
AcDb2dVertex
 10
171.1002564907279
 20
127.67395456446
 30
0.0
 42
0.0713517487531113
  0
VERTEX
  5
977
330
971
100
AcDbEntity
  8
0
100
AcDbVertex
100
AcDb2dVertex
 10
170.1098727733907
 20
127.5319001347861
 30
0.0
 42
0.0828275296410024
  0
VERTEX
  5
978
330
971
100
AcDbEntity
  8
0
100
AcDbVertex
100
AcDb2dVertex
 10
169.3324895377617
 20
127.1561876114936
 30
0.0
 42
0.1067562697216169
 70
     2
 50
215.2643896827548
  0
VERTEX
  5
979
330
971
100
AcDbEntity
  8
0
100
AcDbVertex
100
AcDb2dVertex
 10
168.7744657072331
 20
126.5482433323993
 30
0.0
 42
0.1332561510788725
 50
215.2643896827548
  0
VERTEX
  5
97A
330
971
100
AcDbEntity
  8
0
100
AcDbVertex
100
AcDb2dVertex
 10
168.6002564907279
 20
125.9061876114936
 30
0.0
 42
0.1332561510788583
  0
VERTEX
  5
97B
330
971
100
AcDbEntity
  8
0
100
AcDbVertex
100
AcDb2dVertex
 10
168.7744657072331
 20
125.2641318905877
 30
0.0
 42
0.1067562697215875
  0
VERTEX
  5
97C
330
971
100
AcDbEntity
  8
0
100
AcDbVertex
100
AcDb2dVertex
 10
169.3324895377617
 20
124.6561876114935
 30
0.0
 42
0.0828275296410098
 70
     2
 50
324.7356103172451
  0
VERTEX
  5
97D
330
971
100
AcDbEntity
  8
0
100
AcDbVertex
100
AcDb2dVertex
 10
170.1098727733907
 20
124.2804750882009
 30
0.0
 42
0.0713517487531184
 50
324.7356103172451
  0
VERTEX
  5
97E
330
971
100
AcDbEntity
  8
0
100
AcDbVertex
100
AcDb2dVertex
 10
171.1002564907279
 20
124.1384206585272
 30
0.0
 42
0.0713517487531214
  0
VERTEX
  5
97F
330
971
100
AcDbEntity
  8
0
100
AcDbVertex
100
AcDb2dVertex
 10
172.0906402080653
 20
124.2804750882009
 30
0.0
 42
0.0828275296410031
  0
VERTEX
  5
980
330
971
100
AcDbEntity
  8
0
100
AcDbVertex
100
AcDb2dVertex
 10
172.8680234436943
 20
124.6561876114935
 30
0.0
 42
0.1067562697216167
 70
     2
 50
35.26438968275492
  0
VERTEX
  5
981
330
971
100
AcDbEntity
  8
0
100
AcDbVertex
100
AcDb2dVertex
 10
173.4260472742229
 20
125.2641318905877
 30
0.0
 42
0.1332561510788725
 50
35.26438968275492
  0
SEQEND
  5
982
330
971
100
AcDbEntity
  8
0
  0
LINE
  5
983
330
B49
100
AcDbEntity
  8
1
100
AcDbLine
 10
171.1002564907279
 20
121.6384206585269
 30
0.0
 11
171.1002564907279
 21
130.1763535318882
 31
0.0
  0
LINE
  5
988
330
B49
100
AcDbEntity
  8
0
100
AcDbLine
 10
109.3692427075002
 20
127.67395456446
 30
0.0
 11
105.8337088015675
 21
124.1384206585272
 31
0.0
  0
LINE
  5
989
330
B49
100
AcDbEntity
  8
1
100
AcDbLine
 10
100.8839613332615
 20
132.6237020327659
 30
0.0
 11
113.6118833946193
 21
119.8957799714081
 31
0.0
  0
CIRCLE
  5
98A
330
B49
100
AcDbEntity
  8
0
100
AcDbCircle
 10
98.05553420851532
 20
135.4521291575121
 30
0.0
 40
13.5
  0
CIRCLE
  5
98B
330
B49
100
AcDbEntity
  8
0
100
AcDbCircle
 10
98.05553420851532
 20
135.4521291575121
 30
0.0
 40
10.0
  0
LINE
  5
98C
330
B49
100
AcDbEntity
  8
0
100
AcDbLine
 10
175.8002564907279
 20
168.4790345314017
 30
0.0
 11
175.8002564907279
 21
113.9521291575124
 31
0.0
  0
LINE
  5
98D
330
B49
100
AcDbEntity
  8
0
100
AcDbLine
 10
166.8002564907279
 20
148.9521291575121
 30
0.0
 11
175.3002564907279
 21
148.9521291575121
 31
0.0
  0
LINE
  5
98E
330
B49
100
AcDbEntity
  8
0
100
AcDbLine
 10
166.8002564907279
 20
121.9521291575121
 30
0.0
 11
166.8002564907279
 21
148.9521291575121
 31
0.0
  0
LINE
  5
98F
330
B49
100
AcDbEntity
  8
0
100
AcDbLine
 10
192.7584137579445
 20
177.4521291575124
 30
0.0
 11
178.4321759174253
 21
172.2378050145453
 31
0.0
  0
LINE
  5
990
330
B49
100
AcDbEntity
  8
0
100
AcDbLine
 10
205.3002564907279
 20
177.4521291575124
 30
0.0
 11
192.7584137579447
 21
177.4521291575124
 31
0.0
  0
LINE
  5
991
330
B49
100
AcDbEntity
  8
0
100
AcDbLine
 10
205.3002564907279
 20
109.9521291575124
 30
0.0
 11
179.8002564907279
 21
109.9521291575124
 31
0.0
  0
LINE
  5
992
330
B49
100
AcDbEntity
  8
0
100
AcDbLine
 10
205.300256490728
 20
177.4521291575124
 30
0.0
 11
205.3002564907279
 21
109.9521291575124
 31
0.0
  0
LINE
  5
993
330
B49
100
AcDbEntity
  8
1
100
AcDbLine
 10
279.9148077751091
 20
181.9521291575124
 30
0.0
 11
279.9148077751091
 21
104.9521291575124
 31
0.0
  0
CIRCLE
  5
994
330
B49
100
AcDbEntity
  8
0
100
AcDbCircle
 10
279.9148077751091
 20
135.4521291575121
 30
0.0
 40
20.0
  0
CIRCLE
  5
995
330
B49
100
AcDbEntity
  8
0
100
AcDbCircle
 10
279.9148077751091
 20
165.4521291575121
 30
0.0
 40
3.0
  0
LINE
  5
996
330
B49
100
AcDbEntity
  8
1
100
AcDbLine
 10
271.9148077751091
 20
165.4521291575121
 30
0.0
 11
287.9148077751091
 21
165.4521291575121
 31
0.0
  0
LINE
  5
997
330
B49
100
AcDbEntity
  8
1
100
AcDbLine
 10
200.8002564907279
 20
165.4521291575121
 30
0.0
 11
216.3002564907279
 21
165.4521291575121
 31
0.0
  0
LINE
  5
998
330
B49
100
AcDbEntity
  8
2
100
AcDbLine
 10
205.3002564907279
 20
115.4521291575121
 30
0.0
 11
203.3002564907279
 21
115.4521291575121
 31
0.0
  0
LINE
  5
999
330
B49
100
AcDbEntity
  8
2
100
AcDbLine
 10
203.3002564907279
 20
155.4521291575121
 30
0.0
 11
205.3002564907279
 21
155.4521291575121
 31
0.0
  0
LINE
  5
99A
330
B49
100
AcDbEntity
  8
2
100
AcDbLine
 10
166.8002564907279
 20
125.4521291575121
 30
0.0
 11
203.3002564907279
 21
125.4521291575122
 31
0.0
  0
LINE
  5
99B
330
B49
100
AcDbEntity
  8
2
100
AcDbLine
 10
203.3002564907279
 20
145.4521291575121
 30
0.0
 11
166.8002564907279
 21
145.4521291575121
 31
0.0
  0
LINE
  5
99C
330
B49
100
AcDbEntity
  8
0
100
AcDbLine
 10
175.8002564907279
 20
154.4521291575121
 30
0.0
 11
175.3002564907279
 21
154.4521291575121
 31
0.0
  0
LINE
  5
99D
330
B49
100
AcDbEntity
  8
0
100
AcDbLine
 10
175.3002564907279
 20
154.4521291575121
 30
0.0
 11
175.3002564907279
 21
116.4521291575121
 31
0.0
  0
LINE
  5
99E
330
B49
100
AcDbEntity
  8
0
100
AcDbLine
 10
175.3002564907279
 20
116.4521291575121
 30
0.0
 11
175.8002564907279
 21
116.4521291575121
 31
0.0
  0
ARC
  5
99F
330
B49
100
AcDbEntity
  8
0
100
AcDbCircle
 10
279.9148077751091
 20
189.9521291575124
 30
0.0
 40
80.0
100
AcDbArc
 50
254.7424767095436
 51
285.2575232904563
  0
ARC
  5
9A0
330
B49
100
AcDbEntity
  8
0
100
AcDbCircle
 10
279.9148077751091
 20
97.45212915751251
 30
0.0
 40
80.0
100
AcDbArc
 50
74.74247670954365
 51
105.2575232904563
  0
CIRCLE
  5
9A1
330
B49
100
AcDbEntity
  8
0
100
AcDbCircle
 10
279.9148077751091
 20
165.4521291575121
 30
0.0
 40
1.5
  0
LINE
  5
9A2
330
B49
100
AcDbEntity
  8
0
100
AcDbLine
 10
255.9148077751091
 20
116.630918038219
 30
0.0
 11
255.9148077751091
 21
170.7733402768059
 31
0.0
  0
ARC
  5
9A3
330
B49
100
AcDbEntity
  8
0
100
AcDbCircle
 10
157.3235056430479
 20
226.8984768993311
 30
0.0
 40
37.07923758464026
100
AcDbArc
 50
319.664477367864
 51
40.33552263213532
  0
LINE
  5
9A4
330
B49
100
AcDbEntity
  8
0
100
AcDbLine
 10
166.8002564907279
 20
213.3984768993311
 30
0.0
 11
166.8002564907279
 21
240.3984768993311
 31
0.0
  0
LINE
  5
9A5
330
B49
100
AcDbEntity
  8
0
100
AcDbLine
 10
166.8002564907279
 20
240.3984768993311
 30
0.0
 11
175.3002564907279
 21
240.3984768993311
 31
0.0
  0
LINE
  5
9A6
330
B49
100
AcDbEntity
  8
0
100
AcDbLine
 10
166.8002564907279
 20
213.3984768993311
 30
0.0
 11
175.3002564907279
 21
213.3984768993311
 31
0.0
  0
LINE
  5
9A7
330
B49
100
AcDbEntity
  8
1
100
AcDbLine
 10
98.05553420851532
 20
181.9521291575125
 30
0.0
 11
98.05553420851532
 21
104.9521291575124
 31
0.0
  0
ARC
  5
9A8
330
B49
100
AcDbEntity
  8
0
100
AcDbCircle
 10
98.05553420851532
 20
97.45212915751251
 30
0.0
 40
80.0
100
AcDbArc
 50
74.74247670954366
 51
77.36437490697888
  0
LINE
  5
9A9
330
B49
100
AcDbEntity
  8
0
100
AcDbLine
 10
74.05553420851538
 20
116.630918038219
 30
0.0
 11
74.05553420851537
 21
170.7733402768059
 31
0.0
  0
LINE
  5
9AA
330
B49
100
AcDbEntity
  8
1
100
AcDbLine
 10
69.05553420851538
 20
135.4521291575121
 30
0.0
 11
127.0555342085152
 21
135.4521291575121
 31
0.0
  0
ARC
  5
9AB
330
B49
100
AcDbEntity
  8
0
100
AcDbCircle
 10
98.05553420851532
 20
189.9521291575124
 30
0.0
 40
80.0
100
AcDbArc
 50
254.7424767095436
 51
285.2575232904563
  0
LINE
  5
9AC
330
B49
100
AcDbEntity
  8
0
100
AcDbLine
 10
122.0555342085152
 20
116.6309180382189
 30
0.0
 11
122.0555342085152
 21
170.7733402768059
 31
0.0
  0
ARC
  5
9AD
330
B49
100
AcDbEntity
  8
0
100
AcDbCircle
 10
78.05553420851538
 20
170.7733402768059
 30
0.0
 40
4.0
100
AcDbArc
 50
105.2575232904561
 51
180.0
  0
ARC
  5
9AE
330
B49
100
AcDbEntity
  8
0
100
AcDbCircle
 10
78.05553420851538
 20
116.6309180382189
 30
0.0
 40
4.0
100
AcDbArc
 50
179.9999999999998
 51
254.7424767095438
  0
ARC
  5
9AF
330
B49
100
AcDbEntity
  8
0
100
AcDbCircle
 10
118.0555342085152
 20
116.6309180382189
 30
0.0
 40
4.0
100
AcDbArc
 50
285.2575232904568
 51
0.0
  0
ARC
  5
9B0
330
B49
100
AcDbEntity
  8
0
100
AcDbCircle
 10
118.0555342085152
 20
170.7733402768059
 30
0.0
 40
4.0
100
AcDbArc
 50
0.0
 51
74.74247670954366
  0
ARC
  5
9B1
330
B49
100
AcDbEntity
  8
0
100
AcDbCircle
 10
299.9148077751091
 20
116.6309180382191
 30
0.0
 40
4.0
100
AcDbArc
 50
285.2575232904562
 51
0.0
  0
ARC
  5
9B2
330
B49
100
AcDbEntity
  8
0
100
AcDbCircle
 10
299.9148077751091
 20
170.7733402768058
 30
0.0
 40
4.0
100
AcDbArc
 50
0.0
 51
74.74247670954381
  0
ARC
  5
9B3
330
B49
100
AcDbEntity
  8
0
100
AcDbCircle
 10
259.9148077751091
 20
170.7733402768059
 30
0.0
 40
4.0
100
AcDbArc
 50
105.2575232904558
 51
180.0
  0
ARC
  5
9B4
330
B49
100
AcDbEntity
  8
0
100
AcDbCircle
 10
259.9148077751091
 20
116.630918038219
 30
0.0
 40
4.0
100
AcDbArc
 50
180.0000000000002
 51
254.7424767095442
  0
ARC
  5
9B5
330
B49
100
AcDbEntity
  8
0
100
AcDbCircle
 10
179.8002564907279
 20
168.4790345314017
 30
0.0
 40
4.0
100
AcDbArc
 50
109.9999999999998
 51
180.0
  0
ARC
  5
9B6
330
B49
100
AcDbEntity
  8
0
100
AcDbCircle
 10
179.8002564907279
 20
113.9521291575124
 30
0.0
 40
4.0
100
AcDbArc
 50
180.0
 51
269.9999999999999
  0
ARC
  5
9B7
330
B49
100
AcDbEntity
  8
0
100
AcDbCircle
 10
179.8002564907279
 20
246.898476899331
 30
0.0
 40
4.0
100
AcDbArc
 50
90.0
 51
179.9999999999999
  0
ARC
  5
9B8
330
B49
100
AcDbEntity
  8
0
100
AcDbCircle
 10
179.8002564907279
 20
206.8984768993309
 30
0.0
 40
4.0
100
AcDbArc
 50
179.9999999999999
 51
269.9999999999998
  0
CIRCLE
  5
9B9
330
B49
100
AcDbEntity
  8
0
100
AcDbCircle
 10
279.9148077751091
 20
135.4521291575121
 30
0.0
 40
10.0
  0
LINE
  5
9BA
330
B49
100
AcDbEntity
  8
0
100
AcDbLine
 10
166.8002564907279
 20
121.9521291575121
 30
0.0
 11
175.3002564907279
 21
121.9521291575121
 31
0.0
  0
ARC
  5
9BD
330
B49
100
AcDbEntity
  8
0
100
AcDbCircle
 10
179.8002564907279
 20
42.25415334251922
 30
0.0
 40
4.0
100
AcDbArc
 50
179.9999999999999
 51
269.9999999999998
  0
ARC
  5
9BE
330
B49
100
AcDbEntity
  8
0
100
AcDbCircle
 10
179.8002564907279
 20
82.2541533425193
 30
0.0
 40
4.0
100
AcDbArc
 50
90.0
 51
179.9999999999999
  0
LINE
  5
9BF
330
B49
100
AcDbEntity
  8
0
100
AcDbLine
 10
166.8002564907279
 20
48.75415334251939
 30
0.0
 11
175.3002564907279
 21
48.75415334251939
 31
0.0
  0
LINE
  5
9C0
330
B49
100
AcDbEntity
  8
0
100
AcDbLine
 10
166.8002564907279
 20
75.75415334251942
 30
0.0
 11
175.3002564907279
 21
75.75415334251942
 31
0.0
  0
LINE
  5
9C1
330
B49
100
AcDbEntity
  8
0
100
AcDbLine
 10
166.8002564907279
 20
48.75415334251939
 30
0.0
 11
166.8002564907279
 21
75.75415334251942
 31
0.0
  0
LINE
  5
9C2
330
B49
100
AcDbEntity
  8
0
100
AcDbLine
 10
205.3002564907279
 20
86.25415334251931
 30
0.0
 11
179.8002564907279
 21
86.25415334251931
 31
0.0
  0
LINE
  5
9C3
330
B49
100
AcDbEntity
  8
0
100
AcDbLine
 10
179.8002564907279
 20
38.25415334251921
 30
0.0
 11
205.3002564907279
 21
38.25415334251921
 31
0.0
  0
LINE
  5
9C4
330
B49
100
AcDbEntity
  8
0
100
AcDbLine
 10
205.3002564907279
 20
38.25415334251921
 30
0.0
 11
205.3002564907279
 21
86.25415334251931
 31
0.0
  0
LINE
  5
9C5
330
B49
100
AcDbEntity
  8
0
100
AcDbLine
 10
175.8002564907279
 20
42.25415334251922
 30
0.0
 11
175.8002564907279
 21
82.2541533425193
 31
0.0
  0
LINE
  5
9C6
330
B49
100
AcDbEntity
  8
1
100
AcDbLine
 10
216.3002564907279
 20
62.25415334251959
 30
0.0
 11
161.8002564907279
 21
62.25415334251959
 31
0.0
  0
LINE
  5
9C7
330
B49
100
AcDbEntity
  8
0
100
AcDbLine
 10
200.3002564907279
 20
38.25415334251921
 30
0.0
 11
200.3002564907279
 21
86.25415334251931
 31
0.0
  0
LINE
  5
9C8
330
B49
100
AcDbEntity
  8
0
100
AcDbLine
 10
175.8002564907279
 20
81.25415334251959
 30
0.0
 11
175.3002564907279
 21
81.25415334251959
 31
0.0
  0
LINE
  5
9C9
330
B49
100
AcDbEntity
  8
0
100
AcDbLine
 10
175.3002564907279
 20
81.25415334251959
 30
0.0
 11
175.3002564907279
 21
43.25415334251959
 31
0.0
  0
LINE
  5
9CA
330
B49
100
AcDbEntity
  8
0
100
AcDbLine
 10
175.3002564907279
 20
43.25415334251959
 30
0.0
 11
175.8002564907279
 21
43.25415334251959
 31
0.0
  0
POLYLINE
  5
9CB
330
B49
100
AcDbEntity
  8
0
100
AcDb2dPolyline
 66
     1
 10
0.0
 20
0.0
 30
0.0
 70
     1
  0
VERTEX
  5
9CC
330
9CB
100
AcDbEntity
  8
0
100
AcDbVertex
100
AcDb2dVertex
 10
173.6002564907278
 20
71.80009679588685
 30
0.0
 42
-0.1332561510788753
  0
VERTEX
  5
9CD
330
9CB
100
AcDbEntity
  8
0
100
AcDbVertex
100
AcDb2dVertex
 10
173.4260472742228
 20
71.15804107498108
 30
0.0
 42
-0.1067562697216228
  0
VERTEX
  5
9CE
330
9CB
100
AcDbEntity
  8
0
100
AcDbVertex
100
AcDb2dVertex
 10
172.8680234436942
 20
70.55009679588685
 30
0.0
 42
-0.0828275296410038
 70
     2
 50
215.2643896827548
  0
VERTEX
  5
9CF
330
9CB
100
AcDbEntity
  8
0
100
AcDbVertex
100
AcDb2dVertex
 10
172.0078009299243
 20
70.1343477078838
 30
0.0
 42
-0.0867079104441661
  0
VERTEX
  5
9D0
330
9CB
100
AcDbEntity
  8
0
100
AcDbVertex
100
AcDb2dVertex
 10
171.1002564907278
 20
70.03232984292047
 30
0.0
 42
-0.0713517487531113
  0
VERTEX
  5
9D1
330
9CB
100
AcDbEntity
  8
0
100
AcDbVertex
100
AcDb2dVertex
 10
170.1098727733906
 20
70.17438427259428
 30
0.0
 42
-0.0828275296410024
  0
VERTEX
  5
9D2
330
9CB
100
AcDbEntity
  8
0
100
AcDbVertex
100
AcDb2dVertex
 10
169.3324895377616
 20
70.55009679588685
 30
0.0
 42
-0.1067562697216169
 70
     2
 50
144.735610317245
  0
VERTEX
  5
9D3
330
9CB
100
AcDbEntity
  8
0
100
AcDbVertex
100
AcDb2dVertex
 10
168.774465707233
 20
71.15804107498108
 30
0.0
 42
-0.1332561510788725
  0
VERTEX
  5
9D4
330
9CB
100
AcDbEntity
  8
0
100
AcDbVertex
100
AcDb2dVertex
 10
168.6002564907278
 20
71.80009679588685
 30
0.0
 42
-0.1332561510788583
  0
VERTEX
  5
9D5
330
9CB
100
AcDbEntity
  8
0
100
AcDbVertex
100
AcDb2dVertex
 10
168.774465707233
 20
72.44215251679275
 30
0.0
 42
-0.1067562697215875
  0
VERTEX
  5
9D6
330
9CB
100
AcDbEntity
  8
0
100
AcDbVertex
100
AcDb2dVertex
 10
169.3324895377616
 20
73.05009679588692
 30
0.0
 42
-0.0828275296410098
 70
     2
 50
35.26438968275488
  0
VERTEX
  5
9D7
330
9CB
100
AcDbEntity
  8
0
100
AcDbVertex
100
AcDb2dVertex
 10
170.1098727733906
 20
73.42580931917949
 30
0.0
 42
-0.0713517487531184
  0
VERTEX
  5
9D8
330
9CB
100
AcDbEntity
  8
0
100
AcDbVertex
100
AcDb2dVertex
 10
171.1002564907278
 20
73.56786374885324
 30
0.0
 42
-0.0713517487531214
  0
VERTEX
  5
9D9
330
9CB
100
AcDbEntity
  8
0
100
AcDbVertex
100
AcDb2dVertex
 10
172.0906402080652
 20
73.42580931917949
 30
0.0
 42
-0.0828275296410031
  0
VERTEX
  5
9DA
330
9CB
100
AcDbEntity
  8
0
100
AcDbVertex
100
AcDb2dVertex
 10
172.8680234436942
 20
73.05009679588692
 30
0.0
 42
-0.1067562697216167
 70
     2
 50
324.735610317245
  0
VERTEX
  5
9DB
330
9CB
100
AcDbEntity
  8
0
100
AcDbVertex
100
AcDb2dVertex
 10
173.4260472742228
 20
72.44215251679269
 30
0.0
 42
-0.1332561510788725
  0
SEQEND
  5
9DC
330
9CB
100
AcDbEntity
  8
0
  0
POLYLINE
  5
9DD
330
B49
100
AcDbEntity
  8
3
100
AcDb2dPolyline
 66
     1
 10
0.0
 20
0.0
 30
0.0
 70
     1
  0
VERTEX
  5
9DE
330
9DD
100
AcDbEntity
  8
3
100
AcDbVertex
100
AcDb2dVertex
 10
169.0332564907273
 20
71.80009679588685
 30
0.0
 42
-0.1332561510789112
  0
VERTEX
  5
9DF
330
9DD
100
AcDbEntity
  8
3
100
AcDbVertex
100
AcDb2dVertex
 10
169.1772926709338
 20
72.33094846593182
 30
0.0
 42
-0.1067562697216285
  0
VERTEX
  5
9E0
330
9DD
100
AcDbEntity
  8
3
100
AcDbVertex
100
AcDb2dVertex
 10
169.6386667740148
 20
72.83359679588698
 30
0.0
 42
-0.0828275296409765
 70
     2
 50
35.26438968274979
  0
VERTEX
  5
9E1
330
9DD
100
AcDbEntity
  8
3
100
AcDbVertex
100
AcDb2dVertex
 10
170.3498987484001
 20
73.17733814184798
 30
0.0
 42
-0.0867079104441287
  0
VERTEX
  5
9E2
330
9DD
100
AcDbEntity
  8
3
100
AcDbVertex
100
AcDb2dVertex
 10
171.1002564907278
 20
73.26168651259961
 30
0.0
 42
-0.0713517487530916
  0
VERTEX
  5
9E3
330
9DD
100
AcDbEntity
  8
3
100
AcDbVertex
100
AcDb2dVertex
 10
171.9191057482226
 20
73.14423591014535
 30
0.0
 42
-0.0828275296409883
  0
VERTEX
  5
9E4
330
9DD
100
AcDbEntity
  8
3
100
AcDbVertex
100
AcDb2dVertex
 10
172.561846207441
 20
72.83359679588698
 30
0.0
 42
-0.1067562697216101
 70
     2
 50
324.735610317251
  0
VERTEX
  5
9E5
330
9DD
100
AcDbEntity
  8
3
100
AcDbVertex
100
AcDb2dVertex
 10
173.0232203105219
 20
72.33094846593182
 30
0.0
 42
-0.1332561510788615
  0
VERTEX
  5
9E6
330
9DD
100
AcDbEntity
  8
3
100
AcDbVertex
100
AcDb2dVertex
 10
173.1672564907285
 20
71.80009679588692
 30
0.0
 42
-0.1332561510788673
  0
VERTEX
  5
9E7
330
9DD
100
AcDbEntity
  8
3
100
AcDbVertex
100
AcDb2dVertex
 10
173.0232203105219
 20
71.26924512584195
 30
0.0
 42
-0.1067562697216111
  0
VERTEX
  5
9E8
330
9DD
100
AcDbEntity
  8
3
100
AcDbVertex
100
AcDb2dVertex
 10
172.561846207441
 20
70.76659679588679
 30
0.0
 42
-0.0828275296410134
 70
     2
 50
215.2643896827498
  0
VERTEX
  5
9E9
330
9DD
100
AcDbEntity
  8
3
100
AcDbVertex
100
AcDb2dVertex
 10
171.9191057482226
 20
70.45595768162847
 30
0.0
 42
-0.0713517487531155
  0
VERTEX
  5
9EA
330
9DD
100
AcDbEntity
  8
3
100
AcDbVertex
100
AcDb2dVertex
 10
171.1002564907278
 20
70.33850707917416
 30
0.0
 42
-0.0713517487530977
  0
VERTEX
  5
9EB
330
9DD
100
AcDbEntity
  8
3
100
AcDbVertex
100
AcDb2dVertex
 10
170.281407233233
 20
70.45595768162842
 30
0.0
 42
-0.0828275296409885
  0
VERTEX
  5
9EC
330
9DD
100
AcDbEntity
  8
3
100
AcDbVertex
100
AcDb2dVertex
 10
169.6386667740148
 20
70.76659679588674
 30
0.0
 42
-0.1067562697216128
 70
     2
 50
144.7356103172509
  0
VERTEX
  5
9ED
330
9DD
100
AcDbEntity
  8
3
100
AcDbVertex
100
AcDb2dVertex
 10
169.1772926709338
 20
71.26924512584189
 30
0.0
 42
-0.1332561510788984
  0
SEQEND
  5
9EE
330
9DD
100
AcDbEntity
  8
3
  0
LINE
  5
9EF
330
B49
100
AcDbEntity
  8
0
100
AcDbLine
 10
170.3785686542407
 20
70.9162133194037
 30
0.0
 11
171.821944327215
 21
70.9162133194037
 31
0.0
  0
LINE
  5
9F0
330
B49
100
AcDbEntity
  8
0
100
AcDbLine
 10
170.3785686542407
 20
72.68398027237008
 30
0.0
 11
171.821944327215
 21
72.68398027237008
 31
0.0
  0
LINE
  5
9F1
330
B49
100
AcDbEntity
  8
0
100
AcDbLine
 10
171.821944327215
 20
70.9162133194037
 30
0.0
 11
172.5436321637018
 21
71.80009679588685
 31
0.0
  0
LINE
  5
9F2
330
B49
100
AcDbEntity
  8
0
100
AcDbLine
 10
171.821944327215
 20
72.68398027237002
 30
0.0
 11
172.5436321637018
 21
71.80009679588685
 31
0.0
  0
LINE
  5
9F3
330
B49
100
AcDbEntity
  8
0
100
AcDbLine
 10
170.3785686542407
 20
72.68398027237002
 30
0.0
 11
169.6568808177539
 21
71.80009679588685
 31
0.0
  0
LINE
  5
9F4
330
B49
100
AcDbEntity
  8
0
100
AcDbLine
 10
170.3785686542407
 20
70.9162133194037
 30
0.0
 11
169.6568808177539
 21
71.80009679588685
 31
0.0
  0
LINE
  5
9F5
330
B49
100
AcDbEntity
  8
1
100
AcDbLine
 10
171.1002564907281
 20
67.53232984292047
 30
0.0
 11
171.1002564907279
 21
76.06786374885324
 31
0.0
  0
LINE
  5
9F6
330
B49
100
AcDbEntity
  8
0
100
AcDbLine
 10
115.5555342085153
 20
157.4521291575121
 30
0.0
 11
80.55553420851532
 21
157.4521291575121
 31
0.0
  0
LINE
  5
9F7
330
B49
100
AcDbEntity
  8
0
100
AcDbLine
 10
115.5555342085153
 20
168.4521291575121
 30
0.0
 11
115.5555342085153
 21
157.4521291575121
 31
0.0
  0
LINE
  5
9F8
330
B49
100
AcDbEntity
  8
0
100
AcDbLine
 10
80.55553420851532
 20
168.4521291575121
 30
0.0
 11
80.55553420851532
 21
157.4521291575121
 31
0.0
  0
LINE
  5
9F9
330
B49
100
AcDbEntity
  8
0
100
AcDbLine
 10
115.5555342085153
 20
168.4521291575121
 30
0.0
 11
80.55553420851532
 21
168.4521291575121
 31
0.0
  0
LINE
  5
9FA
330
B49
100
AcDbEntity
  8
0
100
AcDbLine
 10
76.05553420851538
 20
170.7733402768058
 30
0.0
 11
120.0555342085152
 21
170.7733402768059
 31
0.0
  0
LINE
  5
9FB
330
B49
100
AcDbEntity
  8
0
100
AcDbLine
 10
211.3002564907279
 20
59.75415334251825
 30
0.0
 11
211.3002564907279
 21
64.75415334251945
 31
0.0
  0
LINE
  5
9FC
330
B49
100
AcDbEntity
  8
0
100
AcDbLine
 10
210.8002564907278
 20
59.25415334251825
 30
0.0
 11
205.3002564907279
 21
59.25415334251822
 31
0.0
  0
ARC
  5
9FD
330
B49
100
AcDbEntity
  8
0
100
AcDbCircle
 10
210.8002564907279
 20
59.75415334251825
 30
0.0
 40
0.5
100
AcDbArc
 50
270.0
 51
0.0
  0
LINE
  5
9FE
330
B49
100
AcDbEntity
  8
0
100
AcDbLine
 10
210.8002564907278
 20
65.25415334251944
 30
0.0
 11
205.3002564907279
 21
65.25415334251944
 31
0.0
  0
ARC
  5
9FF
330
B49
100
AcDbEntity
  8
0
100
AcDbCircle
 10
210.8002564907279
 20
64.75415334251945
 30
0.0
 40
0.5
100
AcDbArc
 50
0.0
 51
90.0
  0
LINE
  5
A00
330
B49
100
AcDbEntity
  8
0
100
AcDbLine
 10
211.3002564907279
 20
224.39847689933
 30
0.0
 11
211.3002564907279
 21
229.3984768993312
 31
0.0
  0
LINE
  5
A01
330
B49
100
AcDbEntity
  8
0
100
AcDbLine
 10
210.8002564907278
 20
223.89847689933
 30
0.0
 11
205.3002564907279
 21
223.89847689933
 31
0.0
  0
ARC
  5
A02
330
B49
100
AcDbEntity
  8
0
100
AcDbCircle
 10
210.8002564907279
 20
224.39847689933
 30
0.0
 40
0.5
100
AcDbArc
 50
270.0
 51
0.0
  0
LINE
  5
A03
330
B49
100
AcDbEntity
  8
0
100
AcDbLine
 10
210.8002564907278
 20
229.8984768993312
 30
0.0
 11
205.3002564907279
 21
229.8984768993312
 31
0.0
  0
ARC
  5
A04
330
B49
100
AcDbEntity
  8
0
100
AcDbCircle
 10
210.8002564907279
 20
229.3984768993312
 30
0.0
 40
0.5
100
AcDbArc
 50
0.0
 51
90.0
  0
CIRCLE
  5
A05
330
B49
100
AcDbEntity
  8
0
100
AcDbCircle
 10
298.1648077751091
 20
153.7021291575121
 30
0.0
 40
1.25
  0
CIRCLE
  5
A06
330
B49
100
AcDbEntity
  8
0
100
AcDbCircle
 10
261.6648077751091
 20
153.7021291575121
 30
0.0
 40
1.25
  0
CIRCLE
  5
A07
330
B49
100
AcDbEntity
  8
0
100
AcDbCircle
 10
298.1648077751091
 20
117.2021291575121
 30
0.0
 40
1.25
  0
CIRCLE
  5
A08
330
B49
100
AcDbEntity
  8
0
100
AcDbCircle
 10
261.6148077751091
 20
117.1521291575121
 30
0.0
 40
1.25
  0
LINE
  5
A09
330
B49
100
AcDbEntity
  8
1
100
AcDbLine
 10
265.4148077751091
 20
153.7021291575121
 30
0.0
 11
257.9148077751091
 21
153.7021291575121
 31
0.0
  0
LINE
  5
A0A
330
B49
100
AcDbEntity
  8
1
100
AcDbLine
 10
261.6648077751091
 20
157.4521291575121
 30
0.0
 11
261.6648077751091
 21
149.9521291575121
 31
0.0
  0
LINE
  5
A0B
330
B49
100
AcDbEntity
  8
1
100
AcDbLine
 10
265.3648077751091
 20
117.1521291575121
 30
0.0
 11
257.8648077751091
 21
117.1521291575121
 31
0.0
  0
LINE
  5
A0C
330
B49
100
AcDbEntity
  8
1
100
AcDbLine
 10
261.6148077751091
 20
120.9021291575121
 30
0.0
 11
261.6148077751091
 21
113.4021291575121
 31
0.0
  0
LINE
  5
A0D
330
B49
100
AcDbEntity
  8
1
100
AcDbLine
 10
301.9148077751091
 20
117.2021291575121
 30
0.0
 11
294.4148077751091
 21
117.2021291575121
 31
0.0
  0
LINE
  5
A0E
330
B49
100
AcDbEntity
  8
1
100
AcDbLine
 10
298.1648077751091
 20
120.9521291575121
 30
0.0
 11
298.1648077751091
 21
113.4521291575121
 31
0.0
  0
LINE
  5
A0F
330
B49
100
AcDbEntity
  8
1
100
AcDbLine
 10
301.9148077751091
 20
153.7021291575121
 30
0.0
 11
294.4148077751091
 21
153.7021291575121
 31
0.0
  0
LINE
  5
A10
330
B49
100
AcDbEntity
  8
1
100
AcDbLine
 10
298.1648077751091
 20
157.4521291575121
 30
0.0
 11
298.1648077751091
 21
149.9521291575121
 31
0.0
  0
LINE
  5
A11
330
B49
100
AcDbEntity
  8
0
100
AcDbLine
 10
189.8002564907291
 20
209.3984768993313
 30
0.0
 11
189.8002564907291
 21
244.3984768993313
 31
0.0
  0
LINE
  5
A12
330
B49
100
AcDbEntity
  8
0
100
AcDbLine
 10
189.8002564907291
 20
244.3984768993313
 30
0.0
 11
178.8002564907291
 21
244.3984768993313
 31
0.0
  0
LINE
  5
A13
330
B49
100
AcDbEntity
  8
0
100
AcDbLine
 10
189.8002564907291
 20
209.3984768993313
 30
0.0
 11
178.8002564907291
 21
209.3984768993313
 31
0.0
  0
POLYLINE
  5
A15
330
B49
100
AcDbEntity
  8
3
  6
Continuous
100
AcDb3dPolyline
 66
     1
 10
0.0
 20
0.0
 30
0.0
 70
     8
  0
VERTEX
  5
A7E
330
A15
100
AcDbEntity
  8
3
  6
Continuous
100
AcDbVertex
100
AcDb3dPolylineVertex
 10
102.0176469469808
 20
165.7264303642224
 30
0.0
 70
    32
1001
ACAD
1000
R13OBJECT
1002
{
1005
A15
1002
}
  0
VERTEX
  5
A7F
330
A15
100
AcDbEntity
  8
3
  6
Continuous
100
AcDbVertex
100
AcDb3dPolylineVertex
 10
100.608061377911
 20
166.4952691049792
 30
0.0
 70
    32
1001
ACAD
1000
R13OBJECT
1002
{
1005
A15
1002
}
  0
VERTEX
  5
A80
330
A15
100
AcDbEntity
  8
3
  6
Continuous
100
AcDbVertex
100
AcDb3dPolylineVertex
 10
98.93651441682253
 20
166.9004815996048
 30
0.0
 70
    32
1001
ACAD
1000
R13OBJECT
1002
{
1005
A15
1002
}
  0
VERTEX
  5
A81
330
A15
100
AcDbEntity
  8
3
  6
Continuous
100
AcDbVertex
100
AcDb3dPolylineVertex
 10
97.1745540002081
 20
166.9004815996048
 30
0.0
 70
    32
1001
ACAD
1000
R13OBJECT
1002
{
1005
A15
1002
}
  0
VERTEX
  5
A82
330
A15
100
AcDbEntity
  8
3
  6
Continuous
100
AcDbVertex
100
AcDb3dPolylineVertex
 10
95.50300703911963
 20
166.4952691049792
 30
0.0
 70
    32
1001
ACAD
1000
R13OBJECT
1002
{
1005
A15
1002
}
  0
VERTEX
  5
A83
330
A15
100
AcDbEntity
  8
3
  6
Continuous
100
AcDbVertex
100
AcDb3dPolylineVertex
 10
94.09342147004975
 20
165.7264303642224
 30
0.0
 70
    32
1001
ACAD
1000
R13OBJECT
1002
{
1005
A15
1002
}
  0
SEQEND
  5
A84
330
A15
100
AcDbEntity
  8
3
  6
Continuous
  0
POLYLINE
  5
A16
330
B49
100
AcDbEntity
  8
3
  6
Continuous
100
AcDb3dPolyline
 66
     1
 10
0.0
 20
0.0
 30
0.0
 70
     8
  0
VERTEX
  5
A85
330
A16
100
AcDbEntity
  8
3
  6
Continuous
100
AcDbVertex
100
AcDb3dPolylineVertex
 10
101.6555342085153
 20
164.9521291575121
 30
0.0
 70
    32
1001
ACAD
1000
R13OBJECT
1002
{
1005
A16
1002
}
  0
VERTEX
  5
A86
330
A16
100
AcDbEntity
  8
3
  6
Continuous
100
AcDbVertex
100
AcDb3dPolylineVertex
 10
100.7725601816321
 20
164.7230412088186
 30
0.0
 70
    32
1001
ACAD
1000
R13OBJECT
1002
{
1005
A16
1002
}
  0
VERTEX
  5
A87
330
A16
100
AcDbEntity
  8
3
  6
Continuous
100
AcDbVertex
100
AcDb3dPolylineVertex
 10
100.0918648633173
 20
164.0882586509744
 30
0.0
 70
    32
1001
ACAD
1000
R13OBJECT
1002
{
1005
A16
1002
}
  0
VERTEX
  5
A88
330
A16
100
AcDbEntity
  8
3
  6
Continuous
100
AcDbVertex
100
AcDb3dPolylineVertex
 10
99.769387347729
 20
163.1932025180227
 30
0.0
 70
    32
1001
ACAD
1000
R13OBJECT
1002
{
1005
A16
1002
}
  0
VERTEX
  5
A89
330
A16
100
AcDbEntity
  8
3
  6
Continuous
100
AcDbVertex
100
AcDb3dPolylineVertex
 10
99.87900334741304
 20
162.242919383427
 30
0.0
 70
    32
1001
ACAD
1000
R13OBJECT
1002
{
1005
A16
1002
}
  0
VERTEX
  5
A8A
330
A16
100
AcDbEntity
  8
3
  6
Continuous
100
AcDbVertex
100
AcDb3dPolylineVertex
 10
100.3956011578578
 20
161.4551076611699
 30
0.0
 70
    32
1001
ACAD
1000
R13OBJECT
1002
{
1005
A16
1002
}
  0
VERTEX
  5
A8B
330
A16
100
AcDbEntity
  8
3
  6
Continuous
100
AcDbVertex
100
AcDb3dPolylineVertex
 10
101.2008344463689
 20
161.01024552266
 30
0.0
 70
    32
1001
ACAD
1000
R13OBJECT
1002
{
1005
A16
1002
}
  0
VERTEX
  5
A8C
330
A16
100
AcDbEntity
  8
3
  6
Continuous
100
AcDbVertex
100
AcDb3dPolylineVertex
 10
102.1102339706617
 20
161.01024552266
 30
0.0
 70
    32
1001
ACAD
1000
R13OBJECT
1002
{
1005
A16
1002
}
  0
VERTEX
  5
A8D
330
A16
100
AcDbEntity
  8
3
  6
Continuous
100
AcDbVertex
100
AcDb3dPolylineVertex
 10
102.9154672591728
 20
161.4551076611699
 30
0.0
 70
    32
1001
ACAD
1000
R13OBJECT
1002
{
1005
A16
1002
}
  0
VERTEX
  5
A8E
330
A16
100
AcDbEntity
  8
3
  6
Continuous
100
AcDbVertex
100
AcDb3dPolylineVertex
 10
103.4320650696176
 20
162.2429193834271
 30
0.0
 70
    32
1001
ACAD
1000
R13OBJECT
1002
{
1005
A16
1002
}
  0
VERTEX
  5
A8F
330
A16
100
AcDbEntity
  8
3
  6
Continuous
100
AcDbVertex
100
AcDb3dPolylineVertex
 10
103.5416810693016
 20
163.1932025180228
 30
0.0
 70
    32
1001
ACAD
1000
R13OBJECT
1002
{
1005
A16
1002
}
  0
VERTEX
  5
A90
330
A16
100
AcDbEntity
  8
3
  6
Continuous
100
AcDbVertex
100
AcDb3dPolylineVertex
 10
103.2192035537132
 20
164.0882586509744
 30
0.0
 70
    32
1001
ACAD
1000
R13OBJECT
1002
{
1005
A16
1002
}
  0
VERTEX
  5
A91
330
A16
100
AcDbEntity
  8
3
  6
Continuous
100
AcDbVertex
100
AcDb3dPolylineVertex
 10
102.5385082353984
 20
164.7230412088186
 30
0.0
 70
    32
1001
ACAD
1000
R13OBJECT
1002
{
1005
A16
1002
}
  0
VERTEX
  5
A92
330
A16
100
AcDbEntity
  8
3
  6
Continuous
100
AcDbVertex
100
AcDb3dPolylineVertex
 10
101.6555342085152
 20
164.9521291575121
 30
0.0
 70
    32
1001
ACAD
1000
R13OBJECT
1002
{
1005
A16
1002
}
  0
SEQEND
  5
A93
330
A16
100
AcDbEntity
  8
3
  6
Continuous
  0
POLYLINE
  5
A17
330
B49
100
AcDbEntity
  8
3
  6
Continuous
100
AcDb3dPolyline
 66
     1
 10
0.0
 20
0.0
 30
0.0
 70
     8
  0
VERTEX
  5
A94
330
A17
100
AcDbEntity
  8
3
  6
Continuous
100
AcDbVertex
100
AcDb3dPolylineVertex
 10
101.6555342085153
 20
164.4521291575121
 30
0.0
 70
    32
1001
ACAD
1000
R13OBJECT
1002
{
1005
A17
1002
}
  0
VERTEX
  5
A95
330
A17
100
AcDbEntity
  8
3
  6
Continuous
100
AcDbVertex
100
AcDb3dPolylineVertex
 10
101.3198722400269
 20
164.4083248156615
 30
0.0
 70
    32
1001
ACAD
1000
R13OBJECT
1002
{
1005
A17
1002
}
  0
VERTEX
  5
A96
330
A17
100
AcDbEntity
  8
3
  6
Continuous
100
AcDbVertex
100
AcDb3dPolylineVertex
 10
100.9804833062406
 20
164.266047144093
 30
0.0
 70
    32
1001
ACAD
1000
R13OBJECT
1002
{
1005
A17
1002
}
  0
VERTEX
  5
A97
330
A17
100
AcDbEntity
  8
3
  6
Continuous
100
AcDbVertex
100
AcDb3dPolylineVertex
 10
100.674531041058
 20
164.0219679889279
 30
0.0
 70
    32
1001
ACAD
1000
R13OBJECT
1002
{
1005
A17
1002
}
  0
VERTEX
  5
A98
330
A17
100
AcDbEntity
  8
3
  6
Continuous
100
AcDbVertex
100
AcDb3dPolylineVertex
 10
100.439545215532
 20
163.6951610522162
 30
0.0
 70
    32
1001
ACAD
1000
R13OBJECT
1002
{
1005
A17
1002
}
  0
VERTEX
  5
A99
330
A17
100
AcDbEntity
  8
3
  6
Continuous
100
AcDbVertex
100
AcDb3dPolylineVertex
 10
100.2555342085153
 20
162.9521291575121
 30
0.0
 70
    32
1001
ACAD
1000
R13OBJECT
1002
{
1005
A17
1002
}
  0
VERTEX
  5
A9A
330
A17
100
AcDbEntity
  8
3
  6
Continuous
100
AcDbVertex
100
AcDb3dPolylineVertex
 10
100.439545215532
 20
162.209097262808
 30
0.0
 70
    32
1001
ACAD
1000
R13OBJECT
1002
{
1005
A17
1002
}
  0
VERTEX
  5
A9B
330
A17
100
AcDbEntity
  8
3
  6
Continuous
100
AcDbVertex
100
AcDb3dPolylineVertex
 10
100.674531041058
 20
161.8822903260964
 30
0.0
 70
    32
1001
ACAD
1000
R13OBJECT
1002
{
1005
A17
1002
}
  0
VERTEX
  5
A9C
330
A17
100
AcDbEntity
  8
3
  6
Continuous
100
AcDbVertex
100
AcDb3dPolylineVertex
 10
100.9804833062406
 20
161.6382111709313
 30
0.0
 70
    32
1001
ACAD
1000
R13OBJECT
1002
{
1005
A17
1002
}
  0
VERTEX
  5
A9D
330
A17
100
AcDbEntity
  8
3
  6
Continuous
100
AcDbVertex
100
AcDb3dPolylineVertex
 10
101.3198722400269
 20
161.4959334993627
 30
0.0
 70
    32
1001
ACAD
1000
R13OBJECT
1002
{
1005
A17
1002
}
  0
VERTEX
  5
A9E
330
A17
100
AcDbEntity
  8
3
  6
Continuous
100
AcDbVertex
100
AcDb3dPolylineVertex
 10
101.6555342085153
 20
161.4521291575121
 30
0.0
 70
    32
1001
ACAD
1000
R13OBJECT
1002
{
1005
A17
1002
}
  0
VERTEX
  5
A9F
330
A17
100
AcDbEntity
  8
3
  6
Continuous
100
AcDbVertex
100
AcDb3dPolylineVertex
 10
101.9911961770036
 20
161.4959334993627
 30
0.0
 70
    32
1001
ACAD
1000
R13OBJECT
1002
{
1005
A17
1002
}
  0
VERTEX
  5
AA0
330
A17
100
AcDbEntity
  8
3
  6
Continuous
100
AcDbVertex
100
AcDb3dPolylineVertex
 10
102.3305851107899
 20
161.6382111709313
 30
0.0
 70
    32
1001
ACAD
1000
R13OBJECT
1002
{
1005
A17
1002
}
  0
VERTEX
  5
AA1
330
A17
100
AcDbEntity
  8
3
  6
Continuous
100
AcDbVertex
100
AcDb3dPolylineVertex
 10
102.6365373759725
 20
161.8822903260963
 30
0.0
 70
    32
1001
ACAD
1000
R13OBJECT
1002
{
1005
A17
1002
}
  0
VERTEX
  5
AA2
330
A17
100
AcDbEntity
  8
3
  6
Continuous
100
AcDbVertex
100
AcDb3dPolylineVertex
 10
102.8715232014985
 20
162.2090972628081
 30
0.0
 70
    32
1001
ACAD
1000
R13OBJECT
1002
{
1005
A17
1002
}
  0
VERTEX
  5
AA3
330
A17
100
AcDbEntity
  8
3
  6
Continuous
100
AcDbVertex
100
AcDb3dPolylineVertex
 10
103.0555342085153
 20
162.9521291575122
 30
0.0
 70
    32
1001
ACAD
1000
R13OBJECT
1002
{
1005
A17
1002
}
  0
VERTEX
  5
AA4
330
A17
100
AcDbEntity
  8
3
  6
Continuous
100
AcDbVertex
100
AcDb3dPolylineVertex
 10
102.8715232014985
 20
163.6951610522162
 30
0.0
 70
    32
1001
ACAD
1000
R13OBJECT
1002
{
1005
A17
1002
}
  0
VERTEX
  5
AA5
330
A17
100
AcDbEntity
  8
3
  6
Continuous
100
AcDbVertex
100
AcDb3dPolylineVertex
 10
102.6365373759725
 20
164.0219679889279
 30
0.0
 70
    32
1001
ACAD
1000
R13OBJECT
1002
{
1005
A17
1002
}
  0
VERTEX
  5
AA6
330
A17
100
AcDbEntity
  8
3
  6
Continuous
100
AcDbVertex
100
AcDb3dPolylineVertex
 10
102.3305851107899
 20
164.266047144093
 30
0.0
 70
    32
1001
ACAD
1000
R13OBJECT
1002
{
1005
A17
1002
}
  0
VERTEX
  5
AA7
330
A17
100
AcDbEntity
  8
3
  6
Continuous
100
AcDbVertex
100
AcDb3dPolylineVertex
 10
101.9911961770036
 20
164.4083248156615
 30
0.0
 70
    32
1001
ACAD
1000
R13OBJECT
1002
{
1005
A17
1002
}
  0
VERTEX
  5
AA8
330
A17
100
AcDbEntity
  8
3
  6
Continuous
100
AcDbVertex
100
AcDb3dPolylineVertex
 10
101.6555342085153
 20
164.4521291575121
 30
0.0
 70
    32
1001
ACAD
1000
R13OBJECT
1002
{
1005
A17
1002
}
  0
SEQEND
  5
AA9
330
A17
100
AcDbEntity
  8
3
  6
Continuous
  0
LINE
  5
A18
330
B49
100
AcDbEntity
  8
3
100
AcDbLine
 10
100.0555342085153
 20
164.9521291575121
 30
0.0
 11
99.43053420851533
 21
164.9521291575121
 31
0.0
  0
LINE
  5
A19
330
B49
100
AcDbEntity
  8
3
100
AcDbLine
 10
100.0555342085153
 20
160.9521291575121
 30
0.0
 11
99.43053420851533
 21
160.9521291575121
 31
0.0
  0
LINE
  5
A1A
330
B49
100
AcDbEntity
  8
3
100
AcDbLine
 10
97.55553420851533
 20
160.9521291575121
 30
0.0
 11
97.55553420851533
 21
164.9521291575121
 31
0.0
  0
LINE
  5
A1B
330
B49
100
AcDbEntity
  8
3
100
AcDbLine
 10
98.05553420851532
 20
163.1187958241788
 30
0.0
 11
98.05553420851532
 21
164.9521291575121
 31
0.0
  0
LINE
  5
A1C
330
B49
100
AcDbEntity
  8
3
100
AcDbLine
 10
96.05553420851533
 20
160.9521291575121
 30
0.0
 11
96.05553420851535
 21
164.9521291575121
 31
0.0
  0
LINE
  5
A1D
330
B49
100
AcDbEntity
  8
3
100
AcDbLine
 10
96.55553420851532
 20
160.9521291575121
 30
0.0
 11
96.55553420851534
 21
164.9521291575121
 31
0.0
  0
LINE
  5
A1E
330
B49
100
AcDbEntity
  8
3
100
AcDbLine
 10
100.0555342085153
 20
160.9521291575121
 30
0.0
 11
98.55553420851533
 21
162.9521291575121
 31
0.0
  0
LINE
  5
A1F
330
B49
100
AcDbEntity
  8
3
100
AcDbLine
 10
98.55553420851533
 20
162.9521291575121
 30
0.0
 11
100.0555342085153
 21
164.9521291575121
 31
0.0
  0
LINE
  5
A20
330
B49
100
AcDbEntity
  8
3
100
AcDbLine
 10
99.4305342085153
 20
160.9521291575122
 30
0.0
 11
98.05553420851532
 21
162.7854624908455
 31
0.0
  0
LINE
  5
A21
330
B49
100
AcDbEntity
  8
3
100
AcDbLine
 10
98.05553420851532
 20
163.1187958241788
 30
0.0
 11
99.43053420851532
 21
164.9521291575121
 31
0.0
  0
LINE
  5
A22
330
B49
100
AcDbEntity
  8
3
100
AcDbLine
 10
98.05553420851532
 20
162.7854624908455
 30
0.0
 11
98.05553420851534
 21
160.9521291575121
 31
0.0
  0
POLYLINE
  5
A23
330
B49
100
AcDbEntity
  8
3
  6
Continuous
100
AcDb3dPolyline
 66
     1
 10
0.0
 20
0.0
 30
0.0
 70
     8
  0
VERTEX
  5
AAA
330
A23
100
AcDbEntity
  8
3
  6
Continuous
100
AcDbVertex
100
AcDb3dPolylineVertex
 10
95.0199735688146
 20
164.4258896383214
 30
0.0
 70
    32
1001
ACAD
1000
R13OBJECT
1002
{
1005
A23
1002
}
  0
VERTEX
  5
AAB
330
A23
100
AcDbEntity
  8
3
  6
Continuous
100
AcDbVertex
100
AcDb3dPolylineVertex
 10
94.47852338532102
 20
164.8559352931346
 30
0.0
 70
    32
1001
ACAD
1000
R13OBJECT
1002
{
1005
A23
1002
}
  0
VERTEX
  5
AAC
330
A23
100
AcDbEntity
  8
3
  6
Continuous
100
AcDbVertex
100
AcDb3dPolylineVertex
 10
93.7678198587805
 20
164.9346549860127
 30
0.0
 70
    32
1001
ACAD
1000
R13OBJECT
1002
{
1005
A23
1002
}
  0
VERTEX
  5
AAD
330
A23
100
AcDbEntity
  8
3
  6
Continuous
100
AcDbVertex
100
AcDb3dPolylineVertex
 10
93.13056041436086
 20
164.6351668090182
 30
0.0
 70
    32
1001
ACAD
1000
R13OBJECT
1002
{
1005
A23
1002
}
  0
VERTEX
  5
AAE
330
A23
100
AcDbEntity
  8
3
  6
Continuous
100
AcDbVertex
100
AcDb3dPolylineVertex
 10
92.78436213224933
 20
164.0597426754176
 30
0.0
 70
    32
1001
ACAD
1000
R13OBJECT
1002
{
1005
A23
1002
}
  0
VERTEX
  5
AAF
330
A23
100
AcDbEntity
  8
3
  6
Continuous
100
AcDbVertex
100
AcDb3dPolylineVertex
 10
92.84744791204937
 20
163.4048835879346
 30
0.0
 70
    32
1001
ACAD
1000
R13OBJECT
1002
{
1005
A23
1002
}
  0
VERTEX
  5
AB0
330
A23
100
AcDbEntity
  8
3
  6
Continuous
100
AcDbVertex
100
AcDb3dPolylineVertex
 10
93.29827465491534
 20
162.8942167109839
 30
0.0
 70
    32
1001
ACAD
1000
R13OBJECT
1002
{
1005
A23
1002
}
  0
VERTEX
  5
AB1
330
A23
100
AcDbEntity
  8
3
  6
Continuous
100
AcDbVertex
100
AcDb3dPolylineVertex
 10
93.98288999448858
 20
162.7021291575121
 30
0.0
 70
    32
1001
ACAD
1000
R13OBJECT
1002
{
1005
A23
1002
}
  0
SEQEND
  5
AB2
330
A23
100
AcDbEntity
  8
3
  6
Continuous
  0
POLYLINE
  5
A24
330
B49
100
AcDbEntity
  8
3
  6
Continuous
100
AcDb3dPolyline
 66
     1
 10
0.0
 20
0.0
 30
0.0
 70
     8
  0
VERTEX
  5
AB3
330
A24
100
AcDbEntity
  8
3
  6
Continuous
100
AcDbVertex
100
AcDb3dPolylineVertex
 10
92.94580642016255
 20
161.4783686767028
 30
0.0
 70
    32
1001
ACAD
1000
R13OBJECT
1002
{
1005
A24
1002
}
  0
VERTEX
  5
AB4
330
A24
100
AcDbEntity
  8
3
  6
Continuous
100
AcDbVertex
100
AcDb3dPolylineVertex
 10
93.48725660365616
 20
161.0483230218897
 30
0.0
 70
    32
1001
ACAD
1000
R13OBJECT
1002
{
1005
A24
1002
}
  0
VERTEX
  5
AB5
330
A24
100
AcDbEntity
  8
3
  6
Continuous
100
AcDbVertex
100
AcDb3dPolylineVertex
 10
94.1979601301967
 20
160.9696033290115
 30
0.0
 70
    32
1001
ACAD
1000
R13OBJECT
1002
{
1005
A24
1002
}
  0
VERTEX
  5
AB6
330
A24
100
AcDbEntity
  8
3
  6
Continuous
100
AcDbVertex
100
AcDb3dPolylineVertex
 10
94.83521957461634
 20
161.2690915060061
 30
0.0
 70
    32
1001
ACAD
1000
R13OBJECT
1002
{
1005
A24
1002
}
  0
VERTEX
  5
AB7
330
A24
100
AcDbEntity
  8
3
  6
Continuous
100
AcDbVertex
100
AcDb3dPolylineVertex
 10
95.18141785672781
 20
161.8445156396067
 30
0.0
 70
    32
1001
ACAD
1000
R13OBJECT
1002
{
1005
A24
1002
}
  0
VERTEX
  5
AB8
330
A24
100
AcDbEntity
  8
3
  6
Continuous
100
AcDbVertex
100
AcDb3dPolylineVertex
 10
95.11833207692774
 20
162.4993747270897
 30
0.0
 70
    32
1001
ACAD
1000
R13OBJECT
1002
{
1005
A24
1002
}
  0
VERTEX
  5
AB9
330
A24
100
AcDbEntity
  8
3
  6
Continuous
100
AcDbVertex
100
AcDb3dPolylineVertex
 10
94.6675053340617
 20
163.0100416040405
 30
0.0
 70
    32
1001
ACAD
1000
R13OBJECT
1002
{
1005
A24
1002
}
  0
VERTEX
  5
ABA
330
A24
100
AcDbEntity
  8
3
  6
Continuous
100
AcDbVertex
100
AcDb3dPolylineVertex
 10
93.98288999448842
 20
163.2021291575121
 30
0.0
 70
    32
1001
ACAD
1000
R13OBJECT
1002
{
1005
A24
1002
}
  0
SEQEND
  5
ABB
330
A24
100
AcDbEntity
  8
3
  6
Continuous
  0
POLYLINE
  5
A25
330
B49
100
AcDbEntity
  8
3
  6
Continuous
100
AcDb3dPolyline
 66
     1
 10
0.0
 20
0.0
 30
0.0
 70
     8
  0
VERTEX
  5
ABC
330
A25
100
AcDbEntity
  8
3
  6
Continuous
100
AcDbVertex
100
AcDb3dPolylineVertex
 10
94.58462080548747
 20
164.1745386032219
 30
0.0
 70
    32
1001
ACAD
1000
R13OBJECT
1002
{
1005
A25
1002
}
  0
VERTEX
  5
ABD
330
A25
100
AcDbEntity
  8
3
  6
Continuous
100
AcDbVertex
100
AcDb3dPolylineVertex
 10
94.51089330165373
 20
164.254359342133
 30
0.0
 70
    32
1001
ACAD
1000
R13OBJECT
1002
{
1005
A25
1002
}
  0
VERTEX
  5
ABE
330
A25
100
AcDbEntity
  8
3
  6
Continuous
100
AcDbVertex
100
AcDb3dPolylineVertex
 10
94.35307892888134
 20
164.3638878933587
 30
0.0
 70
    32
1001
ACAD
1000
R13OBJECT
1002
{
1005
A25
1002
}
  0
VERTEX
  5
ABF
330
A25
100
AcDbEntity
  8
3
  6
Continuous
100
AcDbVertex
100
AcDb3dPolylineVertex
 10
94.3524569607303
 20
164.3642077875633
 30
0.0
 70
    32
1001
ACAD
1000
R13OBJECT
1002
{
1005
A25
1002
}
  0
VERTEX
  5
AC0
330
A25
100
AcDbEntity
  8
3
  6
Continuous
100
AcDbVertex
100
AcDb3dPolylineVertex
 10
94.05839950082624
 20
164.4487549170234
 30
0.0
 70
    32
1001
ACAD
1000
R13OBJECT
1002
{
1005
A25
1002
}
  0
VERTEX
  5
AC1
330
A25
100
AcDbEntity
  8
3
  6
Continuous
100
AcDbVertex
100
AcDb3dPolylineVertex
 10
93.98288999448858
 20
164.4521291575121
 30
0.0
 70
    32
1001
ACAD
1000
R13OBJECT
1002
{
1005
A25
1002
}
  0
VERTEX
  5
AC2
330
A25
100
AcDbEntity
  8
3
  6
Continuous
100
AcDbVertex
100
AcDb3dPolylineVertex
 10
93.75635758561079
 20
164.4207293439163
 30
0.0
 70
    32
1001
ACAD
1000
R13OBJECT
1002
{
1005
A25
1002
}
  0
VERTEX
  5
AC3
330
A25
100
AcDbEntity
  8
3
  6
Continuous
100
AcDbVertex
100
AcDb3dPolylineVertex
 10
93.61270106009575
 20
164.3638878933587
 30
0.0
 70
    32
1001
ACAD
1000
R13OBJECT
1002
{
1005
A25
1002
}
  0
VERTEX
  5
AC4
330
A25
100
AcDbEntity
  8
3
  6
Continuous
100
AcDbVertex
100
AcDb3dPolylineVertex
 10
93.48314911875815
 20
164.2789074448983
 30
0.0
 70
    32
1001
ACAD
1000
R13OBJECT
1002
{
1005
A25
1002
}
  0
VERTEX
  5
AC5
330
A25
100
AcDbEntity
  8
3
  6
Continuous
100
AcDbVertex
100
AcDb3dPolylineVertex
 10
93.4548866873234
 20
164.254359342133
 30
0.0
 70
    32
1001
ACAD
1000
R13OBJECT
1002
{
1005
A25
1002
}
  0
VERTEX
  5
AC6
330
A25
100
AcDbEntity
  8
3
  6
Continuous
100
AcDbVertex
100
AcDb3dPolylineVertex
 10
93.34112853450827
 20
164.1167669946467
 30
0.0
 70
    32
1001
ACAD
1000
R13OBJECT
1002
{
1005
A25
1002
}
  0
VERTEX
  5
AC7
330
A25
100
AcDbEntity
  8
3
  6
Continuous
100
AcDbVertex
100
AcDb3dPolylineVertex
 10
93.27715328925538
 20
163.969543737936
 30
0.0
 70
    32
1001
ACAD
1000
R13OBJECT
1002
{
1005
A25
1002
}
  0
VERTEX
  5
AC8
330
A25
100
AcDbEntity
  8
3
  6
Continuous
100
AcDbVertex
100
AcDb3dPolylineVertex
 10
93.25788999448858
 20
163.8271291575121
 30
0.0
 70
    32
1001
ACAD
1000
R13OBJECT
1002
{
1005
A25
1002
}
  0
VERTEX
  5
AC9
330
A25
100
AcDbEntity
  8
3
  6
Continuous
100
AcDbVertex
100
AcDb3dPolylineVertex
 10
93.2604156064975
 20
163.7752768734735
 30
0.0
 70
    32
1001
ACAD
1000
R13OBJECT
1002
{
1005
A25
1002
}
  0
VERTEX
  5
ACA
330
A25
100
AcDbEntity
  8
3
  6
Continuous
100
AcDbVertex
100
AcDb3dPolylineVertex
 10
93.27706384306715
 20
163.6850413792539
 30
0.0
 70
    32
1001
ACAD
1000
R13OBJECT
1002
{
1005
A25
1002
}
  0
VERTEX
  5
ACB
330
A25
100
AcDbEntity
  8
3
  6
Continuous
100
AcDbVertex
100
AcDb3dPolylineVertex
 10
93.27715328925538
 20
163.6847145770881
 30
0.0
 70
    32
1001
ACAD
1000
R13OBJECT
1002
{
1005
A25
1002
}
  0
VERTEX
  5
ACC
330
A25
100
AcDbEntity
  8
3
  6
Continuous
100
AcDbVertex
100
AcDb3dPolylineVertex
 10
93.34112853450823
 20
163.5374913203776
 30
0.0
 70
    32
1001
ACAD
1000
R13OBJECT
1002
{
1005
A25
1002
}
  0
VERTEX
  5
ACD
330
A25
100
AcDbEntity
  8
3
  6
Continuous
100
AcDbVertex
100
AcDb3dPolylineVertex
 10
93.36472851424778
 20
163.5017604474356
 30
0.0
 70
    32
1001
ACAD
1000
R13OBJECT
1002
{
1005
A25
1002
}
  0
VERTEX
  5
ACE
330
A25
100
AcDbEntity
  8
3
  6
Continuous
100
AcDbVertex
100
AcDb3dPolylineVertex
 10
93.45488668732338
 20
163.3998989728913
 30
0.0
 70
    32
1001
ACAD
1000
R13OBJECT
1002
{
1005
A25
1002
}
  0
VERTEX
  5
ACF
330
A25
100
AcDbEntity
  8
3
  6
Continuous
100
AcDbVertex
100
AcDb3dPolylineVertex
 10
93.52902331567552
 20
163.3406697863453
 30
0.0
 70
    32
1001
ACAD
1000
R13OBJECT
1002
{
1005
A25
1002
}
  0
VERTEX
  5
AD0
330
A25
100
AcDbEntity
  8
3
  6
Continuous
100
AcDbVertex
100
AcDb3dPolylineVertex
 10
93.61270106009575
 20
163.2903704216654
 30
0.0
 70
    32
1001
ACAD
1000
R13OBJECT
1002
{
1005
A25
1002
}
  0
VERTEX
  5
AD1
330
A25
100
AcDbEntity
  8
3
  6
Continuous
100
AcDbVertex
100
AcDb3dPolylineVertex
 10
93.63450068414833
 20
163.279572065601
 30
0.0
 70
    32
1001
ACAD
1000
R13OBJECT
1002
{
1005
A25
1002
}
  0
VERTEX
  5
AD2
330
A25
100
AcDbEntity
  8
3
  6
Continuous
100
AcDbVertex
100
AcDb3dPolylineVertex
 10
93.74742783370177
 20
163.2361409083593
 30
0.0
 70
    32
1001
ACAD
1000
R13OBJECT
1002
{
1005
A25
1002
}
  0
VERTEX
  5
AD3
330
A25
100
AcDbEntity
  8
3
  6
Continuous
100
AcDbVertex
100
AcDb3dPolylineVertex
 10
93.86419812792718
 20
163.2105302653703
 30
0.0
 70
    32
1001
ACAD
1000
R13OBJECT
1002
{
1005
A25
1002
}
  0
VERTEX
  5
AD4
330
A25
100
AcDbEntity
  8
3
  6
Continuous
100
AcDbVertex
100
AcDb3dPolylineVertex
 10
93.9828899944886
 20
163.2021291575121
 30
0.0
 70
    32
1001
ACAD
1000
R13OBJECT
1002
{
1005
A25
1002
}
  0
SEQEND
  5
AD5
330
A25
100
AcDbEntity
  8
3
  6
Continuous
  0
POLYLINE
  5
A26
330
B49
100
AcDbEntity
  8
3
  6
Continuous
100
AcDb3dPolyline
 66
     1
 10
0.0
 20
0.0
 30
0.0
 70
     8
  0
VERTEX
  5
AD6
330
A26
100
AcDbEntity
  8
3
  6
Continuous
100
AcDbVertex
100
AcDb3dPolylineVertex
 10
93.38115918348965
 20
161.7297197118022
 30
0.0
 70
    32
1001
ACAD
1000
R13OBJECT
1002
{
1005
A26
1002
}
  0
VERTEX
  5
AD7
330
A26
100
AcDbEntity
  8
3
  6
Continuous
100
AcDbVertex
100
AcDb3dPolylineVertex
 10
93.45488668732341
 20
161.6498989728913
 30
0.0
 70
    32
1001
ACAD
1000
R13OBJECT
1002
{
1005
A26
1002
}
  0
VERTEX
  5
AD8
330
A26
100
AcDbEntity
  8
3
  6
Continuous
100
AcDbVertex
100
AcDb3dPolylineVertex
 10
93.6127010600958
 20
161.5403704216654
 30
0.0
 70
    32
1001
ACAD
1000
R13OBJECT
1002
{
1005
A26
1002
}
  0
VERTEX
  5
AD9
330
A26
100
AcDbEntity
  8
3
  6
Continuous
100
AcDbVertex
100
AcDb3dPolylineVertex
 10
93.98288999448856
 20
161.4521291575121
 30
0.0
 70
    32
1001
ACAD
1000
R13OBJECT
1002
{
1005
A26
1002
}
  0
VERTEX
  5
ADA
330
A26
100
AcDbEntity
  8
3
  6
Continuous
100
AcDbVertex
100
AcDb3dPolylineVertex
 10
94.35307892888134
 20
161.5403704216654
 30
0.0
 70
    32
1001
ACAD
1000
R13OBJECT
1002
{
1005
A26
1002
}
  0
VERTEX
  5
ADB
330
A26
100
AcDbEntity
  8
3
  6
Continuous
100
AcDbVertex
100
AcDb3dPolylineVertex
 10
94.51089330165377
 20
161.6498989728913
 30
0.0
 70
    32
1001
ACAD
1000
R13OBJECT
1002
{
1005
A26
1002
}
  0
VERTEX
  5
ADC
330
A26
100
AcDbEntity
  8
3
  6
Continuous
100
AcDbVertex
100
AcDb3dPolylineVertex
 10
94.62465145446889
 20
161.7874913203776
 30
0.0
 70
    32
1001
ACAD
1000
R13OBJECT
1002
{
1005
A26
1002
}
  0
VERTEX
  5
ADD
330
A26
100
AcDbEntity
  8
3
  6
Continuous
100
AcDbVertex
100
AcDb3dPolylineVertex
 10
94.68862669972176
 20
161.9347145770881
 30
0.0
 70
    32
1001
ACAD
1000
R13OBJECT
1002
{
1005
A26
1002
}
  0
VERTEX
  5
ADE
330
A26
100
AcDbEntity
  8
3
  6
Continuous
100
AcDbVertex
100
AcDb3dPolylineVertex
 10
94.70788999448856
 20
162.0771291575121
 30
0.0
 70
    32
1001
ACAD
1000
R13OBJECT
1002
{
1005
A26
1002
}
  0
VERTEX
  5
ADF
330
A26
100
AcDbEntity
  8
3
  6
Continuous
100
AcDbVertex
100
AcDb3dPolylineVertex
 10
94.68862669972176
 20
162.2195437379361
 30
0.0
 70
    32
1001
ACAD
1000
R13OBJECT
1002
{
1005
A26
1002
}
  0
VERTEX
  5
AE0
330
A26
100
AcDbEntity
  8
3
  6
Continuous
100
AcDbVertex
100
AcDb3dPolylineVertex
 10
94.62465145446886
 20
162.3667669946466
 30
0.0
 70
    32
1001
ACAD
1000
R13OBJECT
1002
{
1005
A26
1002
}
  0
VERTEX
  5
AE1
330
A26
100
AcDbEntity
  8
3
  6
Continuous
100
AcDbVertex
100
AcDb3dPolylineVertex
 10
94.51089330165373
 20
162.504359342133
 30
0.0
 70
    32
1001
ACAD
1000
R13OBJECT
1002
{
1005
A26
1002
}
  0
VERTEX
  5
AE2
330
A26
100
AcDbEntity
  8
3
  6
Continuous
100
AcDbVertex
100
AcDb3dPolylineVertex
 10
94.35307892888136
 20
162.6138878933588
 30
0.0
 70
    32
1001
ACAD
1000
R13OBJECT
1002
{
1005
A26
1002
}
  0
VERTEX
  5
AE3
330
A26
100
AcDbEntity
  8
3
  6
Continuous
100
AcDbVertex
100
AcDb3dPolylineVertex
 10
93.98288999448858
 20
162.7021291575121
 30
0.0
 70
    32
1001
ACAD
1000
R13OBJECT
1002
{
1005
A26
1002
}
  0
SEQEND
  5
AE4
330
A26
100
AcDbEntity
  8
3
  6
Continuous
  0
LINE
  5
A27
330
B49
100
AcDbEntity
  8
3
100
AcDbLine
 10
95.0199735688146
 20
164.4258896383214
 30
0.0
 11
94.58462080548745
 21
164.174538603222
 31
0.0
  0
LINE
  5
A28
330
B49
100
AcDbEntity
  8
3
100
AcDbLine
 10
92.94580642016255
 20
161.4783686767028
 30
0.0
 11
93.38115918348968
 21
161.7297197118022
 31
0.0
  0
LINE
  5
A29
330
B49
100
AcDbEntity
  8
3
100
AcDbLine
 10
96.55553420851532
 20
160.9521291575121
 30
0.0
 11
96.05553420851533
 21
160.9521291575121
 31
0.0
  0
LINE
  5
A2A
330
B49
100
AcDbEntity
  8
3
100
AcDbLine
 10
96.55553420851534
 20
164.9521291575121
 30
0.0
 11
96.05553420851535
 21
164.9521291575121
 31
0.0
  0
LINE
  5
A2B
330
B49
100
AcDbEntity
  8
3
100
AcDbLine
 10
98.05553420851534
 20
164.9521291575121
 30
0.0
 11
97.55553420851533
 21
164.9521291575121
 31
0.0
  0
POLYLINE
  5
A2C
330
B49
100
AcDbEntity
  8
3
  6
Continuous
100
AcDb3dPolyline
 66
     1
 10
0.0
 20
0.0
 30
0.0
 70
     8
  0
VERTEX
  5
AE5
330
A2C
100
AcDbEntity
  8
3
  6
Continuous
100
AcDbVertex
100
AcDb3dPolylineVertex
 10
101.5846232706174
 20
165.4232239218089
 30
0.0
 70
    32
1001
ACAD
1000
R13OBJECT
1002
{
1005
A2C
1002
}
  0
VERTEX
  5
AE6
330
A2C
100
AcDbEntity
  8
3
  6
Continuous
100
AcDbVertex
100
AcDb3dPolylineVertex
 10
100.5564778233995
 20
165.978180558428
 30
0.0
 70
    32
1001
ACAD
1000
R13OBJECT
1002
{
1005
A2C
1002
}
  0
VERTEX
  5
AE7
330
A2C
100
AcDbEntity
  8
3
  6
Continuous
100
AcDbVertex
100
AcDb3dPolylineVertex
 10
100.475602117138
 20
166.0104828396348
 30
0.0
 70
    32
1001
ACAD
1000
R13OBJECT
1002
{
1005
A2C
1002
}
  0
VERTEX
  5
AE8
330
A2C
100
AcDbEntity
  8
3
  6
Continuous
100
AcDbVertex
100
AcDb3dPolylineVertex
 10
99.24116927550473
 20
166.3523724178798
 30
0.0
 70
    32
1001
ACAD
1000
R13OBJECT
1002
{
1005
A2C
1002
}
  0
VERTEX
  5
AE9
330
A2C
100
AcDbEntity
  8
3
  6
Continuous
100
AcDbVertex
100
AcDb3dPolylineVertex
 10
98.05553420851536
 20
166.4521291575121
 30
0.0
 70
    32
1001
ACAD
1000
R13OBJECT
1002
{
1005
A2C
1002
}
  0
VERTEX
  5
AEA
330
A2C
100
AcDbEntity
  8
3
  6
Continuous
100
AcDbVertex
100
AcDb3dPolylineVertex
 10
97.96945020873664
 20
166.4516219701946
 30
0.0
 70
    32
1001
ACAD
1000
R13OBJECT
1002
{
1005
A2C
1002
}
  0
VERTEX
  5
AEB
330
A2C
100
AcDbEntity
  8
3
  6
Continuous
100
AcDbVertex
100
AcDb3dPolylineVertex
 10
96.70042611758468
 20
166.3209017553031
 30
0.0
 70
    32
1001
ACAD
1000
R13OBJECT
1002
{
1005
A2C
1002
}
  0
VERTEX
  5
AEC
330
A2C
100
AcDbEntity
  8
3
  6
Continuous
100
AcDbVertex
100
AcDb3dPolylineVertex
 10
95.55459059363116
 20
165.978180558428
 30
0.0
 70
    32
1001
ACAD
1000
R13OBJECT
1002
{
1005
A2C
1002
}
  0
VERTEX
  5
AED
330
A2C
100
AcDbEntity
  8
3
  6
Continuous
100
AcDbVertex
100
AcDb3dPolylineVertex
 10
94.52644514641315
 20
165.423223921809
 30
0.0
 70
    32
1001
ACAD
1000
R13OBJECT
1002
{
1005
A2C
1002
}
  0
SEQEND
  5
AEE
330
A2C
100
AcDbEntity
  8
3
  6
Continuous
  0
LINE
  5
A2D
330
B49
100
AcDbEntity
  8
3
100
AcDbLine
 10
97.55553420851533
 20
160.9521291575121
 30
0.0
 11
98.05553420851534
 21
160.9521291575121
 31
0.0
  0
LINE
  5
A2E
330
B49
100
AcDbEntity
  8
3
100
AcDbLine
 10
102.0176469469808
 20
165.7264303642224
 30
0.0
 11
101.584623270617
 21
165.4232239218092
 31
0.0
  0
LINE
  5
A2F
330
B49
100
AcDbEntity
  8
3
100
AcDbLine
 10
102.0176469469808
 20
160.1778279508018
 30
0.0
 11
101.584623270617
 21
160.481034393215
 31
0.0
  0
POLYLINE
  5
A30
330
B49
100
AcDbEntity
  8
3
  6
Continuous
100
AcDb3dPolyline
 66
     1
 10
0.0
 20
0.0
 30
0.0
 70
     8
  0
VERTEX
  5
AEF
330
A30
100
AcDbEntity
  8
3
  6
Continuous
100
AcDbVertex
100
AcDb3dPolylineVertex
 10
94.52644514641322
 20
160.4810343932153
 30
0.0
 70
    32
1001
ACAD
1000
R13OBJECT
1002
{
1005
A30
1002
}
  0
VERTEX
  5
AF0
330
A30
100
AcDbEntity
  8
3
  6
Continuous
100
AcDbVertex
100
AcDb3dPolylineVertex
 10
95.5545905936311
 20
159.9260777565963
 30
0.0
 70
    32
1001
ACAD
1000
R13OBJECT
1002
{
1005
A30
1002
}
  0
VERTEX
  5
AF1
330
A30
100
AcDbEntity
  8
3
  6
Continuous
100
AcDbVertex
100
AcDb3dPolylineVertex
 10
96.70042611758464
 20
159.5833565597212
 30
0.0
 70
    32
1001
ACAD
1000
R13OBJECT
1002
{
1005
A30
1002
}
  0
VERTEX
  5
AF2
330
A30
100
AcDbEntity
  8
3
  6
Continuous
100
AcDbVertex
100
AcDb3dPolylineVertex
 10
97.96945020873661
 20
159.4526363448297
 30
0.0
 70
    32
1001
ACAD
1000
R13OBJECT
1002
{
1005
A30
1002
}
  0
VERTEX
  5
AF3
330
A30
100
AcDbEntity
  8
3
  6
Continuous
100
AcDbVertex
100
AcDb3dPolylineVertex
 10
98.05553420851531
 20
159.4521291575121
 30
0.0
 70
    32
1001
ACAD
1000
R13OBJECT
1002
{
1005
A30
1002
}
  0
VERTEX
  5
AF4
330
A30
100
AcDbEntity
  8
3
  6
Continuous
100
AcDbVertex
100
AcDb3dPolylineVertex
 10
99.24116927550469
 20
159.5518858971445
 30
0.0
 70
    32
1001
ACAD
1000
R13OBJECT
1002
{
1005
A30
1002
}
  0
VERTEX
  5
AF5
330
A30
100
AcDbEntity
  8
3
  6
Continuous
100
AcDbVertex
100
AcDb3dPolylineVertex
 10
100.475602117138
 20
159.8937754753895
 30
0.0
 70
    32
1001
ACAD
1000
R13OBJECT
1002
{
1005
A30
1002
}
  0
VERTEX
  5
AF6
330
A30
100
AcDbEntity
  8
3
  6
Continuous
100
AcDbVertex
100
AcDb3dPolylineVertex
 10
100.5564778233994
 20
159.9260777565962
 30
0.0
 70
    32
1001
ACAD
1000
R13OBJECT
1002
{
1005
A30
1002
}
  0
VERTEX
  5
AF7
330
A30
100
AcDbEntity
  8
3
  6
Continuous
100
AcDbVertex
100
AcDb3dPolylineVertex
 10
101.5846232706174
 20
160.4810343932153
 30
0.0
 70
    32
1001
ACAD
1000
R13OBJECT
1002
{
1005
A30
1002
}
  0
SEQEND
  5
AF8
330
A30
100
AcDbEntity
  8
3
  6
Continuous
  0
POLYLINE
  5
A31
330
B49
100
AcDbEntity
  8
3
  6
Continuous
100
AcDb3dPolyline
 66
     1
 10
0.0
 20
0.0
 30
0.0
 70
     8
  0
VERTEX
  5
AF9
330
A31
100
AcDbEntity
  8
3
  6
Continuous
100
AcDbVertex
100
AcDb3dPolylineVertex
 10
94.09342147004975
 20
160.1778279508018
 30
0.0
 70
    32
1001
ACAD
1000
R13OBJECT
1002
{
1005
A31
1002
}
  0
VERTEX
  5
AFA
330
A31
100
AcDbEntity
  8
3
  6
Continuous
100
AcDbVertex
100
AcDb3dPolylineVertex
 10
95.50300703911963
 20
159.408989210045
 30
0.0
 70
    32
1001
ACAD
1000
R13OBJECT
1002
{
1005
A31
1002
}
  0
VERTEX
  5
AFB
330
A31
100
AcDbEntity
  8
3
  6
Continuous
100
AcDbVertex
100
AcDb3dPolylineVertex
 10
97.1745540002081
 20
159.0037767154194
 30
0.0
 70
    32
1001
ACAD
1000
R13OBJECT
1002
{
1005
A31
1002
}
  0
VERTEX
  5
AFC
330
A31
100
AcDbEntity
  8
3
  6
Continuous
100
AcDbVertex
100
AcDb3dPolylineVertex
 10
98.93651441682253
 20
159.0037767154194
 30
0.0
 70
    32
1001
ACAD
1000
R13OBJECT
1002
{
1005
A31
1002
}
  0
VERTEX
  5
AFD
330
A31
100
AcDbEntity
  8
3
  6
Continuous
100
AcDbVertex
100
AcDb3dPolylineVertex
 10
100.608061377911
 20
159.408989210045
 30
0.0
 70
    32
1001
ACAD
1000
R13OBJECT
1002
{
1005
A31
1002
}
  0
VERTEX
  5
AFE
330
A31
100
AcDbEntity
  8
3
  6
Continuous
100
AcDbVertex
100
AcDb3dPolylineVertex
 10
102.0176469469808
 20
160.1778279508018
 30
0.0
 70
    32
1001
ACAD
1000
R13OBJECT
1002
{
1005
A31
1002
}
  0
SEQEND
  5
AFF
330
A31
100
AcDbEntity
  8
3
  6
Continuous
  0
LINE
  5
A32
330
B49
100
AcDbEntity
  8
3
100
AcDbLine
 10
94.5264451464136
 20
160.4810343932151
 30
0.0
 11
94.09342147004974
 21
160.1778279508018
 31
0.0
  0
LINE
  5
A33
330
B49
100
AcDbEntity
  8
3
100
AcDbLine
 10
94.52644514641354
 20
165.4232239218092
 30
0.0
 11
94.09342147004972
 21
165.7264303642224
 31
0.0
  0
INSERT
  5
A34
330
B49
100
AcDbEntity
  8
0
100
AcDbBlockReference
  2
STDGX5
 10
397.0727308950417
 20
14.09011196094536
 30
0.0
  0
INSERT
  5
A35
330
B49
100
AcDbEntity
  8
0
100
AcDbBlockReference
  2
STDGX5
 10
397.0727308950417
 20
14.09011196094536
 30
0.0
  0
INSERT
  5
A36
330
B49
100
AcDbEntity
  8
0
100
AcDbBlockReference
  2
STDGX5
 10
672.0727308950416
 20
14.09011196094536
 30
0.0
  0
INSERT
  5
A37
330
B49
100
AcDbEntity
  8
0
100
AcDbBlockReference
  2
STDGX5
 10
672.0727308950416
 20
14.09011196094536
 30
0.0
  0
INSERT
  5
A38
330
B49
100
AcDbEntity
  8
0
100
AcDbBlockReference
  2
STDGX5
 10
397.0727308950417
 20
14.09011196094536
 30
0.0
 41
2.0
 42
2.0
 43
2.0
  0
INSERT
  5
A39
330
B49
100
AcDbEntity
  8
0
100
AcDbBlockReference
  2
STDGX5
 10
397.0727308950417
 20
14.09011196094536
 30
0.0
 41
2.0
 42
2.0
 43
2.0
  0
INSERT
  5
A3A
330
B49
100
AcDbEntity
  8
0
100
AcDbBlockReference
  2
STDGX5
 10
947.0727308950417
 20
14.09011196094536
 30
0.0
 41
2.0
 42
2.0
 43
2.0
  0
INSERT
  5
A3B
330
B49
100
AcDbEntity
  8
0
100
AcDbBlockReference
  2
STDGX5
 10
947.0727308950417
 20
14.09011196094536
 30
0.0
 41
2.0
 42
2.0
 43
2.0
  0
INSERT
  5
A3C
330
B49
100
AcDbEntity
  8
0
100
AcDbBlockReference
  2
STDGX5
 10
397.0727308950417
 20
14.09011196094536
 30
0.0
  0
INSERT
  5
A3D
330
B49
100
AcDbEntity
  8
0
100
AcDbBlockReference
  2
STDGX5
 10
397.0727308950417
 20
14.09011196094536
 30
0.0
  0
INSERT
  5
A3E
330
B49
100
AcDbEntity
  8
0
100
AcDbBlockReference
  2
STDGX5
 10
672.0727308950416
 20
14.09011196094536
 30
0.0
  0
INSERT
  5
A3F
330
B49
100
AcDbEntity
  8
0
100
AcDbBlockReference
  2
STDGX5
 10
672.0727308950416
 20
14.09011196094536
 30
0.0
  0
LINE
  5
A40
330
B49
100
AcDbEntity
  8
0
100
AcDbLine
 10
115.5555342085153
 20
172.3717753870396
 30
0.0
 11
80.55553420851532
 21
172.3717753870396
 31
0.0
  0
ARC
  5
A41
330
B49
100
AcDbEntity
  8
0
100
AcDbCircle
 10
76.05553420851538
 20
168.7733402768058
 30
0.0
 40
2.0
100
AcDbArc
 50
90.00000000000007
 51
180.0
  0
ARC
  5
A42
330
B49
100
AcDbEntity
  8
0
100
AcDbCircle
 10
120.0555342085152
 20
168.7733402768059
 30
0.0
 40
2.0
100
AcDbArc
 50
0.0
 51
90.0000000000001
  0
LINE
  5
A43
330
B49
100
AcDbEntity
  8
0
100
AcDbLine
 10
115.5555342085153
 20
176.3955532748459
 30
0.0
 11
115.5555342085153
 21
172.3717753870395
 31
0.0
  0
LINE
  5
A44
330
B49
100
AcDbEntity
  8
0
100
AcDbLine
 10
80.55553420851534
 20
176.3955532748459
 30
0.0
 11
80.55553420851532
 21
172.3717753870395
 31
0.0
  0
ARC
  5
A45
330
B49
100
AcDbEntity
  8
0
100
AcDbCircle
 10
189.023883447137
 20
161.3955532748459
 30
0.0
 40
15.0
100
AcDbArc
 50
87.03314775566207
 51
132.9668522443374
  0
LINE
  5
A46
330
B49
100
AcDbEntity
  8
0
100
AcDbLine
 10
115.5555342085153
 20
176.3955532748459
 30
0.0
 11
80.55553420851532
 21
176.3955532748459
 31
0.0
  0
ARC
  5
A47
330
B49
100
AcDbEntity
  8
0
100
AcDbCircle
 10
98.05553420851532
 20
97.45212915751251
 30
0.0
 40
80.0
100
AcDbArc
 50
102.6356250930211
 51
105.2575232904563
  0
ARC
  5
A48
330
B49
100
AcDbEntity
  8
0
100
AcDbCircle
 10
98.05553420851532
 20
97.45212915751251
 30
0.0
 40
80.0
100
AcDbArc
 50
80.67772029297762
 51
99.32227970702248
  0
INSERT
  5
A49
330
B49
100
AcDbEntity
  8
0
100
AcDbBlockReference
  2
STDGX5
 10
0.0
 20
0.0
 30
0.0
 41
0.25
 42
0.25
 43
0.25
  0
INSERT
  5
A4A
330
B49
100
AcDbEntity
  8
0
100
AcDbBlockReference
  2
STDGX5
 10
0.0
 20
0.0
 30
0.0
 41
0.25
 42
0.25
 43
0.25
  0
INSERT
  5
A4B
330
B49
100
AcDbEntity
  8
0
100
AcDbBlockReference
  2
STDGX5
 10
68.75
 20
0.0
 30
0.0
 41
0.25
 42
0.25
 43
0.25
  0
INSERT
  5
A4C
330
B49
100
AcDbEntity
  8
0
100
AcDbBlockReference
  2
STDGX5
 10
68.75
 20
0.0
 30
0.0
 41
0.25
 42
0.25
 43
0.25
  0
INSERT
  5
A4D
330
B49
100
AcDbEntity
  8
0
100
AcDbBlockReference
  2
STDGX5
 10
0.0
 20
0.0
 30
0.0
 41
0.5
 42
0.5
 43
0.5
  0
INSERT
  5
A4E
330
B49
100
AcDbEntity
  8
0
100
AcDbBlockReference
  2
STDGX5
 10
0.0
 20
0.0
 30
0.0
 41
0.5
 42
0.5
 43
0.5
  0
INSERT
  5
A4F
330
B49
100
AcDbEntity
  8
0
100
AcDbBlockReference
  2
STDGX5
 10
137.5
 20
0.0
 30
0.0
 41
0.5
 42
0.5
 43
0.5
  0
INSERT
  5
A50
330
B49
100
AcDbEntity
  8
0
100
AcDbBlockReference
  2
STDGX5
 10
137.5
 20
0.0
 30
0.0
 41
0.5
 42
0.5
 43
0.5
  0
INSERT
  5
A52
330
B49
100
AcDbEntity
  8
0
100
AcDbBlockReference
  2
STDGX5
 10
-35.0
 20
-100.0
 30
0.0
 41
0.3333333333333333
 42
0.3333333333333333
 43
0.3333333333333333
  0
INSERT
  5
A53
330
B49
100
AcDbEntity
  8
0
100
AcDbBlockReference
  2
STDGX5
 10
-35.0
 20
-100.0
 30
0.0
 41
0.3333333333333333
 42
0.3333333333333333
 43
0.3333333333333333
  0
INSERT
  5
A54
330
B49
100
AcDbEntity
  8
0
100
AcDbBlockReference
  2
STDGX5
 10
56.66666666666664
 20
-100.0
 30
0.0
 41
0.3333333333333333
 42
0.3333333333333333
 43
0.3333333333333333
  0
INSERT
  5
A55
330
B49
100
AcDbEntity
  8
0
100
AcDbBlockReference
  2
STDGX5
 10
56.66666666666664
 20
-100.0
 30
0.0
 41
0.3333333333333333
 42
0.3333333333333333
 43
0.3333333333333333
  0
INSERT
  5
A57
330
B49
100
AcDbEntity
  8
0
100
AcDbBlockReference
  2
STDGX5
 10
-35.0
 20
-100.0
 30
0.0
 41
0.3333333333333333
 42
0.3333333333333333
 43
0.3333333333333333
  0
INSERT
  5
A58
330
B49
100
AcDbEntity
  8
0
100
AcDbBlockReference
  2
STDGX5
 10
-35.0
 20
-100.0
 30
0.0
 41
0.3333333333333333
 42
0.3333333333333333
 43
0.3333333333333333
  0
INSERT
  5
A59
330
B49
100
AcDbEntity
  8
0
100
AcDbBlockReference
  2
STDGX5
 10
56.66666666666666
 20
-100.0
 30
0.0
 41
0.3333333333333333
 42
0.3333333333333333
 43
0.3333333333333333
  0
INSERT
  5
A5A
330
B49
100
AcDbEntity
  8
0
100
AcDbBlockReference
  2
STDGX5
 10
56.66666666666666
 20
-100.0
 30
0.0
 41
0.3333333333333333
 42
0.3333333333333333
 43
0.3333333333333333
  0
INSERT
  5
A5B
330
B49
100
AcDbEntity
  8
0
100
AcDbBlockReference
  2
STDGX5
 10
0.0
 20
0.0
 30
0.0
  0
INSERT
  5
A5C
330
B49
100
AcDbEntity
  8
0
100
AcDbBlockReference
  2
STDGX5
 10
0.0
 20
0.0
 30
0.0
  0
INSERT
  5
A5D
330
B49
100
AcDbEntity
  8
0
100
AcDbBlockReference
  2
STDGX5
 10
275.0
 20
0.0
 30
0.0
  0
INSERT
  5
A5E
330
B49
100
AcDbEntity
  8
0
100
AcDbBlockReference
  2
STDGX5
 10
275.0
 20
0.0
 30
0.0
  0
TEXT
  5
CB4
330
B49
100
AcDbEntity
  8
0
100
AcDbText
 10
187.5502564907288
 20
217.8108258793514
 30
0.0
 40
6.4
  1
0
 50
90.0
 41
0.8349999999999999
100
AcDbText
  0
LINE
  5
CB7
330
B49
100
AcDbEntity
  8
0
100
AcDbLine
 10
189.8002564907291
 20
230.6660417066895
 30
0.0
 11
178.800256490729
 21
230.6660417066895
 31
0.0
  0
TEXT
  5
CBA
330
B49
100
AcDbEntity
  8
0
100
AcDbText
 10
187.5502564907288
 20
238.70021436856
 30
0.0
 40
6.4
  1
0
 50
90.0
 41
0.8349999999999999
100
AcDbText
  0
TEXT
  5
CBB
330
B49
100
AcDbEntity
  8
0
100
AcDbText
 10
187.5502564907288
 20
210.6903222822291
 30
0.0
 40
6.4
  1
0
 50
90.0
 41
0.8349999999999999
100
AcDbText
  0
TEXT
  5
CBC
330
B49
100
AcDbEntity
  8
0
100
AcDbText
 10
187.5502564907288
 20
224.9313294764737
 30
0.0
 40
6.4
  1
0
 50
90.0
 41
0.8349999999999999
100
AcDbText
  0
LINE
  5
DE6
330
B49
100
AcDbEntity
  8
2
100
AcDbLine
 10
103.6800165898771
 20
126.2921128702176
 30
0.0
 11
107.2155504958098
 21
129.8276467761503
 31
0.0
  0
LINE
  5
DE7
330
B49
100
AcDbEntity
  8
2
100
AcDbLine
 10
103.665012303668
 20
126.9194716289339
 30
0.0
 11
106.5881917370935
 21
129.8426510623594
 31
0.0
  0
LINE
  5
DE8
330
B49
100
AcDbEntity
  8
2
100
AcDbLine
 10
103.6800165898771
 20
126.9044673427248
 30
0.0
 11
103.6800165898771
 21
126.2921128702176
 31
0.0
  0
LINE
  5
DE9
330
B49
100
AcDbEntity
  8
2
100
AcDbLine
 10
106.6031960233025
 20
129.8276467761503
 30
0.0
 11
107.2155504958098
 21
129.8276467761503
 31
0.0
  0
TEXT
  5
DEA
330
B49
100
AcDbEntity
  8
0
100
AcDbText
 10
187.7640780323228
 20
232.4186578415975
 30
0.0
 40
6.5
  1
3
 50
90.0
100
AcDbText
  0
ENDSEC
  0
SECTION
  2
OBJECTS
  0
DICTIONARY
  5
B37
330
0
100
AcDbDictionary
281
     1
  3
ACAD_GROUP
350
B38
  3
ACAD_LAYOUT
350
B44
  3
ACAD_MLINESTYLE
350
B41
  3
ACAD_PLOTSETTINGS
350
B43
  3
ACAD_PLOTSTYLENAME
350
B39
  3
AcDbVariableDictionary
350
CCE
  3
AcmDictionary
350
D97
  3
AMG
350
CDD
  3
AMGSNAPSETTINGS
350
DDF
  3
DWGPROPS
350
D9A
  3
MAPISURF_MODULE
350
D69
  3
Simple$CDFRecord
350
CC8
  3
Simple$Histroy
350
CC6
  3
Simple$System
350
CC7
  0
DICTIONARY
  5
DD5
330
B49
100
AcDbDictionary
280
     1
281
     1
  3
ACAD_INDEX
360
DD6
  0
DICTIONARY
  5
B38
102
{ACAD_REACTORS
330
B37
102
}
330
B37
100
AcDbDictionary
281
     1
  0
DICTIONARY
  5
B44
102
{ACAD_REACTORS
330
B37
102
}
330
B37
100
AcDbDictionary
281
     1
  3
Model
350
B4C
  3
ﾚｲｱｳﾄ1
350
B48
  0
DICTIONARY
  5
B41
102
{ACAD_REACTORS
330
B37
102
}
330
B37
100
AcDbDictionary
281
     1
  3
Standard
350
B42
  0
DICTIONARY
  5
B43
102
{ACAD_REACTORS
330
B37
102
}
330
B37
100
AcDbDictionary
281
     1
  0
ACDBDICTIONARYWDFLT
  5
B39
102
{ACAD_REACTORS
330
B37
102
}
330
B37
100
AcDbDictionary
281
     1
  3
Normal
350
B3A
100
AcDbDictionaryWithDefault
340
B3A
  0
DICTIONARY
  5
CCE
102
{ACAD_REACTORS
330
B37
102
}
330
B37
100
AcDbDictionary
281
     1
  3
DIMASSOC
350
CCF
  3
INDEXCTL
350
DDD
  0
DICTIONARY
  5
D97
102
{ACAD_REACTORS
330
B37
102
}
330
B37
100
AcDbDictionary
281
     1
  3
AcmBOMDATA
350
D98
  3
AcmStdDictionary
350
DA6
  0
DICTIONARY
  5
CDD
102
{ACAD_REACTORS
330
B37
102
}
330
B37
100
AcDbDictionary
281
     1
  3
AcMgSettings
350
CDE
  3
AMGLAYCFG
350
DA8
  0
DICTIONARY
  5
DDF
102
{ACAD_REACTORS
330
B37
102
}
330
B37
100
AcDbDictionary
281
     1
  3
DIMENSION
350
DE4
  3
FEA
350
DE3
  3
HATCH (1)
350
DE0
  3
HATCH (2)
350
DE1
  3
SIMPLE WELD
350
DE5
  3
SYMBOLS
350
DE2
  0
XRECORD
  5
D9A
102
{ACAD_REACTORS
330
B37
102
}
330
B37
100
AcDbXrecord
280
     1
  1
DWGPROPS COOKIE
  2

  3

  4

  6

  7

  8

  9

300
AmdtFileType=84
301
=
302
=
303
=
304
=
305
=
306
=
307
=
308
=
309
=
 40
0.1180062847222222
 41
2449954.602013888
 42
2453220.794658923
  1

 90
        1
  0
XRECORD
  5
CC8
102
{ACAD_REACTORS
330
B37
102
}
330
B37
100
AcDbXrecord
280
     1
  1

  0
XRECORD
  5
CC6
102
{ACAD_REACTORS
330
B37
102
}
330
B37
100
AcDbXrecord
280
     1
  1
2003年01月09日　20:52^J^J^J
  0
XRECORD
  5
CC7
102
{ACAD_REACTORS
330
B37
102
}
330
B37
100
AcDbXrecord
280
     1
  1
"14Q1FY",0,0,"1.25","0",0,0,0,1,"","",0,0,0,0,"",20,0,0,0,"\x81\x41\x81\x42\x81\x43\x81\x44\x81\x48\x81\x49\x81\x6A\x81\x6C\x81\x6E\x81\x70\x81\x72\x81\x74\x81\x76\x81\x78\x81\x7A\x29\x5D\x7D\xA3\xA4\xA1","\x81\x69\x81\x6B\x81\x6D\x81\x6F\x81\x71\x81\x73\x81\x75\x81\x77\x81\x79\x28\x5B\xA2\x7B","\x81\x69\x28\x81\x6A\x29\x81\x6D\x5B\x81\x6E\x5D\x81\x6F\x7B\x81\x70\x7D\x81\x75\xA2\x81\x76\xA3\x81\x41\xA4\x81\x42\xA1\x81\x43\x2C\x81\x44\x2E\x81\x45\xA5"
  2
50,"0",0,1,0
  3
|><@~^ %$~
  4
0,"0","0"
  6
0,0,0,0,0,"0",0
  8
0,""
 38
1.0
  0
DICTIONARY
  5
DD6
102
{ACAD_REACTORS
330
DD5
102
}
330
DD5
100
AcDbDictionary
281
     1
  3
*A1
350
DD7
  0
LAYOUT
  5
B4C
102
{ACAD_REACTORS
330
B44
102
}
330
B44
100
AcDbPlotSettings
  1

  2
C:\Program Files\MDT5\plotters\FX4024-PLT01.pc3
  4

  6

 40
0.0
 41
0.0
 42
0.0
 43
0.0
 44
0.0
 45
0.0
 46
0.0
 47
0.0
 48
0.0
 49
0.0
140
0.0
141
0.0
142
1.0
143
1.0
 70
  1712
 72
     0
 73
     0
 74
     0
  7

 75
     0
147
1.0
148
0.0
149
0.0
100
AcDbLayout
  1
Model
 70
     1
 71
     0
 10
0.0
 20
0.0
 11
12.0
 21
9.0
 12
0.0
 22
0.0
 32
0.0
 14
0.0
 24
0.0
 34
0.0
 15
0.0
 25
0.0
 35
0.0
146
0.0
 13
0.0
 23
0.0
 33
0.0
 16
1.0
 26
0.0
 36
0.0
 17
0.0
 27
1.0
 37
0.0
 76
     0
330
B49
  0
LAYOUT
  5
B48
102
{ACAD_REACTORS
330
B44
102
}
330
B44
100
AcDbPlotSettings
  1

  2
C:\Program Files\MDT5\plotters\FX4024-PLT01.pc3
  4

  6

 40
0.0
 41
0.0
 42
0.0
 43
0.0
 44
0.0
 45
0.0
 46
0.0
 47
0.0
 48
0.0
 49
0.0
140
0.0
141
0.0
142
1.0
143
1.0
 70
   688
 72
     0
 73
     0
 74
     5
  7

 75
    16
147
1.0
148
0.0
149
0.0
100
AcDbLayout
  1
ﾚｲｱｳﾄ1
 70
     0
 71
     1
 10
0.0
 20
0.0
 11
12.0
 21
9.0
 12
0.0
 22
0.0
 32
0.0
 14
1.000000000000000E+20
 24
1.000000000000000E+20
 34
1.000000000000000E+20
 15
-1.000000000000000E+20
 25
-1.000000000000000E+20
 35
-1.000000000000000E+20
146
0.0
 13
0.0
 23
0.0
 33
0.0
 16
1.0
 26
0.0
 36
0.0
 17
0.0
 27
1.0
 37
0.0
 76
     0
330
B45
  0
MLINESTYLE
  5
B42
102
{ACAD_REACTORS
330
B41
102
}
330
B41
100
AcDbMlineStyle
  2
STANDARD
 70
     0
  3

 62
   256
 51
90.0
 52
90.0
 71
     2
 49
0.5
 62
   256
  6
BYLAYER
 49
-0.5
 62
   256
  6
BYLAYER
  0
ACDBPLACEHOLDER
  5
B3A
102
{ACAD_REACTORS
330
B39
102
}
330
B39
  0
DICTIONARYVAR
  5
CCF
102
{ACAD_REACTORS
330
CCE
102
}
330
CCE
100
DictionaryVariables
280
     0
  1
0
  0
DICTIONARYVAR
  5
DDD
102
{ACAD_REACTORS
330
CCE
102
}
330
CCE
100
DictionaryVariables
280
     0
  1
1
  0
ACMDATADICTIONARY
  5
D98
102
{ACAD_REACTORS
330
D97
102
}
330
D97
100
AcDbDictionary
281
     1
  3
*A1
350
D99
100
AcmDataDictionary
  0
DICTIONARY
  5
DA6
102
{ACAD_REACTORS
330
D97
102
}
330
D97
100
AcDbDictionary
281
     1
  3
ANSI
350
DA7
  0
DICTIONARY
  5
CDE
102
{ACAD_REACTORS
330
CDD
102
}
330
CDD
100
AcDbDictionary
281
     1
  3
DWGSETTINGS
350
CDF
  3
TRANSSETTINGS
350
CE3
  0
ACAMGFILTERDAT
  5
DE4
102
{ACAD_REACTORS
330
DDF
102
}
330
DDF
100
AcAmgFilterDat
 70
    15
  1
DIMENSION,AMDT_*_DIM
  2
*
  3
*
  4
*
  5
*
290
     1
  0
ACAMGFILTERDAT
  5
DE3
102
{ACAD_REACTORS
330
DDF
102
}
330
DDF
100
AcAmgFilterDat
 70
    15
  1
*
  2
AM_FEA-AM_*
  3
*
  4
*
  5
*
290
     1
  0
ACAMGFILTERDAT
  5
DE0
102
{ACAD_REACTORS
330
DDF
102
}
330
DDF
100
AcAmgFilterDat
 70
    15
  1
HATCH
  2
*
  3
*
  4
*
  5
*
290
     1
  0
ACAMGFILTERDAT
  5
DE1
102
{ACAD_REACTORS
330
DDF
102
}
330
DDF
100
AcAmgFilterDat
 70
    15
  1
LINE
  2
8,8N,*-8,*-8N,AM_8,AM_8N,*-AM_8,*-AM_8N
  3
*
  4
*
  5
INSERT,STDPART2D
290
     1
  0
ACAMGFILTERDAT
  5
DE5
102
{ACAD_REACTORS
330
DDF
102
}
330
DDF
100
AcAmgFilterDat
 70
    15
  1
ARC
  2
AM_5
  3
*
  4
2
  5
INSERT
290
     0
  0
ACAMGFILTERDAT
  5
DE2
102
{ACAD_REACTORS
330
DDF
102
}
330
DDF
100
AcAmgFilterDat
 70
    15
  1
ACMFCFRAME,ACMDATUMTARGET,ACMDATUMID,ACMWELDSYM,ACMSURFSYM,ACMFEATID,ACMPARTREF,ACMBALLOON,AMDTEDGESYM,AMGSCREWCALCTABLE
  2
*
  3
*
  4
*
  5
*
290
     1
  0
LAYER_INDEX
  5
DD7
102
{ACAD_REACTORS
330
DD6
102
}
330
DD6
100
AcDbIndex
 40
2454537.389259791
100
AcDbLayerIndex
  8
0
360
DD8
 90
      168
  8
1
360
DD9
 90
       20
  8
3
360
DDA
 90
       35
  8
2
360
DDB
 90
       13
  0
ACMDATAENTRYBLOCK
  5
D99
102
{ACAD_REACTORS
330
D98
102
}
330
D98
100
AcmDataEntry
100
AcmDataEntryBlock
  0
IDBUFFER
  5
DD8
330
0
100
AcDbIdBuffer
330
38A
330
38B
330
38C
330
38D
330
452
330
453
330
454
330
455
330
7B1
330
7B2
330
7B3
330
7B4
330
93B
330
93C
330
93D
330
93E
330
93F
330
940
330
941
330
942
330
943
330
944
330
94B
330
94D
330
951
330
952
330
953
330
954
330
955
330
956
330
957
330
959
330
95A
330
95B
330
95C
330
95D
330
95E
330
971
330
988
330
98A
330
98B
330
98C
330
98D
330
98E
330
98F
330
990
330
991
330
992
330
994
330
995
330
99C
330
99D
330
99E
330
99F
330
9A0
330
9A1
330
9A2
330
9A3
330
9A4
330
9A5
330
9A6
330
9A8
330
9A9
330
9AB
330
9AC
330
9AD
330
9AE
330
9AF
330
9B0
330
9B1
330
9B2
330
9B3
330
9B4
330
9B5
330
9B6
330
9B7
330
9B8
330
9B9
330
9BA
330
9BD
330
9BE
330
9BF
330
9C0
330
9C1
330
9C2
330
9C3
330
9C4
330
9C5
330
9C7
330
9C8
330
9C9
330
9CA
330
9CB
330
9EF
330
9F0
330
9F1
330
9F2
330
9F3
330
9F4
330
9F6
330
9F7
330
9F8
330
9F9
330
9FA
330
9FB
330
9FC
330
9FD
330
9FE
330
9FF
330
A00
330
A01
330
A02
330
A03
330
A04
330
A05
330
A06
330
A07
330
A08
330
A11
330
A12
330
A13
330
A34
330
A35
330
A36
330
A37
330
A38
330
A39
330
A3A
330
A3B
330
A3C
330
A3D
330
A3E
330
A3F
330
A40
330
A41
330
A42
330
A43
330
A44
330
A45
330
A46
330
A47
330
A48
330
A49
330
A4A
330
A4B
330
A4C
330
A4D
330
A4E
330
A4F
330
A50
330
A52
330
A53
330
A54
330
A55
330
A57
330
A58
330
A59
330
A5A
330
A5B
330
A5C
330
A5D
330
A5E
330
CB4
330
CB7
330
CBA
330
CBB
330
CBC
330
DEA
  0
IDBUFFER
  5
DD9
330
0
100
AcDbIdBuffer
330
945
330
946
330
958
330
983
330
989
330
993
330
996
330
997
330
9A7
330
9AA
330
9C6
330
9F5
330
A09
330
A0A
330
A0B
330
A0C
330
A0D
330
A0E
330
A0F
330
A10
  0
IDBUFFER
  5
DDA
330
0
100
AcDbIdBuffer
330
94C
330
94E
330
95F
330
9DD
330
A15
330
A16
330
A17
330
A18
330
A19
330
A1A
330
A1B
330
A1C
330
A1D
330
A1E
330
A1F
330
A20
330
A21
330
A22
330
A23
330
A24
330
A25
330
A26
330
A27
330
A28
330
A29
330
A2A
330
A2B
330
A2C
330
A2D
330
A2E
330
A2F
330
A30
330
A31
330
A32
330
A33
  0
IDBUFFER
  5
DDB
330
0
100
AcDbIdBuffer
330
DE6
330
DE7
330
DE8
330
DE9
330
947
330
948
330
949
330
94A
330
950
330
998
330
999
330
99A
330
99B
  0
ENDSEC
  0
EOF
