  0
SECTION
  2
HEADER
  9
$ACADVER
  1
AC1015
  9
$ACADMAINTVER
 70
    13
  9
$DWGCODEPAGE
  3
ANSI_932
  9
$INSBASE
 10
0.0
 20
0.0
 30
0.0
  9
$EXTMIN
 10
51.60141084529619
 20
26.13235539539289
 30
-0.0015258207003583
  9
$EXTMAX
 10
324.3141182457493
 20
258.9051825004923
 30
0.0000000349246037
  9
$LIMMIN
 10
0.0
 20
0.0
  9
$LIMMAX
 10
375.0
 20
270.0
  9
$ORTHOMODE
 70
     1
  9
$REGENMODE
 70
     1
  9
$FILLMODE
 70
     1
  9
$QTEXTMODE
 70
     0
  9
$MIRRTEXT
 70
     0
  9
$LTSCALE
 40
10.0
  9
$ATTMODE
 70
     1
  9
$TEXTSIZE
 40
6.2
  9
$TRACEWID
 40
0.05
  9
$TEXTSTYLE
  7
STANDARD
  9
$CLAYER
  8
0
  9
$CELTYPE
  6
ByLayer
  9
$CECOLOR
 62
   256
  9
$CELTSCALE
 40
1.0
  9
$DISPSILH
 70
     0
  9
$DIMSCALE
 40
1.0
  9
$DIMASZ
 40
3.0
  9
$DIMEXO
 40
2.0
  9
$DIMDLI
 40
0.38
  9
$DIMRND
 40
0.0
  9
$DIMDLE
 40
0.0
  9
$DIMEXE
 40
2.0
  9
$DIMTP
 40
0.0
  9
$DIMTM
 40
0.0
  9
$DIMTXT
 40
3.2
  9
$DIMCEN
 40
0.0
  9
$DIMTSZ
 40
0.0
  9
$DIMTOL
 70
     0
  9
$DIMLIM
 70
     0
  9
$DIMTIH
 70
     0
  9
$DIMTOH
 70
     0
  9
$DIMSE1
 70
     0
  9
$DIMSE2
 70
     0
  9
$DIMTAD
 70
     1
  9
$DIMZIN
 70
     0
  9
$DIMBLK
  1

  9
$DIMASO
 70
     0
  9
$DIMSHO
 70
     0
  9
$DIMPOST
  1

  9
$DIMAPOST
  1

  9
$DIMALT
 70
     0
  9
$DIMALTD
 70
     2
  9
$DIMALTF
 40
25.4
  9
$DIMLFAC
 40
1.0
  9
$DIMTOFL
 70
     0
  9
$DIMTVP
 40
1.6
  9
$DIMTIX
 70
     1
  9
$DIMSOXD
 70
     0
  9
$DIMSAH
 70
     0
  9
$DIMBLK1
  1

  9
$DIMBLK2
  1

  9
$DIMSTYLE
  2
STANDARD
  9
$DIMCLRD
 70
     4
  9
$DIMCLRE
 70
     4
  9
$DIMCLRT
 70
     4
  9
$DIMTFAC
 40
1.0
  9
$DIMGAP
 40
0.09
  9
$DIMJUST
 70
     0
  9
$DIMSD1
 70
     0
  9
$DIMSD2
 70
     0
  9
$DIMTOLJ
 70
     1
  9
$DIMTZIN
 70
     0
  9
$DIMALTZ
 70
     0
  9
$DIMALTTZ
 70
     0
  9
$DIMUPT
 70
     0
  9
$DIMDEC
 70
     1
  9
$DIMTDEC
 70
     1
  9
$DIMALTU
 70
     2
  9
$DIMALTTD
 70
     2
  9
$DIMTXSTY
  7
STANDARD
  9
$DIMAUNIT
 70
     0
  9
$DIMADEC
 70
     0
  9
$DIMALTRND
 40
0.0
  9
$DIMAZIN
 70
     0
  9
$DIMDSEP
 70
    46
  9
$DIMATFIT
 70
     3
  9
$DIMFRAC
 70
     0
  9
$DIMLDRBLK
  1

  9
$DIMLUNIT
 70
     2
  9
$DIMLWD
 70
    -2
  9
$DIMLWE
 70
    -2
  9
$DIMTMOVE
 70
     2
  9
$LUNITS
 70
     2
  9
$LUPREC
 70
     1
  9
$SKETCHINC
 40
0.1
  9
$FILLETRAD
 40
22.0
  9
$AUNITS
 70
     0
  9
$AUPREC
 70
     0
  9
$MENU
  1
E:\r13\win\SUPPORT\ACAD
  9
$ELEVATION
 40
0.0
  9
$PELEVATION
 40
0.0
  9
$THICKNESS
 40
0.0
  9
$LIMCHECK
 70
     0
  9
$CHAMFERA
 40
1.199999999999999
  9
$CHAMFERB
 40
1.199999999999999
  9
$CHAMFERC
 40
0.0
  9
$CHAMFERD
 40
0.0
  9
$SKPOLY
 70
     0
  9
$TDCREATE
 40
2449954.602013888
  9
$TDUCREATE
 40
2449954.227013888
  9
$TDUPDATE
 40
2454537.383211805
  9
$TDUUPDATE
 40
2454537.008211805
  9
$TDINDWG
 40
0.1200861921
  9
$TDUSRTIMER
 40
0.1200861921
  9
$USRTIMER
 70
     1
  9
$ANGBASE
 50
0.0
  9
$ANGDIR
 70
     0
  9
$PDMODE
 70
     0
  9
$PDSIZE
 40
0.0
  9
$PLINEWID
 40
0.0
  9
$SPLFRAME
 70
     0
  9
$SPLINETYPE
 70
     6
  9
$SPLINESEGS
 70
     8
  9
$HANDSEED
  5
C93
  9
$SURFTAB1
 70
     6
  9
$SURFTAB2
 70
     6
  9
$SURFTYPE
 70
     6
  9
$SURFU
 70
     6
  9
$SURFV
 70
     6
  9
$UCSBASE
  2

  9
$UCSNAME
  2

  9
$UCSORG
 10
0.0
 20
0.0
 30
0.0
  9
$UCSXDIR
 10
1.0
 20
0.0
 30
0.0
  9
$UCSYDIR
 10
0.0
 20
1.0
 30
0.0
  9
$UCSORTHOREF
  2

  9
$UCSORTHOVIEW
 70
     0
  9
$UCSORGTOP
 10
0.0
 20
0.0
 30
0.0
  9
$UCSORGBOTTOM
 10
0.0
 20
0.0
 30
0.0
  9
$UCSORGLEFT
 10
0.0
 20
0.0
 30
0.0
  9
$UCSORGRIGHT
 10
0.0
 20
0.0
 30
0.0
  9
$UCSORGFRONT
 10
0.0
 20
0.0
 30
0.0
  9
$UCSORGBACK
 10
0.0
 20
0.0
 30
0.0
  9
$PUCSBASE
  2

  9
$PUCSNAME
  2

  9
$PUCSORG
 10
0.0
 20
0.0
 30
0.0
  9
$PUCSXDIR
 10
1.0
 20
0.0
 30
0.0
  9
$PUCSYDIR
 10
0.0
 20
1.0
 30
0.0
  9
$PUCSORTHOREF
  2

  9
$PUCSORTHOVIEW
 70
     0
  9
$PUCSORGTOP
 10
0.0
 20
0.0
 30
0.0
  9
$PUCSORGBOTTOM
 10
0.0
 20
0.0
 30
0.0
  9
$PUCSORGLEFT
 10
0.0
 20
0.0
 30
0.0
  9
$PUCSORGRIGHT
 10
0.0
 20
0.0
 30
0.0
  9
$PUCSORGFRONT
 10
0.0
 20
0.0
 30
0.0
  9
$PUCSORGBACK
 10
0.0
 20
0.0
 30
0.0
  9
$USERI1
 70
     0
  9
$USERI2
 70
     1
  9
$USERI3
 70
     0
  9
$USERI4
 70
     0
  9
$USERI5
 70
     0
  9
$USERR1
 40
0.0
  9
$USERR2
 40
0.0
  9
$USERR3
 40
0.0
  9
$USERR4
 40
0.0
  9
$USERR5
 40
0.0
  9
$WORLDVIEW
 70
     1
  9
$SHADEDGE
 70
     3
  9
$SHADEDIF
 70
    70
  9
$TILEMODE
 70
     1
  9
$MAXACTVP
 70
    16
  9
$PINSBASE
 10
0.0
 20
0.0
 30
0.0
  9
$PLIMCHECK
 70
     0
  9
$PEXTMIN
 10
1.000000000000000E+20
 20
1.000000000000000E+20
 30
1.000000000000000E+20
  9
$PEXTMAX
 10
-1.000000000000000E+20
 20
-1.000000000000000E+20
 30
-1.000000000000000E+20
  9
$PLIMMIN
 10
0.0
 20
0.0
  9
$PLIMMAX
 10
12.0
 20
9.0
  9
$UNITMODE
 70
     0
  9
$VISRETAIN
 70
     0
  9
$PLINEGEN
 70
     0
  9
$PSLTSCALE
 70
     0
  9
$TREEDEPTH
 70
  3020
  9
$CMLSTYLE
  2
Standard
  9
$CMLJUST
 70
     0
  9
$CMLSCALE
 40
1.0
  9
$PROXYGRAPHICS
 70
     1
  9
$MEASUREMENT
 70
     0
  9
$CELWEIGHT
370
    -1
  9
$ENDCAPS
280
     0
  9
$JOINSTYLE
280
     0
  9
$LWDISPLAY
290
     0
  9
$INSUNITS
 70
     0
  9
$HYPERLINKBASE
  1

  9
$STYLESHEET
  1

  9
$XEDIT
290
     1
  9
$CEPSNTYPE
380
     0
  9
$PSTYLEMODE
290
     1
  9
$FINGERPRINTGUID
  2
{B55DF679-3C15-41A0-8FBD-0291DF969853}
  9
$VERSIONGUID
  2
{1AF72B40-822A-4D68-A1E4-10B30AC76D59}
  9
$EXTNAMES
290
     1
  9
$PSVPSCALE
 40
0.0
  9
$OLESTARTUP
290
     0
  0
ENDSEC
  0
SECTION
  2
CLASSES
  0
CLASS
  1
ACDBDICTIONARYWDFLT
  2
AcDbDictionaryWithDefault
  3
AutoCAD 2000
 90
        0
280
     0
281
     0
  0
CLASS
  1
ACDBPLACEHOLDER
  2
AcDbPlaceHolder
  3
AutoCAD 2000
 90
        0
280
     0
281
     0
  0
CLASS
  1
LAYOUT
  2
AcDbLayout
  3
AutoCAD 2000
 90
        0
280
     0
281
     0
  0
CLASS
  1
DICTIONARYVAR
  2
AcDbDictionaryVar
  3
AutoCAD 2000
 90
        0
280
     0
281
     0
  0
CLASS
  1
ACME_DOCUMENT
  2
AcMeDbDoc
  3
AcMeServices
 90
        0
280
     0
281
     0
  0
CLASS
  1
AMGSETTINGSOBJ
  2
AmgSettingsObj
  3
"AcadM|Product Description: AutoCAD Mechanical 2000|Company: Autodesk"
 90
        0
280
     0
281
     0
  0
CLASS
  1
ACMESCOPE
  2
AcMeScope
  3
AcMeServices
 90
        0
280
     0
281
     0
  0
CLASS
  1
ACMECOMMANDHISTORY
  2
AcMeCommandHistory
  3
AcMeServices
 90
        0
280
     0
281
     0
  0
CLASS
  1
ACIMSYSVARMAN
  2
AcImSysVarManager
  3
AcMeServices
 90
        0
280
     0
281
     0
  0
CLASS
  1
ACIMREALSYSVAR
  2
AcImRealSysVar
  3
AcMeServices
 90
        0
280
     0
281
     0
  0
CLASS
  1
ACIMINTSYSVAR
  2
AcImIntSysVar
  3
AcMeServices
 90
        0
280
     0
281
     0
  0
CLASS
  1
ACMEDRAWINGMAN
  2
AcMeDrawingMan
  3
AcMeServices
 90
        0
280
     0
281
     0
  0
CLASS
  1
ACMEVIEW
  2
AcMeView
  3
AcMeServices
 90
        0
280
     0
281
     0
  0
CLASS
  1
ACDBENTITYCACHE
  2
AcMeEntityCache
  3
AcMeServices
 90
        0
280
     0
281
     0
  0
CLASS
  1
GSMANAGER
  2
AcMeGSManager
  3
AcMeServices
 90
        0
280
     0
281
     0
  0
CLASS
  1
AMDTINTERNALREACTOR
  2
AmdtInternalReactor
  3
AcMeServices
 90
        0
280
     0
281
     0
  0
CLASS
  1
ACMESTATEMGR
  2
AcMeStateMgr
  3
AcMeServices
 90
        0
280
     0
281
     0
  0
CLASS
  1
ACGREFMASTER
  2
AcGrefMaster
  3
AcAttribServices
 90
        0
280
     0
281
     0
  0
CLASS
  1
AM_DRAWING_MGR
  2
AcDmDwgMgr
  3
AcMechDwgViewMgmt
 90
        0
280
     0
281
     0
  0
CLASS
  1
AM_DWG_DOCUMENT
  2
AcDmDwgDocument
  3
AcMechDwgViewMgmt
 90
        0
280
     0
281
     0
  0
CLASS
  1
AM_DWG_SHEET
  2
AcDmSheet
  3
AcMechDwgViewMgmt
 90
        0
280
     0
281
     0
  0
CLASS
  1
AM_VIEWDIMPARMAP
  2
AcDmViewDimParMap
  3
AcMechDwgViewMgmt
 90
        0
280
     0
281
     0
  0
CLASS
  1
AM_DWGMGR_NAME
  2
AcDmDwgMgrName
  3
AcMechDwgViewMgmt
 90
        0
280
     0
281
     0
  0
CLASS
  1
ACME_DATABASE
  2
AcMeDbDatabase
  3
AcMeServices
 90
        0
280
     0
281
     0
  0
CLASS
  1
ACRFINSADJUSTERMGR
  2
AcRfInsAdjusterMgr
  3
AcMeServices
 90
        0
280
     0
281
     0
  0
CLASS
  1
ACGREFACADMASTER
  2
AcGrefacadMaster
  3
AcGrefServices
 90
        0
280
     0
281
     0
  0
CLASS
  1
AMDTMENUSTATEMGR
  2
AmdtMenuStateMgr
  3
McadcomServices
 90
        0
280
     0
281
     0
  0
CLASS
  1
AMDTMCOMMENUSTATE
  2
AmdtMcomMenuState
  3
McadcomServices
 90
        0
280
     0
281
     0
  0
CLASS
  1
AMIMASTER
  2
AmiMaster
  3
AmiServices
 90
        0
280
     0
281
     0
  0
CLASS
  1
ASAPP
  2
AcAsAppObject
  3
AutoSurfServices
 90
        0
280
     0
281
     0
  0
CLASS
  1
IM_STATIC_MAN
  2
AcImStaticVarManager
  3
AcMeServices
 90
        0
280
     0
281
     0
  0
CLASS
  1
ACIMSTRSYSVAR
  2
AcImStrSysVar
  3
AcMeServices
 90
        0
280
     0
281
     0
  0
CLASS
  1
ACIMDBLSTATICVAR
  2
AcImDblStaticVar
  3
AcMeServices
 90
        0
280
     0
281
     0
  0
CLASS
  1
ACIMSTRSTATICVAR
  2
AcImStrStaticVar
  3
AcMeServices
 90
        0
280
     0
281
     0
  0
CLASS
  1
ACIMINTSTATICVAR
  2
AcImIntStaticVar
  3
AcMeServices
 90
        0
280
     0
281
     0
  0
CLASS
  1
ACASGREFMASTER
  2
AcAsGrefMaster
  3
AutoSurfResolverServices
 90
        0
280
     0
281
     0
  0
CLASS
  1
ACADGREFMODULE
  2
AcAdGrefModule
  3
AdGrefServices
 90
        0
280
     0
281
     0
  0
CLASS
  1
AMDTMAPISURFMOUDULE
  2
AmdtMApiSurfModule
  3
MApiSurfServices
 90
        0
280
     0
281
     0
  0
CLASS
  1
MAPIAMMOUDLE
  2
MApiAmModule
  3
MApiAmServices
 90
        0
280
     0
281
     0
  0
CLASS
  1
AMDTADMENUSTATE
  2
AmdtAdMenuState
  3
DesignerServices
 90
        0
280
     0
281
     0
  0
CLASS
  1
ADAPPL
  2
AcAdAppl
  3
DesignerServices
 90
        0
280
     0
281
     0
  0
CLASS
  1
DEPMGR
  2
AcAdDepMgr
  3
DesignerServices
 90
        0
280
     0
281
     0
  0
CLASS
  1
PARAMMGR
  2
AcAdParamMgr
  3
DesignerServices
 90
        0
280
     0
281
     0
  0
CLASS
  1
PARAMSCOPE
  2
AcAdParamScope
  3
DesignerServices
 90
        0
280
     0
281
     0
  0
CLASS
  1
NAMEDAPPL
  2
AcAdNamedAppl
  3
DesignerServices
 90
        0
280
     0
281
     0
  0
CLASS
  1
AMDTDMMENUSTATE
  2
AmdtDmMenuState
  3
AcMechDwgViewMgmt
 90
        0
280
     0
281
     0
  0
CLASS
  1
MAPIADMODULE
  2
MApiAdModule
  3
MApiAdServices
 90
        0
280
     0
281
     0
  0
CLASS
  1
AMDTAMMENUSTATE
  2
AmdtAmMenuState
  3
DesignerAssemblies
 90
        0
280
     0
281
     0
  0
CLASS
  1
ACAMPROJECT
  2
AcAmProject
  3
DesignerAssemblies
 90
        0
280
     0
281
     0
  0
CLASS
  1
ACAMGRCOMPDEF
  2
AcAmGrCompDef
  3
DesignerAssemblies
 90
        0
280
     0
281
     0
  0
CLASS
  1
ACCMCONTEXT
  2
AcCmContext
  3
DesignerAssemblies
 90
        0
280
     0
281
     0
  0
CLASS
  1
ACAMCOMPDEF
  2
AcAmCompDef
  3
DesignerAssemblies
 90
        0
280
     0
281
     0
  0
CLASS
  1
ACAMCOMPDEFMGR
  2
AcAmCompDefMgr
  3
DesignerAssemblies
 90
        0
280
     0
281
     0
  0
CLASS
  1
AMCONTEXTMGR
  2
AcAmContextMgr
  3
DesignerAssemblies
 90
        0
280
     0
281
     0
  0
CLASS
  1
ACAMCONTEXTMODELER
  2
AcAmContextModeler
  3
DesignerAssemblies
 90
        0
280
     0
281
     0
  0
CLASS
  1
ACMDATADICTIONARY
  2
AcmDataDictionary
  3
"AcmSymBB|Product Description: AutoCAD Mechanical 2000|Company: Autodesk"
 90
        0
280
     0
281
     0
  0
CLASS
  1
ACMDATAENTRYBLOCK
  2
AcmDataEntryBlock
  3
"AcmSymBB|Product Description: AutoCAD Mechanical 2000|Company: Autodesk"
 90
        0
280
     0
281
     0
  0
CLASS
  1
CATALOGSTATE
  2
AcAmCatalogState
  3
DesignerAssemblies
 90
        0
280
     0
281
     0
  0
CLASS
  1
ACAMGRCOMPDEFSET
  2
AcAmGrCompDefSet
  3
DesignerAssemblies
 90
        0
280
     0
281
     0
  0
CLASS
  1
AMDTBROWSERDBTAB
  2
AmdtBrowserDbTab
  3
McadcomServices
 90
        0
280
     0
281
     0
  0
CLASS
  1
CBROWSERAPPOBJECT
  2
CBrowserAppObject
  3
McadcomServices
 90
        0
280
     0
281
     0
  0
CLASS
  1
DM_PLACEHOLDER
  2
AcDmSelsetPlaceholder
  3
AcMechDwgViewMgmt
 90
        0
280
     0
281
     0
  0
CLASS
  1
ACMSTANDARDANSI
  2
AcmStandardANSI
  3
"Amdt_StdImp|Product Description: AutoCAD Mechanical 2000|Company: Autodesk"
 90
        0
280
     0
281
     0
  0
CLASS
  1
AMGOBJPROPCFG
  2
AmgObjPropCfg
  3
"AmgLay|Product Description: AutoCAD Mechanical 2000|Company: Autodesk"
 90
        1
280
     0
281
     0
  0
CLASS
  1
ACMSURFSTANDARDANSI
  2
AcmSurfTextStdANSI
  3
"Amdt_StdImp|Product Description: AutoCAD Mechanical 2000|Company: Autodesk"
 90
        0
280
     0
281
     0
  0
CLASS
  1
ACMFCFSTANDARDANSI
  2
AcmFCFStdANSI
  3
"Amdt_StdImp|Product Description: AutoCAD Mechanical 2000|Company: Autodesk"
 90
        0
280
     0
281
     0
  0
CLASS
  1
ACMWELDSTANDARDANSI
  2
AcmWeldingStdANSI
  3
"Amdt_StdImp|Product Description: AutoCAD Mechanical 2000|Company: Autodesk"
 90
        0
280
     0
281
     0
  0
CLASS
  1
ACMIDSTANDARDANSI
  2
AcmIdStdANSI
  3
"Amdt_StdImp|Product Description: AutoCAD Mechanical 2000|Company: Autodesk"
 90
        0
280
     0
281
     0
  0
CLASS
  1
ACMDATUMSTANDARDANSI
  2
AcmDatumStdANSI
  3
"Amdt_StdImp|Product Description: AutoCAD Mechanical 2000|Company: Autodesk"
 90
        0
280
     0
281
     0
  0
CLASS
  1
ACMBOMSTANDARDANSI
  2
AcmBOMStdANSI
  3
"Amdt_StdImp|Product Description: AutoCAD Mechanical 2000|Company: Autodesk"
 90
        0
280
     0
281
     0
  0
CLASS
  1
ACMDETAILSTANDARDANSI
  2
AmdtDetailSymStdANSI
  3
"Amdt_StdImp|Product Description: AutoCAD Mechanical 2000|Company: Autodesk"
 90
        0
280
     0
281
     0
  0
CLASS
  1
ACMSECTIONSTANDARDANSI
  2
AmdtSectionSymStdANSI
  3
"Amdt_StdImp|Product Description: AutoCAD Mechanical 2000|Company: Autodesk"
 90
        0
280
     0
281
     0
  0
CLASS
  1
ACMCENTERLINESTANDARDANSI
  2
AmdtCenterLineStdANSI
  3
"Amdt_StdImp|Product Description: AutoCAD Mechanical 2000|Company: Autodesk"
 90
        0
280
     0
281
     0
  0
CLASS
  1
ACMTHREADLINESTANDARDANSI
  2
AmdtThreadLineStdANSI
  3
"Amdt_StdImp|Product Description: AutoCAD Mechanical 2000|Company: Autodesk"
 90
        0
280
     0
281
     0
  0
CLASS
  1
ACMNOTESTANDARDANSI
  2
AmdtNoteStdANSI
  3
"Amdt_StdImp|Product Description: AutoCAD Mechanical 2000|Company: Autodesk"
 90
        0
280
     0
281
     0
  0
CLASS
  1
ACAMGLAYSTD
  2
AcAmgLayStd
  3
"AcAmgLayStd|Product Description: AutoCAD Mechanical 2000|Company: Autodesk"
 90
        0
280
     0
281
     0
  0
CLASS
  1
ACAMGDIMSTD
  2
AcAmgDimStd
  3
"AcAmgDimStd|Product Description: AutoCAD Mechanical 2000|Company: Autodesk"
 90
        0
280
     0
281
     0
  0
CLASS
  1
ACAMGHOLECHARTSTDANSI
  2
AcAmgHoleChartStdANSI
  3
ACMSYMBB_MODULE_NAME
 90
        0
280
     0
281
     0
  0
CLASS
  1
ACAMGTITLESTD
  2
AcAmgTitleStd
  3
"TITLEAPP"
 90
        0
280
     0
281
     0
  0
CLASS
  1
ACAMGFILTERDAT
  2
AcAmgFilterDat
  3
"AcadM|Product Description: AutoCAD Mechanical 2000|Company: Autodesk"
 90
        0
280
     0
281
     0
  0
CLASS
  1
LAYER_INDEX
  2
AcDbLayerIndex
  3
AutoCAD 2000
 90
        0
280
     0
281
     0
  0
CLASS
  1
IDBUFFER
  2
AcDbIdBuffer
  3
AutoCAD 2000
 90
        0
280
     0
281
     0
  0
ENDSEC
  0
SECTION
  2
TABLES
  0
TABLE
  2
VPORT
  5
B3B
330
0
100
AcDbSymbolTable
 70
     6
  0
VPORT
  5
C92
330
B3B
100
AcDbSymbolTableRecord
100
AcDbViewportTableRecord
  2
*Active
 70
     0
 10
0.0
 20
0.0
 11
1.0
 21
1.0
 12
-152.1037665947816
 22
-41.82133973008563
 13
0.0
 23
0.0
 14
10.0
 24
10.0
 15
10.0
 25
10.0
 16
0.0
 26
0.0
 36
1.0
 17
339.6037665947817
 27
176.8213397300856
 37
0.0
 40
272.035175879397
 41
1.515723270440251
 42
50.0
 43
0.0
 44
0.0
 50
0.0
 51
0.0
 71
     0
 72
 20000
 73
     1
 74
     0
 75
     0
 76
     0
 77
     0
 78
     2
281
     0
 65
     0
110
0.0
120
0.0
130
0.0
111
1.0
121
0.0
131
0.0
112
0.0
122
1.0
132
0.0
 79
     0
146
0.0
  0
ENDTAB
  0
TABLE
  2
LTYPE
  5
B38
330
0
100
AcDbSymbolTable
 70
    18
  0
LTYPE
  5
B46
330
B38
100
AcDbSymbolTableRecord
100
AcDbLinetypeTableRecord
  2
ByBlock
 70
     0
  3

 72
    65
 73
     0
 40
0.0
  0
LTYPE
  5
B47
330
B38
100
AcDbSymbolTableRecord
100
AcDbLinetypeTableRecord
  2
ByLayer
 70
     0
  3

 72
    65
 73
     0
 40
0.0
  0
LTYPE
  5
B48
330
B38
100
AcDbSymbolTableRecord
100
AcDbLinetypeTableRecord
  2
CONTINUOUS
 70
     0
  3
Solid Line
 72
    65
 73
     0
 40
0.0
  0
LTYPE
  5
B56
330
B38
100
AcDbSymbolTableRecord
100
AcDbLinetypeTableRecord
  2
CENTER
 70
     0
  3
____ _ ____ _ ____ _ ____ _ ____ _ ____ _ ____
 72
    65
 73
     4
 40
2.0
 49
1.25
 74
     0
 49
-0.25
 74
     0
 49
0.25
 74
     0
 49
-0.25
 74
     0
  0
LTYPE
  5
B57
330
B38
100
AcDbSymbolTableRecord
100
AcDbLinetypeTableRecord
  2
HIDDEN
 70
     0
  3
_ _ _ _ _ _ _ _ _ _ _ _ _ _ _ _ _ _ _ _ _ _ _
 72
    65
 73
     2
 40
0.375
 49
0.25
 74
     0
 49
-0.125
 74
     0
  0
LTYPE
  5
BA8
330
B38
100
AcDbSymbolTableRecord
100
AcDbLinetypeTableRecord
  2
PHANTOM2
 70
     0
  3
Phantom (.5x) ___ _ _ ___ _ _ ___ _ _ ___ _ _
 72
    65
 73
     6
 40
1.25
 49
0.625
 74
     0
 49
-0.125
 74
     0
 49
0.125
 74
     0
 49
-0.125
 74
     0
 49
0.125
 74
     0
 49
-0.125
 74
     0
  0
LTYPE
  5
C0A
330
B38
100
AcDbSymbolTableRecord
100
AcDbLinetypeTableRecord
  2
ASULTYPE
 70
     0
  3
実線
 72
    65
 73
     2
 40
3.0
 49
2.5
 74
     0
 49
0.5
 74
     0
  0
LTYPE
  5
C0B
330
B38
100
AcDbSymbolTableRecord
100
AcDbLinetypeTableRecord
  2
ASVLTYPE
 70
     0
  3
__ __ __ __ __ __ __ __ __ __ __ __ __ __ __ __ __ __ __ __ __
 72
    65
 73
     2
 40
0.75
 49
0.5
 74
     0
 49
-0.25
 74
     0
  0
LTYPE
  5
C4F
330
B38
100
AcDbSymbolTableRecord
100
AcDbLinetypeTableRecord
  2
AM_ISO02W050
 70
     0
  3
__ __ __ __ __ __ __ __ __ __ __ __ __ __ __
 72
    65
 73
     2
 40
7.5
 49
6.0
 74
     0
 49
-1.5
 74
     0
  0
LTYPE
  5
C50
330
B38
100
AcDbSymbolTableRecord
100
AcDbLinetypeTableRecord
  2
AM_ISO08W050
 70
     0
  3
____ . ____ . ____ . ____ . ____ . ____ . ____
 72
    65
 73
     4
 40
18.0
 49
12.0
 74
     0
 49
-1.5
 74
     0
 49
3.0
 74
     0
 49
-1.5
 74
     0
  0
LTYPE
  5
C51
330
B38
100
AcDbSymbolTableRecord
100
AcDbLinetypeTableRecord
  2
AM_ISO09W050
 70
     0
  3
_____ . . _____ . . _____ . . ____ .. ____
 72
    65
 73
     6
 40
22.5
 49
12.0
 74
     0
 49
-1.5
 74
     0
 49
3.0
 74
     0
 49
-1.5
 74
     0
 49
3.0
 74
     0
 49
-1.5
 74
     0
  0
LTYPE
  5
C52
330
B38
100
AcDbSymbolTableRecord
100
AcDbLinetypeTableRecord
  2
Amconstr
 70
     0
  3
_______________________
 72
    65
 73
     2
 40
9999.0
 49
9999.0
 74
     0
 49
0.0
 74
     0
  0
LTYPE
  5
C53
330
B38
100
AcDbSymbolTableRecord
100
AcDbLinetypeTableRecord
  2
AM_ISO08W050x2
 70
     0
  3
__ . __ . __ . __ . __ . __
 72
    65
 73
     4
 40
9.0
 49
6.0
 74
     0
 49
-0.75
 74
     0
 49
1.5
 74
     0
 49
-0.75
 74
     0
  0
LTYPE
  5
C54
330
B38
100
AcDbSymbolTableRecord
100
AcDbLinetypeTableRecord
  2
AM_ISO02W050x2
 70
     0
  3
 _ _ _ _ _ _ _ _ _ _ _ _
 72
    65
 73
     2
 40
3.75
 49
3.0
 74
     0
 49
-0.75
 74
     0
  0
LTYPE
  5
C57
330
B38
100
AcDbSymbolTableRecord
100
AcDbLinetypeTableRecord
  2
Amzigzag
 70
     0
  3
/\/-/\/-/\/-/\/-/\/-/\/
 72
    65
 73
     2
 40
11.00009999999999
 49
0.0001
 74
     4
 75
   135
340
C56
 46
0.04
 50
0.0
 44
0.0
 45
0.0
 49
-11.0
 74
     0
  0
LTYPE
  5
C58
330
B38
100
AcDbSymbolTableRecord
100
AcDbLinetypeTableRecord
  2
CENTER2
 70
     0
  3
Center (.5x) ___ _ ___ _ ___ _ ___ _ ___ _ ___
 72
    65
 73
     4
 40
1.125
 49
0.75
 74
     0
 49
-0.125
 74
     0
 49
0.125
 74
     0
 49
-0.125
 74
     0
  0
LTYPE
  5
C59
330
B38
100
AcDbSymbolTableRecord
100
AcDbLinetypeTableRecord
  2
HIDDEN2
 70
     0
  3
Hidden (.5x) _ _ _ _ _ _ _ _ _ _ _ _ _ _ _ _ _
 72
    65
 73
     2
 40
0.1875
 49
0.125
 74
     0
 49
-0.0625
 74
     0
  0
LTYPE
  5
C5A
330
B38
100
AcDbSymbolTableRecord
100
AcDbLinetypeTableRecord
  2
Amzigzag2
 70
     0
  3
/\/-/\/-/\/-/\/-/\/-/\/
 72
    65
 73
     2
 40
0.4401
 49
0.0001
 74
     4
 75
   135
340
C56
 46
0.0016
 50
0.0
 44
0.0
 45
0.0
 49
-0.4400000000000001
 74
     0
  0
LTYPE
  5
C68
330
B38
100
AcDbSymbolTableRecord
100
AcDbLinetypeTableRecord
  2
ACANSTGB
 70
     0
  3
__ . . __ . .
 72
    65
 73
     6
 40
0.35433070866
 49
0.15748031496
 74
     0
 49
-0.03937007874
 74
     0
 49
0.03937007874
 74
     0
 49
-0.03937007874
 74
     0
 49
0.03937007874
 74
     0
 49
-0.03937007874
 74
     0
  0
LTYPE
  5
C69
330
B38
100
AcDbSymbolTableRecord
100
AcDbLinetypeTableRecord
  2
ACANSTGL
 70
     0
  3
_ _ _ _ _
 72
    65
 73
     2
 40
0.11811023622
 49
0.07874015748
 74
     0
 49
-0.03937007874
 74
     0
  0
ENDTAB
  0
TABLE
  2
LAYER
  5
B35
330
0
100
AcDbSymbolTable
 70
     4
  0
LAYER
  5
B43
330
B35
100
AcDbSymbolTableRecord
100
AcDbLayerTableRecord
  2
0
 70
     0
 62
     7
  6
CONTINUOUS
370
    -3
390
B42
  0
LAYER
  5
B5B
330
B35
100
AcDbSymbolTableRecord
100
AcDbLayerTableRecord
  2
1
 70
     0
 62
     1
  6
CENTER
370
    -3
390
B42
  0
LAYER
  5
B5C
330
B35
100
AcDbSymbolTableRecord
100
AcDbLayerTableRecord
  2
3
 70
     0
 62
     7
  6
CONTINUOUS
370
    -3
390
B42
  0
LAYER
  5
B5F
330
B35
100
AcDbSymbolTableRecord
100
AcDbLayerTableRecord
  2
2
 70
     0
 62
     3
  6
HIDDEN
370
    -3
390
B42
  0
ENDTAB
  0
TABLE
  2
STYLE
  5
B36
330
0
100
AcDbSymbolTable
 70
     4
  0
STYLE
  5
B44
330
B36
100
AcDbSymbolTableRecord
100
AcDbTextStyleTableRecord
  2
STANDARD
 70
     0
 40
0.0
 41
1.0
 50
0.0
 71
     0
 42
6.2
  3
SIMPLEX
  4
BIGFONT
  0
STYLE
  5
C56
330
B36
100
AcDbSymbolTableRecord
100
AcDbTextStyleTableRecord
  2

 70
     1
 40
0.0
 41
1.0
 50
0.0
 71
     0
 42
4.000000000000048
  3
ltypeshp.shx
  4

  0
STYLE
  5
C5B
330
B36
100
AcDbSymbolTableRecord
100
AcDbTextStyleTableRecord
  2
ACANSTS
 70
     0
 40
1.0
 41
1.0
 50
0.0
 71
     0
 42
4.000000000000048
  3
romans.shx
  4
extfont.shx
  0
STYLE
  5
C67
330
B36
100
AcDbSymbolTableRecord
100
AcDbTextStyleTableRecord
  2
ACANSGDT
 70
     0
 40
0.0
 41
1.0
 50
0.0
 71
     0
 42
4.000000000000048
  3
amgdtans.shx
  4

  0
ENDTAB
  0
TABLE
  2
VIEW
  5
B39
330
0
100
AcDbSymbolTable
 70
     1
  0
VIEW
  5
B58
330
B39
100
AcDbSymbolTableRecord
100
AcDbViewTableRecord
  2
ALL
 70
     0
 40
270.0
 10
220.7859531772575
 20
135.0
 41
441.571906354515
 11
0.0
 21
0.0
 31
1.0
 12
0.0
 22
0.0
 32
0.0
 42
50.0
 43
0.0
 44
0.0
 50
0.0
 71
     0
281
     0
 72
     0
  0
ENDTAB
  0
TABLE
  2
UCS
  5
B3A
330
0
100
AcDbSymbolTable
 70
     0
  0
ENDTAB
  0
TABLE
  2
APPID
  5
B3C
330
0
100
AcDbSymbolTable
 70
    13
  0
APPID
  5
B45
330
B3C
100
AcDbSymbolTableRecord
100
AcDbRegAppTableRecord
  2
ACAD
 70
     0
  0
APPID
  5
B86
330
B3C
100
AcDbSymbolTableRecord
100
AcDbRegAppTableRecord
  2
GENIUS_GENDIM_13
 70
     0
  0
APPID
  5
B87
330
B3C
100
AcDbSymbolTableRecord
100
AcDbRegAppTableRecord
  2
GENIUS_GENDTOL_13
 70
     0
  0
APPID
  5
B88
330
B3C
100
AcDbSymbolTableRecord
100
AcDbRegAppTableRecord
  2
GENIUS_GE3DTOL_13
 70
     0
  0
APPID
  5
B8B
330
B3C
100
AcDbSymbolTableRecord
100
AcDbRegAppTableRecord
  2
MCAD_NO_VIS
 70
     0
  0
APPID
  5
B8C
330
B3C
100
AcDbSymbolTableRecord
100
AcDbRegAppTableRecord
  2
ACAD_TEMP_GRAPHIC
 70
     0
  0
APPID
  5
BBD
330
B3C
100
AcDbSymbolTableRecord
100
AcDbRegAppTableRecord
  2
AD_DRAW
 70
     0
  0
APPID
  5
BC0
330
B3C
100
AcDbSymbolTableRecord
100
AcDbRegAppTableRecord
  2
ACATTRIBSERVICES
 70
     0
  0
APPID
  5
C0C
330
B3C
100
AcDbSymbolTableRecord
100
AcDbRegAppTableRecord
  2
ASURF_PCURVE_APPNAME
 70
     0
  0
APPID
  5
C11
330
B3C
100
AcDbSymbolTableRecord
100
AcDbRegAppTableRecord
  2
AMG_3D2D_5.0
 70
     0
  0
APPID
  5
C3C
330
B3C
100
AcDbSymbolTableRecord
100
AcDbRegAppTableRecord
  2
DESIGNERASSEMBLIES
 70
     0
  0
APPID
  5
C44
330
B3C
100
AcDbSymbolTableRecord
100
AcDbRegAppTableRecord
  2
ACADM_DIM_EDIT
 70
     0
  0
APPID
  5
C45
330
B3C
100
AcDbSymbolTableRecord
100
AcDbRegAppTableRecord
  2
AMDT_DM_ADJ
 70
     0
  0
ENDTAB
  0
TABLE
  2
DIMSTYLE
  5
B3D
330
0
100
AcDbSymbolTable
 70
     7
100
AcDbDimStyleTable
 71
     1
340
B5A
  0
DIMSTYLE
105
B5A
330
B3D
100
AcDbSymbolTableRecord
100
AcDbDimStyleTableRecord
  2
STANDARD
 70
     0
271
     1
272
     1
279
     2
340
B44
  0
DIMSTYLE
105
C6E
330
B3D
100
AcDbSymbolTableRecord
100
AcDbDimStyleTableRecord
  2
AM_ANSI
 70
     0
  4
mm
 41
0.1
 42
0.05
 43
0.5
 44
0.1
 47
0.1
 48
0.1
 78
     7
 79
     2
140
0.12
141
0.0
146
0.71
147
0.06
176
   256
177
   256
178
     2
274
     4
284
     7
340
B44
371
    -1
372
    -1
  0
DIMSTYLE
105
C6F
330
B3D
100
AcDbSymbolTableRecord
100
AcDbDimStyleTableRecord
  2
AM_ANSI$3
 70
     0
  4
mm
 41
0.1
 42
0.05
 43
0.5
 44
0.1
 47
0.1
 48
0.1
 78
     7
 79
     2
140
0.12
141
0.0
146
0.71
147
0.06
176
   256
177
   256
178
     2
274
     4
284
     7
288
     1
289
     0
340
B44
371
    -1
372
    -1
  0
DIMSTYLE
105
C70
330
B3D
100
AcDbSymbolTableRecord
100
AcDbDimStyleTableRecord
  2
AM_ANSI$4
 70
     0
  4
mm
 41
0.1
 42
0.05
 43
0.5
 44
0.1
 47
0.1
 48
0.1
 78
     7
 79
     2
140
0.12
141
0.0
146
0.71
147
0.06
176
   256
177
   256
178
     2
274
     4
284
     7
288
     1
289
     0
340
B44
371
    -1
372
    -1
  0
DIMSTYLE
105
C71
330
B3D
100
AcDbSymbolTableRecord
100
AcDbDimStyleTableRecord
  2
AM_ANSI$7
 70
     0
  4
mm
 41
0.1
 42
0.05
 43
0.5
 44
0.1
 47
0.1
 48
0.1
 78
     7
 79
     2
140
0.24
141
0.0
146
0.71
147
0.06
176
   256
177
   256
178
     2
274
     4
284
     7
340
B44
371
    -1
372
    -1
  0
DIMSTYLE
105
C72
330
B3D
100
AcDbSymbolTableRecord
100
AcDbDimStyleTableRecord
  2
AM_ANSI$SF
 70
     0
  4
mm
 41
0.1
 42
0.05
 43
0.5
 44
0.1
 47
0.1
 48
0.1
 75
     1
 76
     1
 78
     7
 79
     2
140
0.12
141
0.0
146
0.71
147
0.06
176
   256
177
   256
178
     2
274
     4
284
     7
340
B44
371
    -1
372
    -1
  0
DIMSTYLE
105
C77
330
B3D
100
AcDbSymbolTableRecord
100
AcDbDimStyleTableRecord
  2
AM_ANSI$SH
 70
     0
  4
mm
 41
0.1
 42
0.05
 43
0.5
 44
0.1
 47
0.1
 48
0.1
 75
     1
 76
     1
 78
     7
 79
     2
140
0.12
141
0.0
146
0.71
147
0.06
173
     1
176
   256
177
   256
178
     2
274
     4
284
     7
340
B44
343
C73
371
    -1
372
    -1
  0
ENDTAB
  0
TABLE
  2
BLOCK_RECORD
  5
B34
330
0
100
AcDbSymbolTable
 70
     3
  0
BLOCK_RECORD
  5
B51
102
{ACAD_XDICTIONARY
360
C87
102
}
330
B34
100
AcDbSymbolTableRecord
100
AcDbBlockTableRecord
  2
*Model_Space
340
B54
  0
BLOCK_RECORD
  5
B4D
330
B34
100
AcDbSymbolTableRecord
100
AcDbBlockTableRecord
  2
*Paper_Space
340
B50
  0
BLOCK_RECORD
  5
B55
330
B34
100
AcDbSymbolTableRecord
100
AcDbBlockTableRecord
  2
STDGX5
340
0
102
{BLKREFS
331
38A
331
38B
331
38C
331
38D
331
452
331
453
331
454
331
455
331
7B1
331
7B2
331
7B3
331
7B4
331
A34
331
A35
331
A36
331
A37
331
A38
331
A39
331
A3A
331
A3B
331
A3C
331
A3D
331
A3E
331
A3F
331
A49
331
A4A
331
A4B
331
A4C
331
A4D
331
A4E
331
A4F
331
A50
331
A52
331
A53
331
A54
331
A55
331
A57
331
A58
331
A59
331
A5A
331
A5B
331
A5C
331
A5D
331
A5E
102
}
  0
BLOCK_RECORD
  5
C33
330
B34
100
AcDbSymbolTableRecord
100
AcDbBlockTableRecord
  2
*U1
340
0
  0
BLOCK_RECORD
  5
C73
330
B34
100
AcDbSymbolTableRecord
100
AcDbBlockTableRecord
  2
GENAXEH
340
0
  0
ENDTAB
  0
ENDSEC
  0
SECTION
  2
BLOCKS
  0
BLOCK
  5
B62
330
B51
100
AcDbEntity
  8
0
100
AcDbBlockBegin
  2
*Model_Space
 70
     0
 10
0.0
 20
0.0
 30
0.0
  3
*Model_Space
  1

  0
ENDBLK
  5
B63
330
B51
100
AcDbEntity
  8
0
100
AcDbBlockEnd
  0
BLOCK
  5
B60
330
B4D
100
AcDbEntity
 67
     1
  8
0
100
AcDbBlockBegin
  2
*Paper_Space
 70
     0
 10
0.0
 20
0.0
 30
0.0
  3
*Paper_Space
  1

  0
ENDBLK
  5
B61
330
B4D
100
AcDbEntity
 67
     1
  8
0
100
AcDbBlockEnd
  0
BLOCK
  5
2ED
330
B55
100
AcDbEntity
  8
0
100
AcDbBlockBegin
  2
STDGX5
 70
     0
 10
0.0
 20
0.0
 30
0.0
  3
STDGX5
  1

  0
ENDBLK
  5
2EE
330
B55
100
AcDbEntity
  8
0
100
AcDbBlockEnd
  0
BLOCK
  5
C34
330
C33
100
AcDbEntity
  8
0
100
AcDbBlockBegin
  2
*U1
 70
     1
 10
0.0
 20
0.0
 30
0.0
  3
*U1
  1

  0
ENDBLK
  5
C35
330
C33
100
AcDbEntity
  8
0
100
AcDbBlockEnd
  0
BLOCK
  5
C75
330
C73
100
AcDbEntity
  8
0
100
AcDbBlockBegin
  2
GENAXEH
 70
     0
 10
0.0
 20
0.0
 30
0.0
  3
GENAXEH
  1

  0
LINE
  5
C74
330
C73
100
AcDbEntity
  8
0
100
AcDbLine
 10
-1.0
 20
0.0
 30
0.0
 11
1.0
 21
0.0
 31
0.0
  0
ENDBLK
  5
C76
330
C73
100
AcDbEntity
  8
0
100
AcDbBlockEnd
  0
ENDSEC
  0
SECTION
  2
ENTITIES
  0
INSERT
  5
38A
330
B51
100
AcDbEntity
  8
0
100
AcDbBlockReference
  2
STDGX5
 10
0.0
 20
0.0
 30
0.0
  0
INSERT
  5
38B
330
B51
100
AcDbEntity
  8
0
100
AcDbBlockReference
  2
STDGX5
 10
0.0
 20
0.0
 30
0.0
  0
INSERT
  5
38C
330
B51
100
AcDbEntity
  8
0
100
AcDbBlockReference
  2
STDGX5
 10
275.0
 20
0.0
 30
0.0
  0
INSERT
  5
38D
330
B51
100
AcDbEntity
  8
0
100
AcDbBlockReference
  2
STDGX5
 10
275.0
 20
0.0
 30
0.0
  0
INSERT
  5
452
330
B51
100
AcDbEntity
  8
0
100
AcDbBlockReference
  2
STDGX5
 10
0.0
 20
0.0
 30
0.0
 41
2.0
 42
2.0
 43
2.0
  0
INSERT
  5
453
330
B51
100
AcDbEntity
  8
0
100
AcDbBlockReference
  2
STDGX5
 10
0.0
 20
0.0
 30
0.0
 41
2.0
 42
2.0
 43
2.0
  0
INSERT
  5
454
330
B51
100
AcDbEntity
  8
0
100
AcDbBlockReference
  2
STDGX5
 10
550.0
 20
0.0
 30
0.0
 41
2.0
 42
2.0
 43
2.0
  0
INSERT
  5
455
330
B51
100
AcDbEntity
  8
0
100
AcDbBlockReference
  2
STDGX5
 10
550.0
 20
0.0
 30
0.0
 41
2.0
 42
2.0
 43
2.0
  0
INSERT
  5
7B1
330
B51
100
AcDbEntity
  8
0
100
AcDbBlockReference
  2
STDGX5
 10
0.0
 20
0.0
 30
0.0
  0
INSERT
  5
7B2
330
B51
100
AcDbEntity
  8
0
100
AcDbBlockReference
  2
STDGX5
 10
0.0
 20
0.0
 30
0.0
  0
INSERT
  5
7B3
330
B51
100
AcDbEntity
  8
0
100
AcDbBlockReference
  2
STDGX5
 10
275.0
 20
0.0
 30
0.0
  0
INSERT
  5
7B4
330
B51
100
AcDbEntity
  8
0
100
AcDbBlockReference
  2
STDGX5
 10
275.0
 20
0.0
 30
0.0
  0
TEXT
  5
937
330
B51
100
AcDbEntity
  8
0
100
AcDbText
 10
181.0502564907293
 20
220.7405951655277
 30
0.0
 40
6.4
  1
0
 50
270.0
 41
0.8349999999999999
100
AcDbText
  0
TEXT
  5
939
330
B51
100
AcDbEntity
  8
0
100
AcDbText
 10
181.0502564907293
 20
234.509480057614
 30
0.0
 40
6.4
  1
0
 50
270.0
 41
0.8349999999999999
100
AcDbText
  0
TEXT
  5
93A
330
B51
100
AcDbEntity
  8
0
100
AcDbText
 10
181.0502564907293
 20
241.6299836547364
 30
0.0
 40
6.4
  1
0
 50
270.0
 41
0.8349999999999999
100
AcDbText
  0
LINE
  5
93B
330
B51
100
AcDbEntity
  8
0
100
AcDbLine
 10
210.8002564907278
 20
168.452129157512
 30
0.0
 11
205.3002564907279
 21
168.452129157512
 31
0.0
  0
LINE
  5
93C
330
B51
100
AcDbEntity
  8
0
100
AcDbLine
 10
211.3002564907279
 20
162.9521291575108
 30
0.0
 11
211.3002564907279
 21
167.952129157512
 31
0.0
  0
LINE
  5
93D
330
B51
100
AcDbEntity
  8
0
100
AcDbLine
 10
210.8002564907278
 20
162.4521291575108
 30
0.0
 11
205.3002564907279
 21
162.4521291575107
 31
0.0
  0
ARC
  5
93E
330
B51
100
AcDbEntity
  8
0
100
AcDbCircle
 10
210.8002564907279
 20
167.952129157512
 30
0.0
 40
0.5
100
AcDbArc
 50
0.0
 51
90.0
  0
ARC
  5
93F
330
B51
100
AcDbEntity
  8
0
100
AcDbCircle
 10
210.8002564907279
 20
162.9521291575108
 30
0.0
 40
0.5
100
AcDbArc
 50
270.0
 51
0.0
  0
LINE
  5
940
330
B51
100
AcDbEntity
  8
0
100
AcDbLine
 10
175.3002564907279
 20
213.0247678273984
 30
0.0
 11
175.8002564907279
 21
213.0247678273984
 31
0.0
  0
LINE
  5
941
330
B51
100
AcDbEntity
  8
0
100
AcDbLine
 10
175.3002564907279
 20
251.0247678273984
 30
0.0
 11
175.3002564907279
 21
213.0247678273984
 31
0.0
  0
LINE
  5
942
330
B51
100
AcDbEntity
  8
0
100
AcDbLine
 10
175.8002564907279
 20
251.0247678273984
 30
0.0
 11
175.3002564907279
 21
251.0247678273984
 31
0.0
  0
CIRCLE
  5
943
330
B51
100
AcDbEntity
  8
0
100
AcDbCircle
 10
103.1840160077427
 20
135.4521291575121
 30
0.0
 40
19.0
  0
LINE
  5
944
330
B51
100
AcDbEntity
  8
0
100
AcDbLine
 10
200.3002564907279
 20
208.024767827398
 30
0.0
 11
200.3002564907279
 21
256.0247678273981
 31
0.0
  0
LINE
  5
945
330
B51
100
AcDbEntity
  8
1
100
AcDbLine
 10
216.3002564907279
 20
232.0247678273984
 30
0.0
 11
161.8002564907279
 21
232.0247678273984
 31
0.0
  0
LINE
  5
946
330
B51
100
AcDbEntity
  8
1
100
AcDbLine
 10
161.8002564907279
 20
135.4521291575121
 30
0.0
 11
212.3002564907279
 21
135.4521291575121
 31
0.0
  0
LINE
  5
947
330
B51
100
AcDbEntity
  8
2
100
AcDbLine
 10
111.5639693676882
 20
129.9953552309921
 30
0.0
 11
114.0789908803792
 21
127.4803337183011
 31
0.0
  0
LINE
  5
948
330
B51
100
AcDbEntity
  8
2
100
AcDbLine
 10
114.3326144803558
 20
127.8390645908317
 30
0.0
 11
111.7983149295236
 21
130.373364141664
 31
0.0
  0
LINE
  5
949
330
B51
100
AcDbEntity
  8
2
100
AcDbLine
 10
108.6407899342627
 20
127.0721757975666
 30
0.0
 11
111.1558114469537
 21
124.5571542848756
 31
0.0
  0
LINE
  5
94A
330
B51
100
AcDbEntity
  8
2
100
AcDbLine
 10
110.7970805744231
 20
124.303530684899
 30
0.0
 11
108.2627810235908
 21
126.8378302357313
 31
0.0
  0
LINE
  5
94B
330
B51
100
AcDbEntity
  8
0
100
AcDbLine
 10
110.7970805744234
 20
124.3035306848987
 30
0.0
 11
110.9621906007949
 21
124.1384206585272
 31
0.0
  0
LINE
  5
94C
330
B51
100
AcDbEntity
  8
3
100
AcDbLine
 10
111.1558114469538
 20
124.5571542848755
 30
0.0
 11
111.2683678370485
 21
124.4445978947808
 31
0.0
  0
LINE
  5
94D
330
B51
100
AcDbEntity
  8
0
100
AcDbLine
 10
114.3326144803555
 20
127.839064590832
 30
0.0
 11
114.4977245067276
 21
127.6739545644599
 31
0.0
  0
LINE
  5
94E
330
B51
100
AcDbEntity
  8
3
100
AcDbLine
 10
114.0789908803793
 20
127.480333718301
 30
0.0
 11
114.191547270474
 21
127.3677773282062
 31
0.0
  0
LINE
  5
950
330
B51
100
AcDbEntity
  8
2
100
AcDbLine
 10
203.3002564907279
 20
155.4521291575122
 30
0.0
 11
203.3002564907279
 21
115.4521291575121
 31
0.0
  0
LINE
  5
951
330
B51
100
AcDbEntity
  8
0
100
AcDbLine
 10
200.3002564907279
 20
177.4521291575124
 30
0.0
 11
200.3002564907279
 21
109.9521291575124
 31
0.0
  0
LINE
  5
952
330
B51
100
AcDbEntity
  8
0
100
AcDbLine
 10
178.800256490729
 20
214.5247678273984
 30
0.0
 11
178.800256490729
 21
249.5247678273984
 31
0.0
  0
LINE
  5
953
330
B51
100
AcDbEntity
  8
0
100
AcDbLine
 10
175.8002564907279
 20
212.024767827398
 30
0.0
 11
175.8002564907279
 21
252.0247678273981
 31
0.0
  0
LINE
  5
954
330
B51
100
AcDbEntity
  8
0
100
AcDbLine
 10
205.3002564907279
 20
208.024767827398
 30
0.0
 11
205.3002564907279
 21
256.0247678273981
 31
0.0
  0
LINE
  5
955
330
B51
100
AcDbEntity
  8
0
100
AcDbLine
 10
179.8002564907279
 20
208.024767827398
 30
0.0
 11
205.3002564907279
 21
208.024767827398
 31
0.0
  0
LINE
  5
956
330
B51
100
AcDbEntity
  8
0
100
AcDbLine
 10
205.3002564907279
 20
256.0247678273981
 30
0.0
 11
179.8002564907279
 21
256.0247678273981
 31
0.0
  0
LINE
  5
957
330
B51
100
AcDbEntity
  8
0
100
AcDbLine
 10
296.7349303860044
 20
116.6309180382191
 30
0.0
 11
296.7349303860044
 21
170.7733402768058
 31
0.0
  0
LINE
  5
958
330
B51
100
AcDbEntity
  8
1
100
AcDbLine
 10
243.7349303860044
 20
135.4521291575121
 30
0.0
 11
301.7349303860044
 21
135.4521291575121
 31
0.0
  0
LINE
  5
959
330
B51
100
AcDbEntity
  8
0
100
AcDbLine
 10
170.3785686542409
 20
126.7900710879767
 30
0.0
 11
169.6568808177541
 21
125.9061876114936
 31
0.0
  0
LINE
  5
95A
330
B51
100
AcDbEntity
  8
0
100
AcDbLine
 10
170.3785686542409
 20
125.0223041350104
 30
0.0
 11
169.6568808177541
 21
125.9061876114936
 31
0.0
  0
LINE
  5
95B
330
B51
100
AcDbEntity
  8
0
100
AcDbLine
 10
171.8219443272152
 20
125.0223041350104
 30
0.0
 11
172.543632163702
 21
125.9061876114936
 31
0.0
  0
LINE
  5
95C
330
B51
100
AcDbEntity
  8
0
100
AcDbLine
 10
171.8219443272152
 20
126.7900710879767
 30
0.0
 11
172.543632163702
 21
125.9061876114936
 31
0.0
  0
LINE
  5
95D
330
B51
100
AcDbEntity
  8
0
100
AcDbLine
 10
170.3785686542409
 20
125.0223041350103
 30
0.0
 11
171.8219443272152
 21
125.0223041350103
 31
0.0
  0
LINE
  5
95E
330
B51
100
AcDbEntity
  8
0
100
AcDbLine
 10
170.3785686542409
 20
126.7900710879767
 30
0.0
 11
171.8219443272152
 21
126.7900710879767
 31
0.0
  0
POLYLINE
  5
95F
330
B51
100
AcDbEntity
  8
3
100
AcDb2dPolyline
 66
     1
 10
0.0
 20
0.0
 30
0.0
 70
     1
  0
VERTEX
  5
960
330
95F
100
AcDbEntity
  8
3
100
AcDbVertex
100
AcDb2dVertex
 10
169.0332564907274
 20
125.9061876114936
 30
0.0
 42
0.1332561510789112
  0
VERTEX
  5
961
330
95F
100
AcDbEntity
  8
3
100
AcDbVertex
100
AcDb2dVertex
 10
169.177292670934
 20
125.3753359414486
 30
0.0
 42
0.1067562697216285
  0
VERTEX
  5
962
330
95F
100
AcDbEntity
  8
3
100
AcDbVertex
100
AcDb2dVertex
 10
169.6386667740149
 20
124.8726876114934
 30
0.0
 42
0.0828275296409765
 70
     2
 50
324.7356103172502
  0
VERTEX
  5
963
330
95F
100
AcDbEntity
  8
3
100
AcDbVertex
100
AcDb2dVertex
 10
170.3498987484003
 20
124.5289462655324
 30
0.0
 42
0.0867079104441287
 50
324.7356103172502
  0
VERTEX
  5
964
330
95F
100
AcDbEntity
  8
3
100
AcDbVertex
100
AcDb2dVertex
 10
171.1002564907279
 20
124.4445978947808
 30
0.0
 42
0.0713517487530916
  0
VERTEX
  5
965
330
95F
100
AcDbEntity
  8
3
100
AcDbVertex
100
AcDb2dVertex
 10
171.9191057482227
 20
124.5620484972351
 30
0.0
 42
0.0828275296409883
  0
VERTEX
  5
966
330
95F
100
AcDbEntity
  8
3
100
AcDbVertex
100
AcDb2dVertex
 10
172.5618462074411
 20
124.8726876114934
 30
0.0
 42
0.1067562697216101
 70
     2
 50
35.26438968274903
  0
VERTEX
  5
967
330
95F
100
AcDbEntity
  8
3
100
AcDbVertex
100
AcDb2dVertex
 10
173.0232203105221
 20
125.3753359414486
 30
0.0
 42
0.1332561510788615
 50
35.26438968274903
  0
VERTEX
  5
968
330
95F
100
AcDbEntity
  8
3
100
AcDbVertex
100
AcDb2dVertex
 10
173.1672564907286
 20
125.9061876114935
 30
0.0
 42
0.1332561510788673
  0
VERTEX
  5
969
330
95F
100
AcDbEntity
  8
3
100
AcDbVertex
100
AcDb2dVertex
 10
173.0232203105221
 20
126.4370392815385
 30
0.0
 42
0.1067562697216111
  0
VERTEX
  5
96A
330
95F
100
AcDbEntity
  8
3
100
AcDbVertex
100
AcDb2dVertex
 10
172.5618462074411
 20
126.9396876114936
 30
0.0
 42
0.0828275296410134
 70
     2
 50
144.7356103172501
  0
VERTEX
  5
96B
330
95F
100
AcDbEntity
  8
3
100
AcDbVertex
100
AcDb2dVertex
 10
171.9191057482227
 20
127.2503267257519
 30
0.0
 42
0.0713517487531155
 50
144.7356103172501
  0
VERTEX
  5
96C
330
95F
100
AcDbEntity
  8
3
100
AcDbVertex
100
AcDb2dVertex
 10
171.1002564907279
 20
127.3677773282062
 30
0.0
 42
0.0713517487530977
  0
VERTEX
  5
96D
330
95F
100
AcDbEntity
  8
3
100
AcDbVertex
100
AcDb2dVertex
 10
170.2814072332331
 20
127.250326725752
 30
0.0
 42
0.0828275296409885
  0
VERTEX
  5
96E
330
95F
100
AcDbEntity
  8
3
100
AcDbVertex
100
AcDb2dVertex
 10
169.6386667740149
 20
126.9396876114937
 30
0.0
 42
0.1067562697216128
 70
     2
 50
215.264389682749
  0
VERTEX
  5
96F
330
95F
100
AcDbEntity
  8
3
100
AcDbVertex
100
AcDb2dVertex
 10
169.177292670934
 20
126.4370392815385
 30
0.0
 42
0.1332561510788984
 50
215.264389682749
  0
SEQEND
  5
970
330
95F
100
AcDbEntity
  8
3
  0
POLYLINE
  5
971
330
B51
100
AcDbEntity
  8
0
100
AcDb2dPolyline
 66
     1
 10
0.0
 20
0.0
 30
0.0
 70
     1
  0
VERTEX
  5
972
330
971
100
AcDbEntity
  8
0
100
AcDbVertex
100
AcDb2dVertex
 10
173.6002564907279
 20
125.9061876114936
 30
0.0
 42
0.1332561510788753
  0
VERTEX
  5
973
330
971
100
AcDbEntity
  8
0
100
AcDbVertex
100
AcDb2dVertex
 10
173.4260472742229
 20
126.5482433323993
 30
0.0
 42
0.1067562697216228
  0
VERTEX
  5
974
330
971
100
AcDbEntity
  8
0
100
AcDbVertex
100
AcDb2dVertex
 10
172.8680234436944
 20
127.1561876114936
 30
0.0
 42
0.0828275296410038
 70
     2
 50
144.7356103172451
  0
VERTEX
  5
975
330
971
100
AcDbEntity
  8
0
100
AcDbVertex
100
AcDb2dVertex
 10
172.0078009299244
 20
127.5719366994966
 30
0.0
 42
0.0867079104441661
 50
144.7356103172451
  0
VERTEX
  5
976
330
971
100
AcDbEntity
  8
0
100
AcDbVertex
100
AcDb2dVertex
 10
171.1002564907279
 20
127.67395456446
 30
0.0
 42
0.0713517487531113
  0
VERTEX
  5
977
330
971
100
AcDbEntity
  8
0
100
AcDbVertex
100
AcDb2dVertex
 10
170.1098727733907
 20
127.5319001347861
 30
0.0
 42
0.0828275296410024
  0
VERTEX
  5
978
330
971
100
AcDbEntity
  8
0
100
AcDbVertex
100
AcDb2dVertex
 10
169.3324895377617
 20
127.1561876114936
 30
0.0
 42
0.1067562697216169
 70
     2
 50
215.2643896827548
  0
VERTEX
  5
979
330
971
100
AcDbEntity
  8
0
100
AcDbVertex
100
AcDb2dVertex
 10
168.7744657072332
 20
126.5482433323993
 30
0.0
 42
0.1332561510788725
 50
215.2643896827548
  0
VERTEX
  5
97A
330
971
100
AcDbEntity
  8
0
100
AcDbVertex
100
AcDb2dVertex
 10
168.6002564907279
 20
125.9061876114936
 30
0.0
 42
0.1332561510788583
  0
VERTEX
  5
97B
330
971
100
AcDbEntity
  8
0
100
AcDbVertex
100
AcDb2dVertex
 10
168.7744657072332
 20
125.2641318905877
 30
0.0
 42
0.1067562697215875
  0
VERTEX
  5
97C
330
971
100
AcDbEntity
  8
0
100
AcDbVertex
100
AcDb2dVertex
 10
169.3324895377617
 20
124.6561876114935
 30
0.0
 42
0.0828275296410098
 70
     2
 50
324.7356103172451
  0
VERTEX
  5
97D
330
971
100
AcDbEntity
  8
0
100
AcDbVertex
100
AcDb2dVertex
 10
170.1098727733907
 20
124.2804750882009
 30
0.0
 42
0.0713517487531184
 50
324.7356103172451
  0
VERTEX
  5
97E
330
971
100
AcDbEntity
  8
0
100
AcDbVertex
100
AcDb2dVertex
 10
171.1002564907279
 20
124.1384206585272
 30
0.0
 42
0.0713517487531214
  0
VERTEX
  5
97F
330
971
100
AcDbEntity
  8
0
100
AcDbVertex
100
AcDb2dVertex
 10
172.0906402080653
 20
124.2804750882009
 30
0.0
 42
0.0828275296410031
  0
VERTEX
  5
980
330
971
100
AcDbEntity
  8
0
100
AcDbVertex
100
AcDb2dVertex
 10
172.8680234436944
 20
124.6561876114935
 30
0.0
 42
0.1067562697216167
 70
     2
 50
35.26438968275492
  0
VERTEX
  5
981
330
971
100
AcDbEntity
  8
0
100
AcDbVertex
100
AcDb2dVertex
 10
173.4260472742229
 20
125.2641318905877
 30
0.0
 42
0.1332561510788725
 50
35.26438968275492
  0
SEQEND
  5
982
330
971
100
AcDbEntity
  8
0
  0
LINE
  5
983
330
B51
100
AcDbEntity
  8
1
100
AcDbLine
 10
171.1002564907279
 20
121.6384206585269
 30
0.0
 11
171.1002564907279
 21
130.1763535318882
 31
0.0
  0
LINE
  5
988
330
B51
100
AcDbEntity
  8
0
100
AcDbLine
 10
114.4977245067276
 20
127.67395456446
 30
0.0
 11
110.9621906007949
 21
124.1384206585272
 31
0.0
  0
LINE
  5
989
330
B51
100
AcDbEntity
  8
1
100
AcDbLine
 10
106.0124431324889
 20
132.6237020327659
 30
0.0
 11
118.7403651938468
 21
119.8957799714081
 31
0.0
  0
CIRCLE
  5
98A
330
B51
100
AcDbEntity
  8
0
100
AcDbCircle
 10
103.1840160077427
 20
135.4521291575121
 30
0.0
 40
13.5
  0
CIRCLE
  5
98B
330
B51
100
AcDbEntity
  8
0
100
AcDbCircle
 10
103.1840160077427
 20
135.4521291575121
 30
0.0
 40
10.0
  0
LINE
  5
98C
330
B51
100
AcDbEntity
  8
0
100
AcDbLine
 10
175.8002564907279
 20
168.4790345314017
 30
0.0
 11
175.8002564907279
 21
113.9521291575124
 31
0.0
  0
LINE
  5
98D
330
B51
100
AcDbEntity
  8
0
100
AcDbLine
 10
166.8002564907279
 20
148.9521291575121
 30
0.0
 11
175.3002564907279
 21
148.9521291575121
 31
0.0
  0
LINE
  5
98E
330
B51
100
AcDbEntity
  8
0
100
AcDbLine
 10
166.8002564907279
 20
121.9521291575121
 30
0.0
 11
166.8002564907279
 21
148.9521291575121
 31
0.0
  0
LINE
  5
98F
330
B51
100
AcDbEntity
  8
0
100
AcDbLine
 10
192.7584137579445
 20
177.4521291575124
 30
0.0
 11
178.4321759174253
 21
172.2378050145453
 31
0.0
  0
LINE
  5
990
330
B51
100
AcDbEntity
  8
0
100
AcDbLine
 10
205.3002564907279
 20
177.4521291575124
 30
0.0
 11
192.7584137579447
 21
177.4521291575124
 31
0.0
  0
LINE
  5
991
330
B51
100
AcDbEntity
  8
0
100
AcDbLine
 10
205.3002564907279
 20
109.9521291575124
 30
0.0
 11
179.8002564907279
 21
109.9521291575124
 31
0.0
  0
LINE
  5
992
330
B51
100
AcDbEntity
  8
0
100
AcDbLine
 10
205.300256490728
 20
177.4521291575124
 30
0.0
 11
205.3002564907279
 21
109.9521291575124
 31
0.0
  0
LINE
  5
993
330
B51
100
AcDbEntity
  8
1
100
AcDbLine
 10
272.7349303860044
 20
181.9521291575124
 30
0.0
 11
272.7349303860044
 21
104.9521291575124
 31
0.0
  0
CIRCLE
  5
994
330
B51
100
AcDbEntity
  8
0
100
AcDbCircle
 10
272.7349303860044
 20
135.4521291575121
 30
0.0
 40
20.0
  0
CIRCLE
  5
995
330
B51
100
AcDbEntity
  8
0
100
AcDbCircle
 10
272.7349303860044
 20
165.4521291575121
 30
0.0
 40
3.0
  0
LINE
  5
996
330
B51
100
AcDbEntity
  8
1
100
AcDbLine
 10
264.7349303860043
 20
165.4521291575121
 30
0.0
 11
280.7349303860044
 21
165.4521291575121
 31
0.0
  0
LINE
  5
997
330
B51
100
AcDbEntity
  8
1
100
AcDbLine
 10
200.8002564907279
 20
165.4521291575121
 30
0.0
 11
216.3002564907279
 21
165.4521291575121
 31
0.0
  0
LINE
  5
998
330
B51
100
AcDbEntity
  8
2
100
AcDbLine
 10
205.3002564907279
 20
115.4521291575121
 30
0.0
 11
203.3002564907279
 21
115.4521291575121
 31
0.0
  0
LINE
  5
999
330
B51
100
AcDbEntity
  8
2
100
AcDbLine
 10
203.3002564907279
 20
155.4521291575121
 30
0.0
 11
205.3002564907279
 21
155.4521291575121
 31
0.0
  0
LINE
  5
99A
330
B51
100
AcDbEntity
  8
2
100
AcDbLine
 10
166.8002564907279
 20
125.4521291575121
 30
0.0
 11
203.3002564907279
 21
125.4521291575122
 31
0.0
  0
LINE
  5
99B
330
B51
100
AcDbEntity
  8
2
100
AcDbLine
 10
203.3002564907279
 20
145.4521291575121
 30
0.0
 11
166.8002564907279
 21
145.4521291575121
 31
0.0
  0
LINE
  5
99C
330
B51
100
AcDbEntity
  8
0
100
AcDbLine
 10
175.8002564907279
 20
154.4521291575121
 30
0.0
 11
175.3002564907279
 21
154.4521291575121
 31
0.0
  0
LINE
  5
99D
330
B51
100
AcDbEntity
  8
0
100
AcDbLine
 10
175.3002564907279
 20
154.4521291575121
 30
0.0
 11
175.3002564907279
 21
116.4521291575121
 31
0.0
  0
LINE
  5
99E
330
B51
100
AcDbEntity
  8
0
100
AcDbLine
 10
175.3002564907279
 20
116.4521291575121
 30
0.0
 11
175.8002564907279
 21
116.4521291575121
 31
0.0
  0
ARC
  5
99F
330
B51
100
AcDbEntity
  8
0
100
AcDbCircle
 10
272.7349303860044
 20
189.9521291575124
 30
0.0
 40
80.0
100
AcDbArc
 50
254.7424767095436
 51
285.2575232904563
  0
ARC
  5
9A0
330
B51
100
AcDbEntity
  8
0
100
AcDbCircle
 10
272.7349303860044
 20
97.45212915751251
 30
0.0
 40
80.0
100
AcDbArc
 50
74.74247670954365
 51
105.2575232904563
  0
CIRCLE
  5
9A1
330
B51
100
AcDbEntity
  8
0
100
AcDbCircle
 10
272.7349303860044
 20
165.4521291575121
 30
0.0
 40
1.5
  0
LINE
  5
9A2
330
B51
100
AcDbEntity
  8
0
100
AcDbLine
 10
248.7349303860044
 20
116.630918038219
 30
0.0
 11
248.7349303860044
 21
170.7733402768059
 31
0.0
  0
ARC
  5
9A3
330
B51
100
AcDbEntity
  8
0
100
AcDbCircle
 10
157.3235056430479
 20
232.0247678273982
 30
0.0
 40
37.07923758464026
100
AcDbArc
 50
319.664477367864
 51
40.33552263213532
  0
LINE
  5
9A4
330
B51
100
AcDbEntity
  8
0
100
AcDbLine
 10
166.8002564907279
 20
218.5247678273982
 30
0.0
 11
166.8002564907279
 21
245.5247678273982
 31
0.0
  0
LINE
  5
9A5
330
B51
100
AcDbEntity
  8
0
100
AcDbLine
 10
166.8002564907279
 20
245.5247678273982
 30
0.0
 11
175.3002564907279
 21
245.5247678273982
 31
0.0
  0
LINE
  5
9A6
330
B51
100
AcDbEntity
  8
0
100
AcDbLine
 10
166.8002564907279
 20
218.5247678273982
 30
0.0
 11
175.3002564907279
 21
218.5247678273982
 31
0.0
  0
LINE
  5
9A7
330
B51
100
AcDbEntity
  8
1
100
AcDbLine
 10
103.1840160077427
 20
181.9521291575125
 30
0.0
 11
103.1840160077427
 21
104.9521291575124
 31
0.0
  0
ARC
  5
9A8
330
B51
100
AcDbEntity
  8
0
100
AcDbCircle
 10
103.1840160077427
 20
97.45212915751251
 30
0.0
 40
80.0
100
AcDbArc
 50
74.74247670954366
 51
77.36437490697888
  0
LINE
  5
9A9
330
B51
100
AcDbEntity
  8
0
100
AcDbLine
 10
79.1840160077428
 20
116.630918038219
 30
0.0
 11
79.18401600774278
 21
170.7733402768059
 31
0.0
  0
LINE
  5
9AA
330
B51
100
AcDbEntity
  8
1
100
AcDbLine
 10
74.1840160077428
 20
135.4521291575121
 30
0.0
 11
132.1840160077426
 21
135.4521291575121
 31
0.0
  0
ARC
  5
9AB
330
B51
100
AcDbEntity
  8
0
100
AcDbCircle
 10
103.1840160077427
 20
189.9521291575124
 30
0.0
 40
80.0
100
AcDbArc
 50
254.7424767095436
 51
285.2575232904563
  0
LINE
  5
9AC
330
B51
100
AcDbEntity
  8
0
100
AcDbLine
 10
127.1840160077426
 20
116.6309180382189
 30
0.0
 11
127.1840160077426
 21
170.7733402768059
 31
0.0
  0
ARC
  5
9AD
330
B51
100
AcDbEntity
  8
0
100
AcDbCircle
 10
83.18401600774279
 20
170.7733402768059
 30
0.0
 40
4.0
100
AcDbArc
 50
105.2575232904561
 51
180.0
  0
ARC
  5
9AE
330
B51
100
AcDbEntity
  8
0
100
AcDbCircle
 10
83.18401600774279
 20
116.6309180382189
 30
0.0
 40
4.0
100
AcDbArc
 50
179.9999999999998
 51
254.7424767095438
  0
ARC
  5
9AF
330
B51
100
AcDbEntity
  8
0
100
AcDbCircle
 10
123.1840160077426
 20
116.6309180382189
 30
0.0
 40
4.0
100
AcDbArc
 50
285.2575232904568
 51
0.0
  0
ARC
  5
9B0
330
B51
100
AcDbEntity
  8
0
100
AcDbCircle
 10
123.1840160077426
 20
170.7733402768059
 30
0.0
 40
4.0
100
AcDbArc
 50
0.0
 51
74.74247670954366
  0
ARC
  5
9B1
330
B51
100
AcDbEntity
  8
0
100
AcDbCircle
 10
292.7349303860044
 20
116.6309180382191
 30
0.0
 40
4.0
100
AcDbArc
 50
285.2575232904562
 51
0.0
  0
ARC
  5
9B2
330
B51
100
AcDbEntity
  8
0
100
AcDbCircle
 10
292.7349303860044
 20
170.7733402768058
 30
0.0
 40
4.0
100
AcDbArc
 50
0.0
 51
74.74247670954381
  0
ARC
  5
9B3
330
B51
100
AcDbEntity
  8
0
100
AcDbCircle
 10
252.7349303860044
 20
170.7733402768059
 30
0.0
 40
4.0
100
AcDbArc
 50
105.2575232904558
 51
180.0
  0
ARC
  5
9B4
330
B51
100
AcDbEntity
  8
0
100
AcDbCircle
 10
252.7349303860044
 20
116.630918038219
 30
0.0
 40
4.0
100
AcDbArc
 50
180.0000000000002
 51
254.7424767095442
  0
ARC
  5
9B5
330
B51
100
AcDbEntity
  8
0
100
AcDbCircle
 10
179.8002564907279
 20
168.4790345314017
 30
0.0
 40
4.0
100
AcDbArc
 50
109.9999999999998
 51
180.0
  0
ARC
  5
9B6
330
B51
100
AcDbEntity
  8
0
100
AcDbCircle
 10
179.8002564907279
 20
113.9521291575124
 30
0.0
 40
4.0
100
AcDbArc
 50
180.0
 51
269.9999999999999
  0
ARC
  5
9B7
330
B51
100
AcDbEntity
  8
0
100
AcDbCircle
 10
179.8002564907279
 20
252.0247678273981
 30
0.0
 40
4.0
100
AcDbArc
 50
90.0
 51
179.9999999999999
  0
ARC
  5
9B8
330
B51
100
AcDbEntity
  8
0
100
AcDbCircle
 10
179.8002564907279
 20
212.024767827398
 30
0.0
 40
4.0
100
AcDbArc
 50
179.9999999999999
 51
269.9999999999998
  0
CIRCLE
  5
9B9
330
B51
100
AcDbEntity
  8
0
100
AcDbCircle
 10
272.7349303860044
 20
135.4521291575121
 30
0.0
 40
10.0
  0
LINE
  5
9BA
330
B51
100
AcDbEntity
  8
0
100
AcDbLine
 10
166.8002564907279
 20
121.9521291575121
 30
0.0
 11
175.3002564907279
 21
121.9521291575121
 31
0.0
  0
LINE
  5
9BB
330
B51
100
AcDbEntity
  8
0
100
AcDbLine
 10
178.800256490729
 20
228.7747678273982
 30
0.0
 11
189.8002564907291
 21
228.7747678273983
 31
0.0
  0
ARC
  5
9BD
330
B51
100
AcDbEntity
  8
0
100
AcDbCircle
 10
179.8002564907279
 20
36.10260466609038
 30
0.0
 40
4.0
100
AcDbArc
 50
179.9999999999999
 51
269.9999999999998
  0
ARC
  5
9BE
330
B51
100
AcDbEntity
  8
0
100
AcDbCircle
 10
179.8002564907279
 20
76.10260466609047
 30
0.0
 40
4.0
100
AcDbArc
 50
90.0
 51
179.9999999999999
  0
LINE
  5
9BF
330
B51
100
AcDbEntity
  8
0
100
AcDbLine
 10
166.8002564907279
 20
42.60260466609055
 30
0.0
 11
174.8002564907279
 21
42.60260466609055
 31
0.0
  0
LINE
  5
9C0
330
B51
100
AcDbEntity
  8
0
100
AcDbLine
 10
166.8002564907279
 20
69.60260466609058
 30
0.0
 11
174.8002564907279
 21
69.60260466609058
 31
0.0
  0
LINE
  5
9C1
330
B51
100
AcDbEntity
  8
0
100
AcDbLine
 10
166.8002564907279
 20
42.60260466609055
 30
0.0
 11
166.8002564907279
 21
69.60260466609058
 31
0.0
  0
LINE
  5
9C2
330
B51
100
AcDbEntity
  8
0
100
AcDbLine
 10
205.3002564907279
 20
80.10260466609047
 30
0.0
 11
179.8002564907279
 21
80.10260466609047
 31
0.0
  0
LINE
  5
9C3
330
B51
100
AcDbEntity
  8
0
100
AcDbLine
 10
179.8002564907279
 20
32.10260466609038
 30
0.0
 11
205.3002564907279
 21
32.10260466609038
 31
0.0
  0
LINE
  5
9C4
330
B51
100
AcDbEntity
  8
0
100
AcDbLine
 10
205.3002564907279
 20
32.10260466609038
 30
0.0
 11
205.3002564907279
 21
80.10260466609047
 31
0.0
  0
LINE
  5
9C5
330
B51
100
AcDbEntity
  8
0
100
AcDbLine
 10
175.8002564907279
 20
36.10260466609038
 30
0.0
 11
175.8002564907279
 21
76.10260466609047
 31
0.0
  0
LINE
  5
9C6
330
B51
100
AcDbEntity
  8
1
100
AcDbLine
 10
216.3002564907279
 20
56.10260466609076
 30
0.0
 11
161.8002564907279
 21
56.10260466609076
 31
0.0
  0
LINE
  5
9C7
330
B51
100
AcDbEntity
  8
0
100
AcDbLine
 10
200.3002564907279
 20
32.10260466609038
 30
0.0
 11
200.3002564907279
 21
80.10260466609047
 31
0.0
  0
LINE
  5
9C8
330
B51
100
AcDbEntity
  8
0
100
AcDbLine
 10
175.8002564907279
 20
75.10260466609075
 30
0.0
 11
175.3002564907279
 21
75.10260466609075
 31
0.0
  0
LINE
  5
9C9
330
B51
100
AcDbEntity
  8
0
100
AcDbLine
 10
175.3002564907279
 20
75.10260466609075
 30
0.0
 11
175.3002564907279
 21
37.10260466609075
 31
0.0
  0
LINE
  5
9CA
330
B51
100
AcDbEntity
  8
0
100
AcDbLine
 10
175.3002564907279
 20
37.10260466609075
 30
0.0
 11
175.8002564907279
 21
37.10260466609075
 31
0.0
  0
POLYLINE
  5
9CB
330
B51
100
AcDbEntity
  8
0
100
AcDb2dPolyline
 66
     1
 10
0.0
 20
0.0
 30
0.0
 70
     1
  0
VERTEX
  5
9CC
330
9CB
100
AcDbEntity
  8
0
100
AcDbVertex
100
AcDb2dVertex
 10
173.6002564907278
 20
65.64854811945803
 30
0.0
 42
-0.1332561510788753
  0
VERTEX
  5
9CD
330
9CB
100
AcDbEntity
  8
0
100
AcDbVertex
100
AcDb2dVertex
 10
173.4260472742228
 20
65.00649239855225
 30
0.0
 42
-0.1067562697216228
  0
VERTEX
  5
9CE
330
9CB
100
AcDbEntity
  8
0
100
AcDbVertex
100
AcDb2dVertex
 10
172.8680234436942
 20
64.39854811945803
 30
0.0
 42
-0.0828275296410038
 70
     2
 50
215.2643896827548
  0
VERTEX
  5
9CF
330
9CB
100
AcDbEntity
  8
0
100
AcDbVertex
100
AcDb2dVertex
 10
172.0078009299243
 20
63.98279903145497
 30
0.0
 42
-0.0867079104441661
  0
VERTEX
  5
9D0
330
9CB
100
AcDbEntity
  8
0
100
AcDbVertex
100
AcDb2dVertex
 10
171.1002564907278
 20
63.88078116649165
 30
0.0
 42
-0.0713517487531113
  0
VERTEX
  5
9D1
330
9CB
100
AcDbEntity
  8
0
100
AcDbVertex
100
AcDb2dVertex
 10
170.1098727733906
 20
64.02283559616545
 30
0.0
 42
-0.0828275296410024
  0
VERTEX
  5
9D2
330
9CB
100
AcDbEntity
  8
0
100
AcDbVertex
100
AcDb2dVertex
 10
169.3324895377616
 20
64.39854811945803
 30
0.0
 42
-0.1067562697216169
 70
     2
 50
144.735610317245
  0
VERTEX
  5
9D3
330
9CB
100
AcDbEntity
  8
0
100
AcDbVertex
100
AcDb2dVertex
 10
168.774465707233
 20
65.00649239855225
 30
0.0
 42
-0.1332561510788725
  0
VERTEX
  5
9D4
330
9CB
100
AcDbEntity
  8
0
100
AcDbVertex
100
AcDb2dVertex
 10
168.6002564907278
 20
65.64854811945803
 30
0.0
 42
-0.1332561510788583
  0
VERTEX
  5
9D5
330
9CB
100
AcDbEntity
  8
0
100
AcDbVertex
100
AcDb2dVertex
 10
168.774465707233
 20
66.29060384036391
 30
0.0
 42
-0.1067562697215875
  0
VERTEX
  5
9D6
330
9CB
100
AcDbEntity
  8
0
100
AcDbVertex
100
AcDb2dVertex
 10
169.3324895377616
 20
66.89854811945808
 30
0.0
 42
-0.0828275296410098
 70
     2
 50
35.26438968275488
  0
VERTEX
  5
9D7
330
9CB
100
AcDbEntity
  8
0
100
AcDbVertex
100
AcDb2dVertex
 10
170.1098727733906
 20
67.27426064275066
 30
0.0
 42
-0.0713517487531184
  0
VERTEX
  5
9D8
330
9CB
100
AcDbEntity
  8
0
100
AcDbVertex
100
AcDb2dVertex
 10
171.1002564907278
 20
67.41631507242441
 30
0.0
 42
-0.0713517487531214
  0
VERTEX
  5
9D9
330
9CB
100
AcDbEntity
  8
0
100
AcDbVertex
100
AcDb2dVertex
 10
172.0906402080652
 20
67.27426064275066
 30
0.0
 42
-0.0828275296410031
  0
VERTEX
  5
9DA
330
9CB
100
AcDbEntity
  8
0
100
AcDbVertex
100
AcDb2dVertex
 10
172.8680234436942
 20
66.89854811945808
 30
0.0
 42
-0.1067562697216167
 70
     2
 50
324.735610317245
  0
VERTEX
  5
9DB
330
9CB
100
AcDbEntity
  8
0
100
AcDbVertex
100
AcDb2dVertex
 10
173.4260472742228
 20
66.29060384036385
 30
0.0
 42
-0.1332561510788725
  0
SEQEND
  5
9DC
330
9CB
100
AcDbEntity
  8
0
  0
POLYLINE
  5
9DD
330
B51
100
AcDbEntity
  8
3
100
AcDb2dPolyline
 66
     1
 10
0.0
 20
0.0
 30
0.0
 70
     1
  0
VERTEX
  5
9DE
330
9DD
100
AcDbEntity
  8
3
100
AcDbVertex
100
AcDb2dVertex
 10
169.0332564907273
 20
65.64854811945803
 30
0.0
 42
-0.1332561510789112
  0
VERTEX
  5
9DF
330
9DD
100
AcDbEntity
  8
3
100
AcDbVertex
100
AcDb2dVertex
 10
169.1772926709338
 20
66.179399789503
 30
0.0
 42
-0.1067562697216285
  0
VERTEX
  5
9E0
330
9DD
100
AcDbEntity
  8
3
100
AcDbVertex
100
AcDb2dVertex
 10
169.6386667740148
 20
66.68204811945814
 30
0.0
 42
-0.0828275296409765
 70
     2
 50
35.26438968274979
  0
VERTEX
  5
9E1
330
9DD
100
AcDbEntity
  8
3
100
AcDbVertex
100
AcDb2dVertex
 10
170.3498987484001
 20
67.02578946541915
 30
0.0
 42
-0.0867079104441287
  0
VERTEX
  5
9E2
330
9DD
100
AcDbEntity
  8
3
100
AcDbVertex
100
AcDb2dVertex
 10
171.1002564907278
 20
67.11013783617078
 30
0.0
 42
-0.0713517487530916
  0
VERTEX
  5
9E3
330
9DD
100
AcDbEntity
  8
3
100
AcDbVertex
100
AcDb2dVertex
 10
171.9191057482226
 20
66.99268723371652
 30
0.0
 42
-0.0828275296409883
  0
VERTEX
  5
9E4
330
9DD
100
AcDbEntity
  8
3
100
AcDbVertex
100
AcDb2dVertex
 10
172.561846207441
 20
66.68204811945814
 30
0.0
 42
-0.1067562697216101
 70
     2
 50
324.735610317251
  0
VERTEX
  5
9E5
330
9DD
100
AcDbEntity
  8
3
100
AcDbVertex
100
AcDb2dVertex
 10
173.023220310522
 20
66.179399789503
 30
0.0
 42
-0.1332561510788615
  0
VERTEX
  5
9E6
330
9DD
100
AcDbEntity
  8
3
100
AcDbVertex
100
AcDb2dVertex
 10
173.1672564907285
 20
65.64854811945808
 30
0.0
 42
-0.1332561510788673
  0
VERTEX
  5
9E7
330
9DD
100
AcDbEntity
  8
3
100
AcDbVertex
100
AcDb2dVertex
 10
173.023220310522
 20
65.11769644941312
 30
0.0
 42
-0.1067562697216111
  0
VERTEX
  5
9E8
330
9DD
100
AcDbEntity
  8
3
100
AcDbVertex
100
AcDb2dVertex
 10
172.561846207441
 20
64.61504811945797
 30
0.0
 42
-0.0828275296410134
 70
     2
 50
215.2643896827498
  0
VERTEX
  5
9E9
330
9DD
100
AcDbEntity
  8
3
100
AcDbVertex
100
AcDb2dVertex
 10
171.9191057482226
 20
64.30440900519965
 30
0.0
 42
-0.0713517487531155
  0
VERTEX
  5
9EA
330
9DD
100
AcDbEntity
  8
3
100
AcDbVertex
100
AcDb2dVertex
 10
171.1002564907278
 20
64.18695840274533
 30
0.0
 42
-0.0713517487530977
  0
VERTEX
  5
9EB
330
9DD
100
AcDbEntity
  8
3
100
AcDbVertex
100
AcDb2dVertex
 10
170.281407233233
 20
64.30440900519958
 30
0.0
 42
-0.0828275296409885
  0
VERTEX
  5
9EC
330
9DD
100
AcDbEntity
  8
3
100
AcDbVertex
100
AcDb2dVertex
 10
169.6386667740148
 20
64.61504811945791
 30
0.0
 42
-0.1067562697216128
 70
     2
 50
144.7356103172509
  0
VERTEX
  5
9ED
330
9DD
100
AcDbEntity
  8
3
100
AcDbVertex
100
AcDb2dVertex
 10
169.1772926709338
 20
65.11769644941306
 30
0.0
 42
-0.1332561510788984
  0
SEQEND
  5
9EE
330
9DD
100
AcDbEntity
  8
3
  0
LINE
  5
9EF
330
B51
100
AcDbEntity
  8
0
100
AcDbLine
 10
170.3785686542408
 20
64.76466464297486
 30
0.0
 11
171.8219443272151
 21
64.76466464297486
 31
0.0
  0
LINE
  5
9F0
330
B51
100
AcDbEntity
  8
0
100
AcDbLine
 10
170.3785686542408
 20
66.53243159594125
 30
0.0
 11
171.8219443272151
 21
66.53243159594125
 31
0.0
  0
LINE
  5
9F1
330
B51
100
AcDbEntity
  8
0
100
AcDbLine
 10
171.8219443272151
 20
64.76466464297486
 30
0.0
 11
172.5436321637019
 21
65.64854811945803
 31
0.0
  0
LINE
  5
9F2
330
B51
100
AcDbEntity
  8
0
100
AcDbLine
 10
171.8219443272151
 20
66.53243159594119
 30
0.0
 11
172.5436321637019
 21
65.64854811945803
 31
0.0
  0
LINE
  5
9F3
330
B51
100
AcDbEntity
  8
0
100
AcDbLine
 10
170.3785686542408
 20
66.53243159594119
 30
0.0
 11
169.656880817754
 21
65.64854811945803
 31
0.0
  0
LINE
  5
9F4
330
B51
100
AcDbEntity
  8
0
100
AcDbLine
 10
170.3785686542408
 20
64.76466464297486
 30
0.0
 11
169.656880817754
 21
65.64854811945803
 31
0.0
  0
LINE
  5
9F5
330
B51
100
AcDbEntity
  8
1
100
AcDbLine
 10
171.1002564907281
 20
61.38078116649165
 30
0.0
 11
171.1002564907279
 21
69.91631507242441
 31
0.0
  0
LINE
  5
9F6
330
B51
100
AcDbEntity
  8
0
100
AcDbLine
 10
120.6840160077427
 20
157.4521291575121
 30
0.0
 11
85.68401600774274
 21
157.4521291575121
 31
0.0
  0
LINE
  5
9F7
330
B51
100
AcDbEntity
  8
0
100
AcDbLine
 10
120.6840160077427
 20
168.4521291575121
 30
0.0
 11
120.6840160077427
 21
157.4521291575121
 31
0.0
  0
LINE
  5
9F8
330
B51
100
AcDbEntity
  8
0
100
AcDbLine
 10
85.68401600774274
 20
168.4521291575121
 30
0.0
 11
85.68401600774274
 21
157.4521291575121
 31
0.0
  0
LINE
  5
9F9
330
B51
100
AcDbEntity
  8
0
100
AcDbLine
 10
120.6840160077427
 20
168.4521291575121
 30
0.0
 11
85.68401600774274
 21
168.4521291575121
 31
0.0
  0
LINE
  5
9FA
330
B51
100
AcDbEntity
  8
0
100
AcDbLine
 10
81.1840160077428
 20
170.7733402768058
 30
0.0
 11
125.1840160077426
 21
170.7733402768059
 31
0.0
  0
LINE
  5
9FB
330
B51
100
AcDbEntity
  8
0
100
AcDbLine
 10
211.3002564907279
 20
53.60260466608941
 30
0.0
 11
211.3002564907279
 21
58.60260466609061
 31
0.0
  0
LINE
  5
9FC
330
B51
100
AcDbEntity
  8
0
100
AcDbLine
 10
210.8002564907278
 20
53.10260466608942
 30
0.0
 11
205.3002564907279
 21
53.10260466608939
 31
0.0
  0
ARC
  5
9FD
330
B51
100
AcDbEntity
  8
0
100
AcDbCircle
 10
210.8002564907279
 20
53.60260466608941
 30
0.0
 40
0.5
100
AcDbArc
 50
270.0
 51
0.0
  0
LINE
  5
9FE
330
B51
100
AcDbEntity
  8
0
100
AcDbLine
 10
210.8002564907278
 20
59.10260466609061
 30
0.0
 11
205.3002564907279
 21
59.10260466609061
 31
0.0
  0
ARC
  5
9FF
330
B51
100
AcDbEntity
  8
0
100
AcDbCircle
 10
210.8002564907279
 20
58.60260466609061
 30
0.0
 40
0.5
100
AcDbArc
 50
0.0
 51
90.0
  0
LINE
  5
A00
330
B51
100
AcDbEntity
  8
0
100
AcDbLine
 10
211.3002564907279
 20
229.5247678273971
 30
0.0
 11
211.3002564907279
 21
234.5247678273983
 31
0.0
  0
LINE
  5
A01
330
B51
100
AcDbEntity
  8
0
100
AcDbLine
 10
210.8002564907278
 20
229.0247678273971
 30
0.0
 11
205.3002564907279
 21
229.024767827397
 31
0.0
  0
ARC
  5
A02
330
B51
100
AcDbEntity
  8
0
100
AcDbCircle
 10
210.8002564907279
 20
229.5247678273971
 30
0.0
 40
0.5
100
AcDbArc
 50
270.0
 51
0.0
  0
LINE
  5
A03
330
B51
100
AcDbEntity
  8
0
100
AcDbLine
 10
210.8002564907278
 20
235.0247678273983
 30
0.0
 11
205.3002564907279
 21
235.0247678273983
 31
0.0
  0
ARC
  5
A04
330
B51
100
AcDbEntity
  8
0
100
AcDbCircle
 10
210.8002564907279
 20
234.5247678273983
 30
0.0
 40
0.5
100
AcDbArc
 50
0.0
 51
90.0
  0
CIRCLE
  5
A05
330
B51
100
AcDbEntity
  8
0
100
AcDbCircle
 10
290.9849303860044
 20
153.7021291575121
 30
0.0
 40
1.25
  0
CIRCLE
  5
A06
330
B51
100
AcDbEntity
  8
0
100
AcDbCircle
 10
254.4849303860043
 20
153.7021291575121
 30
0.0
 40
1.25
  0
CIRCLE
  5
A07
330
B51
100
AcDbEntity
  8
0
100
AcDbCircle
 10
290.9849303860044
 20
117.2021291575121
 30
0.0
 40
1.25
  0
CIRCLE
  5
A08
330
B51
100
AcDbEntity
  8
0
100
AcDbCircle
 10
254.4349303860044
 20
117.1521291575121
 30
0.0
 40
1.25
  0
LINE
  5
A09
330
B51
100
AcDbEntity
  8
1
100
AcDbLine
 10
258.2349303860044
 20
153.7021291575121
 30
0.0
 11
250.7349303860044
 21
153.7021291575121
 31
0.0
  0
LINE
  5
A0A
330
B51
100
AcDbEntity
  8
1
100
AcDbLine
 10
254.4849303860043
 20
157.4521291575121
 30
0.0
 11
254.4849303860043
 21
149.9521291575121
 31
0.0
  0
LINE
  5
A0B
330
B51
100
AcDbEntity
  8
1
100
AcDbLine
 10
258.1849303860044
 20
117.1521291575121
 30
0.0
 11
250.6849303860044
 21
117.1521291575121
 31
0.0
  0
LINE
  5
A0C
330
B51
100
AcDbEntity
  8
1
100
AcDbLine
 10
254.4349303860044
 20
120.9021291575121
 30
0.0
 11
254.4349303860044
 21
113.4021291575121
 31
0.0
  0
LINE
  5
A0D
330
B51
100
AcDbEntity
  8
1
100
AcDbLine
 10
294.7349303860044
 20
117.2021291575121
 30
0.0
 11
287.2349303860044
 21
117.2021291575121
 31
0.0
  0
LINE
  5
A0E
330
B51
100
AcDbEntity
  8
1
100
AcDbLine
 10
290.9849303860044
 20
120.9521291575121
 30
0.0
 11
290.9849303860044
 21
113.4521291575121
 31
0.0
  0
LINE
  5
A0F
330
B51
100
AcDbEntity
  8
1
100
AcDbLine
 10
294.7349303860044
 20
153.7021291575121
 30
0.0
 11
287.2349303860044
 21
153.7021291575121
 31
0.0
  0
LINE
  5
A10
330
B51
100
AcDbEntity
  8
1
100
AcDbLine
 10
290.9849303860044
 20
157.4521291575121
 30
0.0
 11
290.9849303860044
 21
149.9521291575121
 31
0.0
  0
LINE
  5
A11
330
B51
100
AcDbEntity
  8
0
100
AcDbLine
 10
189.8002564907291
 20
214.5247678273984
 30
0.0
 11
189.8002564907291
 21
249.5247678273984
 31
0.0
  0
LINE
  5
A12
330
B51
100
AcDbEntity
  8
0
100
AcDbLine
 10
189.8002564907291
 20
249.5247678273984
 30
0.0
 11
178.8002564907291
 21
249.5247678273984
 31
0.0
  0
LINE
  5
A13
330
B51
100
AcDbEntity
  8
0
100
AcDbLine
 10
189.8002564907291
 20
214.5247678273984
 30
0.0
 11
178.8002564907291
 21
214.5247678273984
 31
0.0
  0
TEXT
  5
A14
330
B51
100
AcDbEntity
  8
0
100
AcDbText
 10
181.0502564907293
 20
248.7504872518587
 30
0.0
 40
6.4
  1
0
 50
270.0
 41
0.8349999999999999
100
AcDbText
  0
POLYLINE
  5
A15
330
B51
100
AcDbEntity
  8
3
  6
Continuous
100
AcDb3dPolyline
 66
     1
 10
0.0
 20
0.0
 30
0.0
 70
     8
  0
VERTEX
  5
A82
330
A15
100
AcDbEntity
  8
3
  6
Continuous
100
AcDbVertex
100
AcDb3dPolylineVertex
 10
107.1461287462083
 20
165.7264303642224
 30
0.0
 70
    32
1001
ACAD
1000
R13OBJECT
1002
{
1005
A15
1002
}
  0
VERTEX
  5
A83
330
A15
100
AcDbEntity
  8
3
  6
Continuous
100
AcDbVertex
100
AcDb3dPolylineVertex
 10
105.7365431771384
 20
166.4952691049792
 30
0.0
 70
    32
1001
ACAD
1000
R13OBJECT
1002
{
1005
A15
1002
}
  0
VERTEX
  5
A84
330
A15
100
AcDbEntity
  8
3
  6
Continuous
100
AcDbVertex
100
AcDb3dPolylineVertex
 10
104.0649962160499
 20
166.9004815996048
 30
0.0
 70
    32
1001
ACAD
1000
R13OBJECT
1002
{
1005
A15
1002
}
  0
VERTEX
  5
A85
330
A15
100
AcDbEntity
  8
3
  6
Continuous
100
AcDbVertex
100
AcDb3dPolylineVertex
 10
102.3030357994355
 20
166.9004815996048
 30
0.0
 70
    32
1001
ACAD
1000
R13OBJECT
1002
{
1005
A15
1002
}
  0
VERTEX
  5
A86
330
A15
100
AcDbEntity
  8
3
  6
Continuous
100
AcDbVertex
100
AcDb3dPolylineVertex
 10
100.631488838347
 20
166.4952691049792
 30
0.0
 70
    32
1001
ACAD
1000
R13OBJECT
1002
{
1005
A15
1002
}
  0
VERTEX
  5
A87
330
A15
100
AcDbEntity
  8
3
  6
Continuous
100
AcDbVertex
100
AcDb3dPolylineVertex
 10
99.22190326927717
 20
165.7264303642224
 30
0.0
 70
    32
1001
ACAD
1000
R13OBJECT
1002
{
1005
A15
1002
}
  0
SEQEND
  5
A88
330
A15
100
AcDbEntity
  8
3
  6
Continuous
  0
POLYLINE
  5
A16
330
B51
100
AcDbEntity
  8
3
  6
Continuous
100
AcDb3dPolyline
 66
     1
 10
0.0
 20
0.0
 30
0.0
 70
     8
  0
VERTEX
  5
A89
330
A16
100
AcDbEntity
  8
3
  6
Continuous
100
AcDbVertex
100
AcDb3dPolylineVertex
 10
106.7840160077427
 20
164.9521291575121
 30
0.0
 70
    32
1001
ACAD
1000
R13OBJECT
1002
{
1005
A16
1002
}
  0
VERTEX
  5
A8A
330
A16
100
AcDbEntity
  8
3
  6
Continuous
100
AcDbVertex
100
AcDb3dPolylineVertex
 10
105.9010419808595
 20
164.7230412088186
 30
0.0
 70
    32
1001
ACAD
1000
R13OBJECT
1002
{
1005
A16
1002
}
  0
VERTEX
  5
A8B
330
A16
100
AcDbEntity
  8
3
  6
Continuous
100
AcDbVertex
100
AcDb3dPolylineVertex
 10
105.2203466625447
 20
164.0882586509744
 30
0.0
 70
    32
1001
ACAD
1000
R13OBJECT
1002
{
1005
A16
1002
}
  0
VERTEX
  5
A8C
330
A16
100
AcDbEntity
  8
3
  6
Continuous
100
AcDbVertex
100
AcDb3dPolylineVertex
 10
104.8978691469564
 20
163.1932025180227
 30
0.0
 70
    32
1001
ACAD
1000
R13OBJECT
1002
{
1005
A16
1002
}
  0
VERTEX
  5
A8D
330
A16
100
AcDbEntity
  8
3
  6
Continuous
100
AcDbVertex
100
AcDb3dPolylineVertex
 10
105.0074851466404
 20
162.242919383427
 30
0.0
 70
    32
1001
ACAD
1000
R13OBJECT
1002
{
1005
A16
1002
}
  0
VERTEX
  5
A8E
330
A16
100
AcDbEntity
  8
3
  6
Continuous
100
AcDbVertex
100
AcDb3dPolylineVertex
 10
105.5240829570852
 20
161.4551076611699
 30
0.0
 70
    32
1001
ACAD
1000
R13OBJECT
1002
{
1005
A16
1002
}
  0
VERTEX
  5
A8F
330
A16
100
AcDbEntity
  8
3
  6
Continuous
100
AcDbVertex
100
AcDb3dPolylineVertex
 10
106.3293162455963
 20
161.01024552266
 30
0.0
 70
    32
1001
ACAD
1000
R13OBJECT
1002
{
1005
A16
1002
}
  0
VERTEX
  5
A90
330
A16
100
AcDbEntity
  8
3
  6
Continuous
100
AcDbVertex
100
AcDb3dPolylineVertex
 10
107.2387157698891
 20
161.01024552266
 30
0.0
 70
    32
1001
ACAD
1000
R13OBJECT
1002
{
1005
A16
1002
}
  0
VERTEX
  5
A91
330
A16
100
AcDbEntity
  8
3
  6
Continuous
100
AcDbVertex
100
AcDb3dPolylineVertex
 10
108.0439490584002
 20
161.4551076611699
 30
0.0
 70
    32
1001
ACAD
1000
R13OBJECT
1002
{
1005
A16
1002
}
  0
VERTEX
  5
A92
330
A16
100
AcDbEntity
  8
3
  6
Continuous
100
AcDbVertex
100
AcDb3dPolylineVertex
 10
108.560546868845
 20
162.2429193834271
 30
0.0
 70
    32
1001
ACAD
1000
R13OBJECT
1002
{
1005
A16
1002
}
  0
VERTEX
  5
A93
330
A16
100
AcDbEntity
  8
3
  6
Continuous
100
AcDbVertex
100
AcDb3dPolylineVertex
 10
108.670162868529
 20
163.1932025180228
 30
0.0
 70
    32
1001
ACAD
1000
R13OBJECT
1002
{
1005
A16
1002
}
  0
VERTEX
  5
A94
330
A16
100
AcDbEntity
  8
3
  6
Continuous
100
AcDbVertex
100
AcDb3dPolylineVertex
 10
108.3476853529406
 20
164.0882586509744
 30
0.0
 70
    32
1001
ACAD
1000
R13OBJECT
1002
{
1005
A16
1002
}
  0
VERTEX
  5
A95
330
A16
100
AcDbEntity
  8
3
  6
Continuous
100
AcDbVertex
100
AcDb3dPolylineVertex
 10
107.6669900346258
 20
164.7230412088186
 30
0.0
 70
    32
1001
ACAD
1000
R13OBJECT
1002
{
1005
A16
1002
}
  0
VERTEX
  5
A96
330
A16
100
AcDbEntity
  8
3
  6
Continuous
100
AcDbVertex
100
AcDb3dPolylineVertex
 10
106.7840160077426
 20
164.9521291575121
 30
0.0
 70
    32
1001
ACAD
1000
R13OBJECT
1002
{
1005
A16
1002
}
  0
SEQEND
  5
A97
330
A16
100
AcDbEntity
  8
3
  6
Continuous
  0
POLYLINE
  5
A17
330
B51
100
AcDbEntity
  8
3
  6
Continuous
100
AcDb3dPolyline
 66
     1
 10
0.0
 20
0.0
 30
0.0
 70
     8
  0
VERTEX
  5
A98
330
A17
100
AcDbEntity
  8
3
  6
Continuous
100
AcDbVertex
100
AcDb3dPolylineVertex
 10
106.7840160077427
 20
164.4521291575121
 30
0.0
 70
    32
1001
ACAD
1000
R13OBJECT
1002
{
1005
A17
1002
}
  0
VERTEX
  5
A99
330
A17
100
AcDbEntity
  8
3
  6
Continuous
100
AcDbVertex
100
AcDb3dPolylineVertex
 10
106.4483540392543
 20
164.4083248156615
 30
0.0
 70
    32
1001
ACAD
1000
R13OBJECT
1002
{
1005
A17
1002
}
  0
VERTEX
  5
A9A
330
A17
100
AcDbEntity
  8
3
  6
Continuous
100
AcDbVertex
100
AcDb3dPolylineVertex
 10
106.1089651054681
 20
164.266047144093
 30
0.0
 70
    32
1001
ACAD
1000
R13OBJECT
1002
{
1005
A17
1002
}
  0
VERTEX
  5
A9B
330
A17
100
AcDbEntity
  8
3
  6
Continuous
100
AcDbVertex
100
AcDb3dPolylineVertex
 10
105.8030128402855
 20
164.0219679889279
 30
0.0
 70
    32
1001
ACAD
1000
R13OBJECT
1002
{
1005
A17
1002
}
  0
VERTEX
  5
A9C
330
A17
100
AcDbEntity
  8
3
  6
Continuous
100
AcDbVertex
100
AcDb3dPolylineVertex
 10
105.5680270147594
 20
163.6951610522162
 30
0.0
 70
    32
1001
ACAD
1000
R13OBJECT
1002
{
1005
A17
1002
}
  0
VERTEX
  5
A9D
330
A17
100
AcDbEntity
  8
3
  6
Continuous
100
AcDbVertex
100
AcDb3dPolylineVertex
 10
105.3840160077427
 20
162.9521291575121
 30
0.0
 70
    32
1001
ACAD
1000
R13OBJECT
1002
{
1005
A17
1002
}
  0
VERTEX
  5
A9E
330
A17
100
AcDbEntity
  8
3
  6
Continuous
100
AcDbVertex
100
AcDb3dPolylineVertex
 10
105.5680270147594
 20
162.209097262808
 30
0.0
 70
    32
1001
ACAD
1000
R13OBJECT
1002
{
1005
A17
1002
}
  0
VERTEX
  5
A9F
330
A17
100
AcDbEntity
  8
3
  6
Continuous
100
AcDbVertex
100
AcDb3dPolylineVertex
 10
105.8030128402855
 20
161.8822903260964
 30
0.0
 70
    32
1001
ACAD
1000
R13OBJECT
1002
{
1005
A17
1002
}
  0
VERTEX
  5
AA0
330
A17
100
AcDbEntity
  8
3
  6
Continuous
100
AcDbVertex
100
AcDb3dPolylineVertex
 10
106.108965105468
 20
161.6382111709313
 30
0.0
 70
    32
1001
ACAD
1000
R13OBJECT
1002
{
1005
A17
1002
}
  0
VERTEX
  5
AA1
330
A17
100
AcDbEntity
  8
3
  6
Continuous
100
AcDbVertex
100
AcDb3dPolylineVertex
 10
106.4483540392543
 20
161.4959334993627
 30
0.0
 70
    32
1001
ACAD
1000
R13OBJECT
1002
{
1005
A17
1002
}
  0
VERTEX
  5
AA2
330
A17
100
AcDbEntity
  8
3
  6
Continuous
100
AcDbVertex
100
AcDb3dPolylineVertex
 10
106.7840160077427
 20
161.4521291575121
 30
0.0
 70
    32
1001
ACAD
1000
R13OBJECT
1002
{
1005
A17
1002
}
  0
VERTEX
  5
AA3
330
A17
100
AcDbEntity
  8
3
  6
Continuous
100
AcDbVertex
100
AcDb3dPolylineVertex
 10
107.119677976231
 20
161.4959334993627
 30
0.0
 70
    32
1001
ACAD
1000
R13OBJECT
1002
{
1005
A17
1002
}
  0
VERTEX
  5
AA4
330
A17
100
AcDbEntity
  8
3
  6
Continuous
100
AcDbVertex
100
AcDb3dPolylineVertex
 10
107.4590669100173
 20
161.6382111709313
 30
0.0
 70
    32
1001
ACAD
1000
R13OBJECT
1002
{
1005
A17
1002
}
  0
VERTEX
  5
AA5
330
A17
100
AcDbEntity
  8
3
  6
Continuous
100
AcDbVertex
100
AcDb3dPolylineVertex
 10
107.7650191751999
 20
161.8822903260963
 30
0.0
 70
    32
1001
ACAD
1000
R13OBJECT
1002
{
1005
A17
1002
}
  0
VERTEX
  5
AA6
330
A17
100
AcDbEntity
  8
3
  6
Continuous
100
AcDbVertex
100
AcDb3dPolylineVertex
 10
108.0000050007259
 20
162.2090972628081
 30
0.0
 70
    32
1001
ACAD
1000
R13OBJECT
1002
{
1005
A17
1002
}
  0
VERTEX
  5
AA7
330
A17
100
AcDbEntity
  8
3
  6
Continuous
100
AcDbVertex
100
AcDb3dPolylineVertex
 10
108.1840160077427
 20
162.9521291575122
 30
0.0
 70
    32
1001
ACAD
1000
R13OBJECT
1002
{
1005
A17
1002
}
  0
VERTEX
  5
AA8
330
A17
100
AcDbEntity
  8
3
  6
Continuous
100
AcDbVertex
100
AcDb3dPolylineVertex
 10
108.000005000726
 20
163.6951610522162
 30
0.0
 70
    32
1001
ACAD
1000
R13OBJECT
1002
{
1005
A17
1002
}
  0
VERTEX
  5
AA9
330
A17
100
AcDbEntity
  8
3
  6
Continuous
100
AcDbVertex
100
AcDb3dPolylineVertex
 10
107.7650191752
 20
164.0219679889279
 30
0.0
 70
    32
1001
ACAD
1000
R13OBJECT
1002
{
1005
A17
1002
}
  0
VERTEX
  5
AAA
330
A17
100
AcDbEntity
  8
3
  6
Continuous
100
AcDbVertex
100
AcDb3dPolylineVertex
 10
107.4590669100173
 20
164.266047144093
 30
0.0
 70
    32
1001
ACAD
1000
R13OBJECT
1002
{
1005
A17
1002
}
  0
VERTEX
  5
AAB
330
A17
100
AcDbEntity
  8
3
  6
Continuous
100
AcDbVertex
100
AcDb3dPolylineVertex
 10
107.119677976231
 20
164.4083248156615
 30
0.0
 70
    32
1001
ACAD
1000
R13OBJECT
1002
{
1005
A17
1002
}
  0
VERTEX
  5
AAC
330
A17
100
AcDbEntity
  8
3
  6
Continuous
100
AcDbVertex
100
AcDb3dPolylineVertex
 10
106.7840160077427
 20
164.4521291575121
 30
0.0
 70
    32
1001
ACAD
1000
R13OBJECT
1002
{
1005
A17
1002
}
  0
SEQEND
  5
AAD
330
A17
100
AcDbEntity
  8
3
  6
Continuous
  0
LINE
  5
A18
330
B51
100
AcDbEntity
  8
3
100
AcDbLine
 10
105.1840160077427
 20
164.9521291575121
 30
0.0
 11
104.5590160077427
 21
164.9521291575121
 31
0.0
  0
LINE
  5
A19
330
B51
100
AcDbEntity
  8
3
100
AcDbLine
 10
105.1840160077427
 20
160.9521291575121
 30
0.0
 11
104.5590160077427
 21
160.9521291575121
 31
0.0
  0
LINE
  5
A1A
330
B51
100
AcDbEntity
  8
3
100
AcDbLine
 10
102.6840160077427
 20
160.9521291575121
 30
0.0
 11
102.6840160077427
 21
164.9521291575121
 31
0.0
  0
LINE
  5
A1B
330
B51
100
AcDbEntity
  8
3
100
AcDbLine
 10
103.1840160077427
 20
163.1187958241788
 30
0.0
 11
103.1840160077427
 21
164.9521291575121
 31
0.0
  0
LINE
  5
A1C
330
B51
100
AcDbEntity
  8
3
100
AcDbLine
 10
101.1840160077427
 20
160.9521291575121
 30
0.0
 11
101.1840160077427
 21
164.9521291575121
 31
0.0
  0
LINE
  5
A1D
330
B51
100
AcDbEntity
  8
3
100
AcDbLine
 10
101.6840160077427
 20
160.9521291575121
 30
0.0
 11
101.6840160077427
 21
164.9521291575121
 31
0.0
  0
LINE
  5
A1E
330
B51
100
AcDbEntity
  8
3
100
AcDbLine
 10
105.1840160077427
 20
160.9521291575121
 30
0.0
 11
103.6840160077427
 21
162.9521291575121
 31
0.0
  0
LINE
  5
A1F
330
B51
100
AcDbEntity
  8
3
100
AcDbLine
 10
103.6840160077427
 20
162.9521291575121
 30
0.0
 11
105.1840160077427
 21
164.9521291575121
 31
0.0
  0
LINE
  5
A20
330
B51
100
AcDbEntity
  8
3
100
AcDbLine
 10
104.5590160077427
 20
160.9521291575122
 30
0.0
 11
103.1840160077427
 21
162.7854624908455
 31
0.0
  0
LINE
  5
A21
330
B51
100
AcDbEntity
  8
3
100
AcDbLine
 10
103.1840160077427
 20
163.1187958241788
 30
0.0
 11
104.5590160077427
 21
164.9521291575121
 31
0.0
  0
LINE
  5
A22
330
B51
100
AcDbEntity
  8
3
100
AcDbLine
 10
103.1840160077427
 20
162.7854624908455
 30
0.0
 11
103.1840160077427
 21
160.9521291575121
 31
0.0
  0
POLYLINE
  5
A23
330
B51
100
AcDbEntity
  8
3
  6
Continuous
100
AcDb3dPolyline
 66
     1
 10
0.0
 20
0.0
 30
0.0
 70
     8
  0
VERTEX
  5
AAE
330
A23
100
AcDbEntity
  8
3
  6
Continuous
100
AcDbVertex
100
AcDb3dPolylineVertex
 10
100.148455368042
 20
164.4258896383214
 30
0.0
 70
    32
1001
ACAD
1000
R13OBJECT
1002
{
1005
A23
1002
}
  0
VERTEX
  5
AAF
330
A23
100
AcDbEntity
  8
3
  6
Continuous
100
AcDbVertex
100
AcDb3dPolylineVertex
 10
99.60700518454844
 20
164.8559352931346
 30
0.0
 70
    32
1001
ACAD
1000
R13OBJECT
1002
{
1005
A23
1002
}
  0
VERTEX
  5
AB0
330
A23
100
AcDbEntity
  8
3
  6
Continuous
100
AcDbVertex
100
AcDb3dPolylineVertex
 10
98.89630165800792
 20
164.9346549860127
 30
0.0
 70
    32
1001
ACAD
1000
R13OBJECT
1002
{
1005
A23
1002
}
  0
VERTEX
  5
AB1
330
A23
100
AcDbEntity
  8
3
  6
Continuous
100
AcDbVertex
100
AcDb3dPolylineVertex
 10
98.25904221358827
 20
164.6351668090182
 30
0.0
 70
    32
1001
ACAD
1000
R13OBJECT
1002
{
1005
A23
1002
}
  0
VERTEX
  5
AB2
330
A23
100
AcDbEntity
  8
3
  6
Continuous
100
AcDbVertex
100
AcDb3dPolylineVertex
 10
97.91284393147677
 20
164.0597426754176
 30
0.0
 70
    32
1001
ACAD
1000
R13OBJECT
1002
{
1005
A23
1002
}
  0
VERTEX
  5
AB3
330
A23
100
AcDbEntity
  8
3
  6
Continuous
100
AcDbVertex
100
AcDb3dPolylineVertex
 10
97.97592971127679
 20
163.4048835879346
 30
0.0
 70
    32
1001
ACAD
1000
R13OBJECT
1002
{
1005
A23
1002
}
  0
VERTEX
  5
AB4
330
A23
100
AcDbEntity
  8
3
  6
Continuous
100
AcDbVertex
100
AcDb3dPolylineVertex
 10
98.42675645414276
 20
162.8942167109839
 30
0.0
 70
    32
1001
ACAD
1000
R13OBJECT
1002
{
1005
A23
1002
}
  0
VERTEX
  5
AB5
330
A23
100
AcDbEntity
  8
3
  6
Continuous
100
AcDbVertex
100
AcDb3dPolylineVertex
 10
99.111371793716
 20
162.7021291575121
 30
0.0
 70
    32
1001
ACAD
1000
R13OBJECT
1002
{
1005
A23
1002
}
  0
SEQEND
  5
AB6
330
A23
100
AcDbEntity
  8
3
  6
Continuous
  0
POLYLINE
  5
A24
330
B51
100
AcDbEntity
  8
3
  6
Continuous
100
AcDb3dPolyline
 66
     1
 10
0.0
 20
0.0
 30
0.0
 70
     8
  0
VERTEX
  5
AB7
330
A24
100
AcDbEntity
  8
3
  6
Continuous
100
AcDbVertex
100
AcDb3dPolylineVertex
 10
98.07428821938998
 20
161.4783686767028
 30
0.0
 70
    32
1001
ACAD
1000
R13OBJECT
1002
{
1005
A24
1002
}
  0
VERTEX
  5
AB8
330
A24
100
AcDbEntity
  8
3
  6
Continuous
100
AcDbVertex
100
AcDb3dPolylineVertex
 10
98.61573840288357
 20
161.0483230218896
 30
0.0
 70
    32
1001
ACAD
1000
R13OBJECT
1002
{
1005
A24
1002
}
  0
VERTEX
  5
AB9
330
A24
100
AcDbEntity
  8
3
  6
Continuous
100
AcDbVertex
100
AcDb3dPolylineVertex
 10
99.32644192942412
 20
160.9696033290115
 30
0.0
 70
    32
1001
ACAD
1000
R13OBJECT
1002
{
1005
A24
1002
}
  0
VERTEX
  5
ABA
330
A24
100
AcDbEntity
  8
3
  6
Continuous
100
AcDbVertex
100
AcDb3dPolylineVertex
 10
99.96370137384376
 20
161.2690915060061
 30
0.0
 70
    32
1001
ACAD
1000
R13OBJECT
1002
{
1005
A24
1002
}
  0
VERTEX
  5
ABB
330
A24
100
AcDbEntity
  8
3
  6
Continuous
100
AcDbVertex
100
AcDb3dPolylineVertex
 10
100.3098996559552
 20
161.8445156396067
 30
0.0
 70
    32
1001
ACAD
1000
R13OBJECT
1002
{
1005
A24
1002
}
  0
VERTEX
  5
ABC
330
A24
100
AcDbEntity
  8
3
  6
Continuous
100
AcDbVertex
100
AcDb3dPolylineVertex
 10
100.2468138761551
 20
162.4993747270897
 30
0.0
 70
    32
1001
ACAD
1000
R13OBJECT
1002
{
1005
A24
1002
}
  0
VERTEX
  5
ABD
330
A24
100
AcDbEntity
  8
3
  6
Continuous
100
AcDbVertex
100
AcDb3dPolylineVertex
 10
99.79598713328911
 20
163.0100416040405
 30
0.0
 70
    32
1001
ACAD
1000
R13OBJECT
1002
{
1005
A24
1002
}
  0
VERTEX
  5
ABE
330
A24
100
AcDbEntity
  8
3
  6
Continuous
100
AcDbVertex
100
AcDb3dPolylineVertex
 10
99.11137179371584
 20
163.2021291575121
 30
0.0
 70
    32
1001
ACAD
1000
R13OBJECT
1002
{
1005
A24
1002
}
  0
SEQEND
  5
ABF
330
A24
100
AcDbEntity
  8
3
  6
Continuous
  0
POLYLINE
  5
A25
330
B51
100
AcDbEntity
  8
3
  6
Continuous
100
AcDb3dPolyline
 66
     1
 10
0.0
 20
0.0
 30
0.0
 70
     8
  0
VERTEX
  5
AC0
330
A25
100
AcDbEntity
  8
3
  6
Continuous
100
AcDbVertex
100
AcDb3dPolylineVertex
 10
99.7131026047149
 20
164.1745386032219
 30
0.0
 70
    32
1001
ACAD
1000
R13OBJECT
1002
{
1005
A25
1002
}
  0
VERTEX
  5
AC1
330
A25
100
AcDbEntity
  8
3
  6
Continuous
100
AcDbVertex
100
AcDb3dPolylineVertex
 10
99.63937510088115
 20
164.254359342133
 30
0.0
 70
    32
1001
ACAD
1000
R13OBJECT
1002
{
1005
A25
1002
}
  0
VERTEX
  5
AC2
330
A25
100
AcDbEntity
  8
3
  6
Continuous
100
AcDbVertex
100
AcDb3dPolylineVertex
 10
99.48156072810876
 20
164.3638878933587
 30
0.0
 70
    32
1001
ACAD
1000
R13OBJECT
1002
{
1005
A25
1002
}
  0
VERTEX
  5
AC3
330
A25
100
AcDbEntity
  8
3
  6
Continuous
100
AcDbVertex
100
AcDb3dPolylineVertex
 10
99.48093875995773
 20
164.3642077875633
 30
0.0
 70
    32
1001
ACAD
1000
R13OBJECT
1002
{
1005
A25
1002
}
  0
VERTEX
  5
AC4
330
A25
100
AcDbEntity
  8
3
  6
Continuous
100
AcDbVertex
100
AcDb3dPolylineVertex
 10
99.18688130005365
 20
164.4487549170234
 30
0.0
 70
    32
1001
ACAD
1000
R13OBJECT
1002
{
1005
A25
1002
}
  0
VERTEX
  5
AC5
330
A25
100
AcDbEntity
  8
3
  6
Continuous
100
AcDbVertex
100
AcDb3dPolylineVertex
 10
99.111371793716
 20
164.4521291575121
 30
0.0
 70
    32
1001
ACAD
1000
R13OBJECT
1002
{
1005
A25
1002
}
  0
VERTEX
  5
AC6
330
A25
100
AcDbEntity
  8
3
  6
Continuous
100
AcDbVertex
100
AcDb3dPolylineVertex
 10
98.88483938483823
 20
164.4207293439163
 30
0.0
 70
    32
1001
ACAD
1000
R13OBJECT
1002
{
1005
A25
1002
}
  0
VERTEX
  5
AC7
330
A25
100
AcDbEntity
  8
3
  6
Continuous
100
AcDbVertex
100
AcDb3dPolylineVertex
 10
98.74118285932318
 20
164.3638878933587
 30
0.0
 70
    32
1001
ACAD
1000
R13OBJECT
1002
{
1005
A25
1002
}
  0
VERTEX
  5
AC8
330
A25
100
AcDbEntity
  8
3
  6
Continuous
100
AcDbVertex
100
AcDb3dPolylineVertex
 10
98.61163091798559
 20
164.2789074448983
 30
0.0
 70
    32
1001
ACAD
1000
R13OBJECT
1002
{
1005
A25
1002
}
  0
VERTEX
  5
AC9
330
A25
100
AcDbEntity
  8
3
  6
Continuous
100
AcDbVertex
100
AcDb3dPolylineVertex
 10
98.58336848655081
 20
164.254359342133
 30
0.0
 70
    32
1001
ACAD
1000
R13OBJECT
1002
{
1005
A25
1002
}
  0
VERTEX
  5
ACA
330
A25
100
AcDbEntity
  8
3
  6
Continuous
100
AcDbVertex
100
AcDb3dPolylineVertex
 10
98.46961033373569
 20
164.1167669946467
 30
0.0
 70
    32
1001
ACAD
1000
R13OBJECT
1002
{
1005
A25
1002
}
  0
VERTEX
  5
ACB
330
A25
100
AcDbEntity
  8
3
  6
Continuous
100
AcDbVertex
100
AcDb3dPolylineVertex
 10
98.4056350884828
 20
163.969543737936
 30
0.0
 70
    32
1001
ACAD
1000
R13OBJECT
1002
{
1005
A25
1002
}
  0
VERTEX
  5
ACC
330
A25
100
AcDbEntity
  8
3
  6
Continuous
100
AcDbVertex
100
AcDb3dPolylineVertex
 10
98.386371793716
 20
163.8271291575121
 30
0.0
 70
    32
1001
ACAD
1000
R13OBJECT
1002
{
1005
A25
1002
}
  0
VERTEX
  5
ACD
330
A25
100
AcDbEntity
  8
3
  6
Continuous
100
AcDbVertex
100
AcDb3dPolylineVertex
 10
98.38889740572492
 20
163.7752768734735
 30
0.0
 70
    32
1001
ACAD
1000
R13OBJECT
1002
{
1005
A25
1002
}
  0
VERTEX
  5
ACE
330
A25
100
AcDbEntity
  8
3
  6
Continuous
100
AcDbVertex
100
AcDb3dPolylineVertex
 10
98.40554564229456
 20
163.6850413792539
 30
0.0
 70
    32
1001
ACAD
1000
R13OBJECT
1002
{
1005
A25
1002
}
  0
VERTEX
  5
ACF
330
A25
100
AcDbEntity
  8
3
  6
Continuous
100
AcDbVertex
100
AcDb3dPolylineVertex
 10
98.4056350884828
 20
163.6847145770881
 30
0.0
 70
    32
1001
ACAD
1000
R13OBJECT
1002
{
1005
A25
1002
}
  0
VERTEX
  5
AD0
330
A25
100
AcDbEntity
  8
3
  6
Continuous
100
AcDbVertex
100
AcDb3dPolylineVertex
 10
98.46961033373567
 20
163.5374913203776
 30
0.0
 70
    32
1001
ACAD
1000
R13OBJECT
1002
{
1005
A25
1002
}
  0
VERTEX
  5
AD1
330
A25
100
AcDbEntity
  8
3
  6
Continuous
100
AcDbVertex
100
AcDb3dPolylineVertex
 10
98.49321031347519
 20
163.5017604474356
 30
0.0
 70
    32
1001
ACAD
1000
R13OBJECT
1002
{
1005
A25
1002
}
  0
VERTEX
  5
AD2
330
A25
100
AcDbEntity
  8
3
  6
Continuous
100
AcDbVertex
100
AcDb3dPolylineVertex
 10
98.58336848655079
 20
163.3998989728913
 30
0.0
 70
    32
1001
ACAD
1000
R13OBJECT
1002
{
1005
A25
1002
}
  0
VERTEX
  5
AD3
330
A25
100
AcDbEntity
  8
3
  6
Continuous
100
AcDbVertex
100
AcDb3dPolylineVertex
 10
98.65750511490293
 20
163.3406697863453
 30
0.0
 70
    32
1001
ACAD
1000
R13OBJECT
1002
{
1005
A25
1002
}
  0
VERTEX
  5
AD4
330
A25
100
AcDbEntity
  8
3
  6
Continuous
100
AcDbVertex
100
AcDb3dPolylineVertex
 10
98.74118285932318
 20
163.2903704216654
 30
0.0
 70
    32
1001
ACAD
1000
R13OBJECT
1002
{
1005
A25
1002
}
  0
VERTEX
  5
AD5
330
A25
100
AcDbEntity
  8
3
  6
Continuous
100
AcDbVertex
100
AcDb3dPolylineVertex
 10
98.76298248337574
 20
163.279572065601
 30
0.0
 70
    32
1001
ACAD
1000
R13OBJECT
1002
{
1005
A25
1002
}
  0
VERTEX
  5
AD6
330
A25
100
AcDbEntity
  8
3
  6
Continuous
100
AcDbVertex
100
AcDb3dPolylineVertex
 10
98.87590963292918
 20
163.2361409083593
 30
0.0
 70
    32
1001
ACAD
1000
R13OBJECT
1002
{
1005
A25
1002
}
  0
VERTEX
  5
AD7
330
A25
100
AcDbEntity
  8
3
  6
Continuous
100
AcDbVertex
100
AcDb3dPolylineVertex
 10
98.9926799271546
 20
163.2105302653703
 30
0.0
 70
    32
1001
ACAD
1000
R13OBJECT
1002
{
1005
A25
1002
}
  0
VERTEX
  5
AD8
330
A25
100
AcDbEntity
  8
3
  6
Continuous
100
AcDbVertex
100
AcDb3dPolylineVertex
 10
99.11137179371602
 20
163.2021291575121
 30
0.0
 70
    32
1001
ACAD
1000
R13OBJECT
1002
{
1005
A25
1002
}
  0
SEQEND
  5
AD9
330
A25
100
AcDbEntity
  8
3
  6
Continuous
  0
POLYLINE
  5
A26
330
B51
100
AcDbEntity
  8
3
  6
Continuous
100
AcDb3dPolyline
 66
     1
 10
0.0
 20
0.0
 30
0.0
 70
     8
  0
VERTEX
  5
ADA
330
A26
100
AcDbEntity
  8
3
  6
Continuous
100
AcDbVertex
100
AcDb3dPolylineVertex
 10
98.50964098271706
 20
161.7297197118022
 30
0.0
 70
    32
1001
ACAD
1000
R13OBJECT
1002
{
1005
A26
1002
}
  0
VERTEX
  5
ADB
330
A26
100
AcDbEntity
  8
3
  6
Continuous
100
AcDbVertex
100
AcDb3dPolylineVertex
 10
98.58336848655083
 20
161.6498989728913
 30
0.0
 70
    32
1001
ACAD
1000
R13OBJECT
1002
{
1005
A26
1002
}
  0
VERTEX
  5
ADC
330
A26
100
AcDbEntity
  8
3
  6
Continuous
100
AcDbVertex
100
AcDb3dPolylineVertex
 10
98.74118285932322
 20
161.5403704216654
 30
0.0
 70
    32
1001
ACAD
1000
R13OBJECT
1002
{
1005
A26
1002
}
  0
VERTEX
  5
ADD
330
A26
100
AcDbEntity
  8
3
  6
Continuous
100
AcDbVertex
100
AcDb3dPolylineVertex
 10
99.11137179371598
 20
161.4521291575121
 30
0.0
 70
    32
1001
ACAD
1000
R13OBJECT
1002
{
1005
A26
1002
}
  0
VERTEX
  5
ADE
330
A26
100
AcDbEntity
  8
3
  6
Continuous
100
AcDbVertex
100
AcDb3dPolylineVertex
 10
99.48156072810876
 20
161.5403704216654
 30
0.0
 70
    32
1001
ACAD
1000
R13OBJECT
1002
{
1005
A26
1002
}
  0
VERTEX
  5
ADF
330
A26
100
AcDbEntity
  8
3
  6
Continuous
100
AcDbVertex
100
AcDb3dPolylineVertex
 10
99.63937510088118
 20
161.6498989728913
 30
0.0
 70
    32
1001
ACAD
1000
R13OBJECT
1002
{
1005
A26
1002
}
  0
VERTEX
  5
AE0
330
A26
100
AcDbEntity
  8
3
  6
Continuous
100
AcDbVertex
100
AcDb3dPolylineVertex
 10
99.75313325369631
 20
161.7874913203776
 30
0.0
 70
    32
1001
ACAD
1000
R13OBJECT
1002
{
1005
A26
1002
}
  0
VERTEX
  5
AE1
330
A26
100
AcDbEntity
  8
3
  6
Continuous
100
AcDbVertex
100
AcDb3dPolylineVertex
 10
99.81710849894918
 20
161.9347145770881
 30
0.0
 70
    32
1001
ACAD
1000
R13OBJECT
1002
{
1005
A26
1002
}
  0
VERTEX
  5
AE2
330
A26
100
AcDbEntity
  8
3
  6
Continuous
100
AcDbVertex
100
AcDb3dPolylineVertex
 10
99.83637179371598
 20
162.0771291575121
 30
0.0
 70
    32
1001
ACAD
1000
R13OBJECT
1002
{
1005
A26
1002
}
  0
VERTEX
  5
AE3
330
A26
100
AcDbEntity
  8
3
  6
Continuous
100
AcDbVertex
100
AcDb3dPolylineVertex
 10
99.81710849894918
 20
162.2195437379361
 30
0.0
 70
    32
1001
ACAD
1000
R13OBJECT
1002
{
1005
A26
1002
}
  0
VERTEX
  5
AE4
330
A26
100
AcDbEntity
  8
3
  6
Continuous
100
AcDbVertex
100
AcDb3dPolylineVertex
 10
99.75313325369628
 20
162.3667669946466
 30
0.0
 70
    32
1001
ACAD
1000
R13OBJECT
1002
{
1005
A26
1002
}
  0
VERTEX
  5
AE5
330
A26
100
AcDbEntity
  8
3
  6
Continuous
100
AcDbVertex
100
AcDb3dPolylineVertex
 10
99.63937510088115
 20
162.504359342133
 30
0.0
 70
    32
1001
ACAD
1000
R13OBJECT
1002
{
1005
A26
1002
}
  0
VERTEX
  5
AE6
330
A26
100
AcDbEntity
  8
3
  6
Continuous
100
AcDbVertex
100
AcDb3dPolylineVertex
 10
99.48156072810878
 20
162.6138878933588
 30
0.0
 70
    32
1001
ACAD
1000
R13OBJECT
1002
{
1005
A26
1002
}
  0
VERTEX
  5
AE7
330
A26
100
AcDbEntity
  8
3
  6
Continuous
100
AcDbVertex
100
AcDb3dPolylineVertex
 10
99.111371793716
 20
162.7021291575121
 30
0.0
 70
    32
1001
ACAD
1000
R13OBJECT
1002
{
1005
A26
1002
}
  0
SEQEND
  5
AE8
330
A26
100
AcDbEntity
  8
3
  6
Continuous
  0
LINE
  5
A27
330
B51
100
AcDbEntity
  8
3
100
AcDbLine
 10
100.148455368042
 20
164.4258896383214
 30
0.0
 11
99.71310260471486
 21
164.174538603222
 31
0.0
  0
LINE
  5
A28
330
B51
100
AcDbEntity
  8
3
100
AcDbLine
 10
98.07428821938998
 20
161.4783686767028
 30
0.0
 11
98.5096409827171
 21
161.7297197118022
 31
0.0
  0
LINE
  5
A29
330
B51
100
AcDbEntity
  8
3
100
AcDbLine
 10
101.6840160077427
 20
160.9521291575121
 30
0.0
 11
101.1840160077427
 21
160.9521291575121
 31
0.0
  0
LINE
  5
A2A
330
B51
100
AcDbEntity
  8
3
100
AcDbLine
 10
101.6840160077427
 20
164.9521291575121
 30
0.0
 11
101.1840160077427
 21
164.9521291575121
 31
0.0
  0
LINE
  5
A2B
330
B51
100
AcDbEntity
  8
3
100
AcDbLine
 10
103.1840160077427
 20
164.9521291575121
 30
0.0
 11
102.6840160077427
 21
164.9521291575121
 31
0.0
  0
POLYLINE
  5
A2C
330
B51
100
AcDbEntity
  8
3
  6
Continuous
100
AcDb3dPolyline
 66
     1
 10
0.0
 20
0.0
 30
0.0
 70
     8
  0
VERTEX
  5
AE9
330
A2C
100
AcDbEntity
  8
3
  6
Continuous
100
AcDbVertex
100
AcDb3dPolylineVertex
 10
106.7131050698448
 20
165.4232239218089
 30
0.0
 70
    32
1001
ACAD
1000
R13OBJECT
1002
{
1005
A2C
1002
}
  0
VERTEX
  5
AEA
330
A2C
100
AcDbEntity
  8
3
  6
Continuous
100
AcDbVertex
100
AcDb3dPolylineVertex
 10
105.6849596226269
 20
165.978180558428
 30
0.0
 70
    32
1001
ACAD
1000
R13OBJECT
1002
{
1005
A2C
1002
}
  0
VERTEX
  5
AEB
330
A2C
100
AcDbEntity
  8
3
  6
Continuous
100
AcDbVertex
100
AcDb3dPolylineVertex
 10
105.6040839163654
 20
166.0104828396348
 30
0.0
 70
    32
1001
ACAD
1000
R13OBJECT
1002
{
1005
A2C
1002
}
  0
VERTEX
  5
AEC
330
A2C
100
AcDbEntity
  8
3
  6
Continuous
100
AcDbVertex
100
AcDb3dPolylineVertex
 10
104.3696510747321
 20
166.3523724178798
 30
0.0
 70
    32
1001
ACAD
1000
R13OBJECT
1002
{
1005
A2C
1002
}
  0
VERTEX
  5
AED
330
A2C
100
AcDbEntity
  8
3
  6
Continuous
100
AcDbVertex
100
AcDb3dPolylineVertex
 10
103.1840160077427
 20
166.4521291575121
 30
0.0
 70
    32
1001
ACAD
1000
R13OBJECT
1002
{
1005
A2C
1002
}
  0
VERTEX
  5
AEE
330
A2C
100
AcDbEntity
  8
3
  6
Continuous
100
AcDbVertex
100
AcDb3dPolylineVertex
 10
103.097932007964
 20
166.4516219701946
 30
0.0
 70
    32
1001
ACAD
1000
R13OBJECT
1002
{
1005
A2C
1002
}
  0
VERTEX
  5
AEF
330
A2C
100
AcDbEntity
  8
3
  6
Continuous
100
AcDbVertex
100
AcDb3dPolylineVertex
 10
101.828907916812
 20
166.3209017553031
 30
0.0
 70
    32
1001
ACAD
1000
R13OBJECT
1002
{
1005
A2C
1002
}
  0
VERTEX
  5
AF0
330
A2C
100
AcDbEntity
  8
3
  6
Continuous
100
AcDbVertex
100
AcDb3dPolylineVertex
 10
100.6830723928585
 20
165.978180558428
 30
0.0
 70
    32
1001
ACAD
1000
R13OBJECT
1002
{
1005
A2C
1002
}
  0
VERTEX
  5
AF1
330
A2C
100
AcDbEntity
  8
3
  6
Continuous
100
AcDbVertex
100
AcDb3dPolylineVertex
 10
99.65492694564057
 20
165.423223921809
 30
0.0
 70
    32
1001
ACAD
1000
R13OBJECT
1002
{
1005
A2C
1002
}
  0
SEQEND
  5
AF2
330
A2C
100
AcDbEntity
  8
3
  6
Continuous
  0
LINE
  5
A2D
330
B51
100
AcDbEntity
  8
3
100
AcDbLine
 10
102.6840160077427
 20
160.9521291575121
 30
0.0
 11
103.1840160077427
 21
160.9521291575121
 31
0.0
  0
LINE
  5
A2E
330
B51
100
AcDbEntity
  8
3
100
AcDbLine
 10
107.1461287462083
 20
165.7264303642224
 30
0.0
 11
106.7131050698444
 21
165.4232239218092
 31
0.0
  0
LINE
  5
A2F
330
B51
100
AcDbEntity
  8
3
100
AcDbLine
 10
107.1461287462083
 20
160.1778279508018
 30
0.0
 11
106.7131050698444
 21
160.481034393215
 31
0.0
  0
POLYLINE
  5
A30
330
B51
100
AcDbEntity
  8
3
  6
Continuous
100
AcDb3dPolyline
 66
     1
 10
0.0
 20
0.0
 30
0.0
 70
     8
  0
VERTEX
  5
AF3
330
A30
100
AcDbEntity
  8
3
  6
Continuous
100
AcDbVertex
100
AcDb3dPolylineVertex
 10
99.65492694564064
 20
160.4810343932153
 30
0.0
 70
    32
1001
ACAD
1000
R13OBJECT
1002
{
1005
A30
1002
}
  0
VERTEX
  5
AF4
330
A30
100
AcDbEntity
  8
3
  6
Continuous
100
AcDbVertex
100
AcDb3dPolylineVertex
 10
100.6830723928585
 20
159.9260777565963
 30
0.0
 70
    32
1001
ACAD
1000
R13OBJECT
1002
{
1005
A30
1002
}
  0
VERTEX
  5
AF5
330
A30
100
AcDbEntity
  8
3
  6
Continuous
100
AcDbVertex
100
AcDb3dPolylineVertex
 10
101.828907916812
 20
159.5833565597212
 30
0.0
 70
    32
1001
ACAD
1000
R13OBJECT
1002
{
1005
A30
1002
}
  0
VERTEX
  5
AF6
330
A30
100
AcDbEntity
  8
3
  6
Continuous
100
AcDbVertex
100
AcDb3dPolylineVertex
 10
103.097932007964
 20
159.4526363448297
 30
0.0
 70
    32
1001
ACAD
1000
R13OBJECT
1002
{
1005
A30
1002
}
  0
VERTEX
  5
AF7
330
A30
100
AcDbEntity
  8
3
  6
Continuous
100
AcDbVertex
100
AcDb3dPolylineVertex
 10
103.1840160077427
 20
159.4521291575121
 30
0.0
 70
    32
1001
ACAD
1000
R13OBJECT
1002
{
1005
A30
1002
}
  0
VERTEX
  5
AF8
330
A30
100
AcDbEntity
  8
3
  6
Continuous
100
AcDbVertex
100
AcDb3dPolylineVertex
 10
104.3696510747321
 20
159.5518858971445
 30
0.0
 70
    32
1001
ACAD
1000
R13OBJECT
1002
{
1005
A30
1002
}
  0
VERTEX
  5
AF9
330
A30
100
AcDbEntity
  8
3
  6
Continuous
100
AcDbVertex
100
AcDb3dPolylineVertex
 10
105.6040839163654
 20
159.8937754753895
 30
0.0
 70
    32
1001
ACAD
1000
R13OBJECT
1002
{
1005
A30
1002
}
  0
VERTEX
  5
AFA
330
A30
100
AcDbEntity
  8
3
  6
Continuous
100
AcDbVertex
100
AcDb3dPolylineVertex
 10
105.6849596226268
 20
159.9260777565962
 30
0.0
 70
    32
1001
ACAD
1000
R13OBJECT
1002
{
1005
A30
1002
}
  0
VERTEX
  5
AFB
330
A30
100
AcDbEntity
  8
3
  6
Continuous
100
AcDbVertex
100
AcDb3dPolylineVertex
 10
106.7131050698448
 20
160.4810343932153
 30
0.0
 70
    32
1001
ACAD
1000
R13OBJECT
1002
{
1005
A30
1002
}
  0
SEQEND
  5
AFC
330
A30
100
AcDbEntity
  8
3
  6
Continuous
  0
POLYLINE
  5
A31
330
B51
100
AcDbEntity
  8
3
  6
Continuous
100
AcDb3dPolyline
 66
     1
 10
0.0
 20
0.0
 30
0.0
 70
     8
  0
VERTEX
  5
AFD
330
A31
100
AcDbEntity
  8
3
  6
Continuous
100
AcDbVertex
100
AcDb3dPolylineVertex
 10
99.22190326927717
 20
160.1778279508018
 30
0.0
 70
    32
1001
ACAD
1000
R13OBJECT
1002
{
1005
A31
1002
}
  0
VERTEX
  5
AFE
330
A31
100
AcDbEntity
  8
3
  6
Continuous
100
AcDbVertex
100
AcDb3dPolylineVertex
 10
100.631488838347
 20
159.408989210045
 30
0.0
 70
    32
1001
ACAD
1000
R13OBJECT
1002
{
1005
A31
1002
}
  0
VERTEX
  5
AFF
330
A31
100
AcDbEntity
  8
3
  6
Continuous
100
AcDbVertex
100
AcDb3dPolylineVertex
 10
102.3030357994355
 20
159.0037767154194
 30
0.0
 70
    32
1001
ACAD
1000
R13OBJECT
1002
{
1005
A31
1002
}
  0
VERTEX
  5
B00
330
A31
100
AcDbEntity
  8
3
  6
Continuous
100
AcDbVertex
100
AcDb3dPolylineVertex
 10
104.0649962160499
 20
159.0037767154194
 30
0.0
 70
    32
1001
ACAD
1000
R13OBJECT
1002
{
1005
A31
1002
}
  0
VERTEX
  5
B01
330
A31
100
AcDbEntity
  8
3
  6
Continuous
100
AcDbVertex
100
AcDb3dPolylineVertex
 10
105.7365431771384
 20
159.408989210045
 30
0.0
 70
    32
1001
ACAD
1000
R13OBJECT
1002
{
1005
A31
1002
}
  0
VERTEX
  5
B02
330
A31
100
AcDbEntity
  8
3
  6
Continuous
100
AcDbVertex
100
AcDb3dPolylineVertex
 10
107.1461287462083
 20
160.1778279508018
 30
0.0
 70
    32
1001
ACAD
1000
R13OBJECT
1002
{
1005
A31
1002
}
  0
SEQEND
  5
B03
330
A31
100
AcDbEntity
  8
3
  6
Continuous
  0
LINE
  5
A32
330
B51
100
AcDbEntity
  8
3
100
AcDbLine
 10
99.65492694564101
 20
160.4810343932151
 30
0.0
 11
99.22190326927715
 21
160.1778279508018
 31
0.0
  0
LINE
  5
A33
330
B51
100
AcDbEntity
  8
3
100
AcDbLine
 10
99.65492694564096
 20
165.4232239218092
 30
0.0
 11
99.22190326927713
 21
165.7264303642224
 31
0.0
  0
INSERT
  5
A34
330
B51
100
AcDbEntity
  8
0
100
AcDbBlockReference
  2
STDGX5
 10
397.0727308950417
 20
14.09011196094536
 30
0.0
  0
INSERT
  5
A35
330
B51
100
AcDbEntity
  8
0
100
AcDbBlockReference
  2
STDGX5
 10
397.0727308950417
 20
14.09011196094536
 30
0.0
  0
INSERT
  5
A36
330
B51
100
AcDbEntity
  8
0
100
AcDbBlockReference
  2
STDGX5
 10
672.0727308950416
 20
14.09011196094536
 30
0.0
  0
INSERT
  5
A37
330
B51
100
AcDbEntity
  8
0
100
AcDbBlockReference
  2
STDGX5
 10
672.0727308950416
 20
14.09011196094536
 30
0.0
  0
INSERT
  5
A38
330
B51
100
AcDbEntity
  8
0
100
AcDbBlockReference
  2
STDGX5
 10
397.0727308950417
 20
14.09011196094536
 30
0.0
 41
2.0
 42
2.0
 43
2.0
  0
INSERT
  5
A39
330
B51
100
AcDbEntity
  8
0
100
AcDbBlockReference
  2
STDGX5
 10
397.0727308950417
 20
14.09011196094536
 30
0.0
 41
2.0
 42
2.0
 43
2.0
  0
INSERT
  5
A3A
330
B51
100
AcDbEntity
  8
0
100
AcDbBlockReference
  2
STDGX5
 10
947.0727308950417
 20
14.09011196094536
 30
0.0
 41
2.0
 42
2.0
 43
2.0
  0
INSERT
  5
A3B
330
B51
100
AcDbEntity
  8
0
100
AcDbBlockReference
  2
STDGX5
 10
947.0727308950417
 20
14.09011196094536
 30
0.0
 41
2.0
 42
2.0
 43
2.0
  0
INSERT
  5
A3C
330
B51
100
AcDbEntity
  8
0
100
AcDbBlockReference
  2
STDGX5
 10
397.0727308950417
 20
14.09011196094536
 30
0.0
  0
INSERT
  5
A3D
330
B51
100
AcDbEntity
  8
0
100
AcDbBlockReference
  2
STDGX5
 10
397.0727308950417
 20
14.09011196094536
 30
0.0
  0
INSERT
  5
A3E
330
B51
100
AcDbEntity
  8
0
100
AcDbBlockReference
  2
STDGX5
 10
672.0727308950416
 20
14.09011196094536
 30
0.0
  0
INSERT
  5
A3F
330
B51
100
AcDbEntity
  8
0
100
AcDbBlockReference
  2
STDGX5
 10
672.0727308950416
 20
14.09011196094536
 30
0.0
  0
LINE
  5
A40
330
B51
100
AcDbEntity
  8
0
100
AcDbLine
 10
120.6840160077427
 20
172.3717753870396
 30
0.0
 11
85.68401600774274
 21
172.3717753870396
 31
0.0
  0
ARC
  5
A41
330
B51
100
AcDbEntity
  8
0
100
AcDbCircle
 10
81.1840160077428
 20
168.7733402768058
 30
0.0
 40
2.0
100
AcDbArc
 50
90.00000000000007
 51
180.0
  0
ARC
  5
A42
330
B51
100
AcDbEntity
  8
0
100
AcDbCircle
 10
125.1840160077426
 20
168.7733402768059
 30
0.0
 40
2.0
100
AcDbArc
 50
0.0
 51
90.0000000000001
  0
LINE
  5
A43
330
B51
100
AcDbEntity
  8
0
100
AcDbLine
 10
120.6840160077427
 20
176.3955532748459
 30
0.0
 11
120.6840160077427
 21
172.3717753870395
 31
0.0
  0
LINE
  5
A44
330
B51
100
AcDbEntity
  8
0
100
AcDbLine
 10
85.68401600774276
 20
176.3955532748459
 30
0.0
 11
85.68401600774274
 21
172.3717753870395
 31
0.0
  0
ARC
  5
A45
330
B51
100
AcDbEntity
  8
0
100
AcDbCircle
 10
189.023883447137
 20
161.3955532748459
 30
0.0
 40
15.0
100
AcDbArc
 50
87.03314775566207
 51
132.9668522443374
  0
LINE
  5
A46
330
B51
100
AcDbEntity
  8
0
100
AcDbLine
 10
120.6840160077427
 20
176.3955532748459
 30
0.0
 11
85.68401600774274
 21
176.3955532748459
 31
0.0
  0
ARC
  5
A47
330
B51
100
AcDbEntity
  8
0
100
AcDbCircle
 10
103.1840160077427
 20
97.45212915751251
 30
0.0
 40
80.0
100
AcDbArc
 50
102.6356250930211
 51
105.2575232904563
  0
ARC
  5
A48
330
B51
100
AcDbEntity
  8
0
100
AcDbCircle
 10
103.1840160077427
 20
97.45212915751251
 30
0.0
 40
80.0
100
AcDbArc
 50
80.67772029297762
 51
99.32227970702248
  0
INSERT
  5
A49
330
B51
100
AcDbEntity
  8
0
100
AcDbBlockReference
  2
STDGX5
 10
0.0
 20
0.0
 30
0.0
 41
0.25
 42
0.25
 43
0.25
  0
INSERT
  5
A4A
330
B51
100
AcDbEntity
  8
0
100
AcDbBlockReference
  2
STDGX5
 10
0.0
 20
0.0
 30
0.0
 41
0.25
 42
0.25
 43
0.25
  0
INSERT
  5
A4B
330
B51
100
AcDbEntity
  8
0
100
AcDbBlockReference
  2
STDGX5
 10
68.75
 20
0.0
 30
0.0
 41
0.25
 42
0.25
 43
0.25
  0
INSERT
  5
A4C
330
B51
100
AcDbEntity
  8
0
100
AcDbBlockReference
  2
STDGX5
 10
68.75
 20
0.0
 30
0.0
 41
0.25
 42
0.25
 43
0.25
  0
INSERT
  5
A4D
330
B51
100
AcDbEntity
  8
0
100
AcDbBlockReference
  2
STDGX5
 10
0.0
 20
0.0
 30
0.0
 41
0.5
 42
0.5
 43
0.5
  0
INSERT
  5
A4E
330
B51
100
AcDbEntity
  8
0
100
AcDbBlockReference
  2
STDGX5
 10
0.0
 20
0.0
 30
0.0
 41
0.5
 42
0.5
 43
0.5
  0
INSERT
  5
A4F
330
B51
100
AcDbEntity
  8
0
100
AcDbBlockReference
  2
STDGX5
 10
137.5
 20
0.0
 30
0.0
 41
0.5
 42
0.5
 43
0.5
  0
INSERT
  5
A50
330
B51
100
AcDbEntity
  8
0
100
AcDbBlockReference
  2
STDGX5
 10
137.5
 20
0.0
 30
0.0
 41
0.5
 42
0.5
 43
0.5
  0
INSERT
  5
A52
330
B51
100
AcDbEntity
  8
0
100
AcDbBlockReference
  2
STDGX5
 10
-35.0
 20
-100.0
 30
0.0
 41
0.3333333333333333
 42
0.3333333333333333
 43
0.3333333333333333
  0
INSERT
  5
A53
330
B51
100
AcDbEntity
  8
0
100
AcDbBlockReference
  2
STDGX5
 10
-35.0
 20
-100.0
 30
0.0
 41
0.3333333333333333
 42
0.3333333333333333
 43
0.3333333333333333
  0
INSERT
  5
A54
330
B51
100
AcDbEntity
  8
0
100
AcDbBlockReference
  2
STDGX5
 10
56.66666666666664
 20
-100.0
 30
0.0
 41
0.3333333333333333
 42
0.3333333333333333
 43
0.3333333333333333
  0
INSERT
  5
A55
330
B51
100
AcDbEntity
  8
0
100
AcDbBlockReference
  2
STDGX5
 10
56.66666666666664
 20
-100.0
 30
0.0
 41
0.3333333333333333
 42
0.3333333333333333
 43
0.3333333333333333
  0
INSERT
  5
A57
330
B51
100
AcDbEntity
  8
0
100
AcDbBlockReference
  2
STDGX5
 10
-35.0
 20
-100.0
 30
0.0
 41
0.3333333333333333
 42
0.3333333333333333
 43
0.3333333333333333
  0
INSERT
  5
A58
330
B51
100
AcDbEntity
  8
0
100
AcDbBlockReference
  2
STDGX5
 10
-35.0
 20
-100.0
 30
0.0
 41
0.3333333333333333
 42
0.3333333333333333
 43
0.3333333333333333
  0
INSERT
  5
A59
330
B51
100
AcDbEntity
  8
0
100
AcDbBlockReference
  2
STDGX5
 10
56.66666666666666
 20
-100.0
 30
0.0
 41
0.3333333333333333
 42
0.3333333333333333
 43
0.3333333333333333
  0
INSERT
  5
A5A
330
B51
100
AcDbEntity
  8
0
100
AcDbBlockReference
  2
STDGX5
 10
56.66666666666666
 20
-100.0
 30
0.0
 41
0.3333333333333333
 42
0.3333333333333333
 43
0.3333333333333333
  0
INSERT
  5
A5B
330
B51
100
AcDbEntity
  8
0
100
AcDbBlockReference
  2
STDGX5
 10
0.0
 20
0.0
 30
0.0
  0
INSERT
  5
A5C
330
B51
100
AcDbEntity
  8
0
100
AcDbBlockReference
  2
STDGX5
 10
0.0
 20
0.0
 30
0.0
  0
INSERT
  5
A5D
330
B51
100
AcDbEntity
  8
0
100
AcDbBlockReference
  2
STDGX5
 10
275.0
 20
0.0
 30
0.0
  0
INSERT
  5
A5E
330
B51
100
AcDbEntity
  8
0
100
AcDbBlockReference
  2
STDGX5
 10
275.0
 20
0.0
 30
0.0
  0
LINE
  5
C82
330
B51
100
AcDbEntity
  8
2
100
AcDbLine
 10
108.8569386545729
 20
126.2436726047492
 30
0.0
 11
112.3924725605056
 21
129.7792065106819
 31
0.0
  0
LINE
  5
C83
330
B51
100
AcDbEntity
  8
2
100
AcDbLine
 10
108.7934941028955
 20
126.9194716289339
 30
0.0
 11
111.7166735363209
 21
129.8426510623594
 31
0.0
  0
LINE
  5
C84
330
B51
100
AcDbEntity
  8
2
100
AcDbLine
 10
111.7166735363209
 20
129.8426510623594
 30
0.0
 11
112.3924725605056
 21
129.7792065106819
 31
0.0
  0
LINE
  5
C85
330
B51
100
AcDbEntity
  8
2
100
AcDbLine
 10
108.7934941028954
 20
126.9194716289339
 30
0.0
 11
108.8569386545729
 21
126.2436726047492
 31
0.0
  0
TEXT
  5
C86
330
B51
100
AcDbEntity
  8
0
100
AcDbText
 10
180.8814617987144
 20
227.1007286270741
 30
0.0
 40
6.2
  1
3
 50
270.0
100
AcDbText
  0
ENDSEC
  0
SECTION
  2
OBJECTS
  0
DICTIONARY
  5
B3F
330
0
100
AcDbDictionary
281
     1
  3
ACAD_GROUP
350
B40
  3
ACAD_LAYOUT
350
B4C
  3
ACAD_MLINESTYLE
350
B49
  3
ACAD_PLOTSETTINGS
350
B4B
  3
ACAD_PLOTSTYLENAME
350
B41
  3
AcDbVariableDictionary
350
B74
  3
AcmDictionary
350
C3D
  3
AMG
350
B83
  3
AMGSNAPSETTINGS
350
C7B
  3
DWGPROPS
350
C40
  3
MAPISURF_MODULE
350
C0F
  3
Simple$CDFRecord
350
B68
  3
Simple$Histroy
350
B66
  3
Simple$System
350
B67
  0
DICTIONARY
  5
C87
330
B51
100
AcDbDictionary
280
     1
281
     1
  3
ACAD_INDEX
360
C88
  0
DICTIONARY
  5
B40
102
{ACAD_REACTORS
330
B3F
102
}
330
B3F
100
AcDbDictionary
281
     1
  0
DICTIONARY
  5
B4C
102
{ACAD_REACTORS
330
B3F
102
}
330
B3F
100
AcDbDictionary
281
     1
  3
Model
350
B54
  3
ﾚｲｱｳﾄ1
350
B50
  0
DICTIONARY
  5
B49
102
{ACAD_REACTORS
330
B3F
102
}
330
B3F
100
AcDbDictionary
281
     1
  3
Standard
350
B4A
  0
DICTIONARY
  5
B4B
102
{ACAD_REACTORS
330
B3F
102
}
330
B3F
100
AcDbDictionary
281
     1
  0
ACDBDICTIONARYWDFLT
  5
B41
102
{ACAD_REACTORS
330
B3F
102
}
330
B3F
100
AcDbDictionary
281
     1
  3
Normal
350
B42
100
AcDbDictionaryWithDefault
340
B42
  0
DICTIONARY
  5
B74
102
{ACAD_REACTORS
330
B3F
102
}
330
B3F
100
AcDbDictionary
281
     1
  3
DIMASSOC
350
B75
  3
INDEXCTL
350
C8F
  0
DICTIONARY
  5
C3D
102
{ACAD_REACTORS
330
B3F
102
}
330
B3F
100
AcDbDictionary
281
     1
  3
AcmBOMDATA
350
C3E
  3
AcmStdDictionary
350
C4C
  0
DICTIONARY
  5
B83
102
{ACAD_REACTORS
330
B3F
102
}
330
B3F
100
AcDbDictionary
281
     1
  3
AcMgSettings
350
B84
  3
AMGLAYCFG
350
C4E
  0
DICTIONARY
  5
C7B
102
{ACAD_REACTORS
330
B3F
102
}
330
B3F
100
AcDbDictionary
281
     1
  3
DIMENSION
350
C80
  3
FEA
350
C7F
  3
HATCH (1)
350
C7C
  3
HATCH (2)
350
C7D
  3
SIMPLE WELD
350
C81
  3
SYMBOLS
350
C7E
  0
XRECORD
  5
C40
102
{ACAD_REACTORS
330
B3F
102
}
330
B3F
100
AcDbXrecord
280
     1
  1
DWGPROPS COOKIE
  2

  3

  4

  6

  7

  8

  9

300
AmdtFileType=84
301
=
302
=
303
=
304
=
305
=
306
=
307
=
308
=
309
=
 40
0.114638599537037
 41
2449954.602013888
 42
2453220.794615879
  1

 90
        1
  0
XRECORD
  5
B68
102
{ACAD_REACTORS
330
B3F
102
}
330
B3F
100
AcDbXrecord
280
     1
  1

  0
XRECORD
  5
B66
102
{ACAD_REACTORS
330
B3F
102
}
330
B3F
100
AcDbXrecord
280
     1
  1
2003年01月09日　20:51^J^J^J
  0
XRECORD
  5
B67
102
{ACAD_REACTORS
330
B3F
102
}
330
B3F
100
AcDbXrecord
280
     1
  1
"14Q1FY",0,0,"1.25","0",0,0,0,1,"","",0,0,0,0,"",20,0,0,0,"\x81\x41\x81\x42\x81\x43\x81\x44\x81\x48\x81\x49\x81\x6A\x81\x6C\x81\x6E\x81\x70\x81\x72\x81\x74\x81\x76\x81\x78\x81\x7A\x29\x5D\x7D\xA3\xA4\xA1","\x81\x69\x81\x6B\x81\x6D\x81\x6F\x81\x71\x81\x73\x81\x75\x81\x77\x81\x79\x28\x5B\xA2\x7B","\x81\x69\x28\x81\x6A\x29\x81\x6D\x5B\x81\x6E\x5D\x81\x6F\x7B\x81\x70\x7D\x81\x75\xA2\x81\x76\xA3\x81\x41\xA4\x81\x42\xA1\x81\x43\x2C\x81\x44\x2E\x81\x45\xA5"
  2
50,"0",0,1,0
  3
|><@~^ %$~
  4
0,"0","0"
  6
0,0,0,0,0,"0",0
  8
0,""
 38
1.0
  0
DICTIONARY
  5
C88
102
{ACAD_REACTORS
330
C87
102
}
330
C87
100
AcDbDictionary
281
     1
  3
*A1
350
C89
  0
LAYOUT
  5
B54
102
{ACAD_REACTORS
330
B4C
102
}
330
B4C
100
AcDbPlotSettings
  1

  2
Canon LASER SHOT LBP-1510
  4

  6

 40
0.0
 41
0.0
 42
0.0
 43
0.0
 44
0.0
 45
0.0
 46
0.0
 47
0.0
 48
0.0
 49
0.0
140
0.0
141
0.0
142
1.0
143
1.0
 70
  1712
 72
     0
 73
     0
 74
     0
  7

 75
     0
147
1.0
148
0.0
149
0.0
100
AcDbLayout
  1
Model
 70
     1
 71
     0
 10
0.0
 20
0.0
 11
12.0
 21
9.0
 12
0.0
 22
0.0
 32
0.0
 14
0.0
 24
0.0
 34
0.0
 15
0.0
 25
0.0
 35
0.0
146
0.0
 13
0.0
 23
0.0
 33
0.0
 16
1.0
 26
0.0
 36
0.0
 17
0.0
 27
1.0
 37
0.0
 76
     0
330
B51
  0
LAYOUT
  5
B50
102
{ACAD_REACTORS
330
B4C
102
}
330
B4C
100
AcDbPlotSettings
  1

  2
Canon LASER SHOT LBP-1510
  4

  6

 40
0.0
 41
0.0
 42
0.0
 43
0.0
 44
0.0
 45
0.0
 46
0.0
 47
0.0
 48
0.0
 49
0.0
140
0.0
141
0.0
142
1.0
143
1.0
 70
   688
 72
     0
 73
     0
 74
     5
  7

 75
    16
147
1.0
148
0.0
149
0.0
100
AcDbLayout
  1
ﾚｲｱｳﾄ1
 70
     0
 71
     1
 10
0.0
 20
0.0
 11
12.0
 21
9.0
 12
0.0
 22
0.0
 32
0.0
 14
1.000000000000000E+20
 24
1.000000000000000E+20
 34
1.000000000000000E+20
 15
-1.000000000000000E+20
 25
-1.000000000000000E+20
 35
-1.000000000000000E+20
146
0.0
 13
0.0
 23
0.0
 33
0.0
 16
1.0
 26
0.0
 36
0.0
 17
0.0
 27
1.0
 37
0.0
 76
     0
330
B4D
  0
MLINESTYLE
  5
B4A
102
{ACAD_REACTORS
330
B49
102
}
330
B49
100
AcDbMlineStyle
  2
STANDARD
 70
     0
  3

 62
   256
 51
90.0
 52
90.0
 71
     2
 49
0.5
 62
   256
  6
BYLAYER
 49
-0.5
 62
   256
  6
BYLAYER
  0
ACDBPLACEHOLDER
  5
B42
102
{ACAD_REACTORS
330
B41
102
}
330
B41
  0
DICTIONARYVAR
  5
B75
102
{ACAD_REACTORS
330
B74
102
}
330
B74
100
DictionaryVariables
280
     0
  1
0
  0
DICTIONARYVAR
  5
C8F
102
{ACAD_REACTORS
330
B74
102
}
330
B74
100
DictionaryVariables
280
     0
  1
1
  0
ACMDATADICTIONARY
  5
C3E
102
{ACAD_REACTORS
330
C3D
102
}
330
C3D
100
AcDbDictionary
281
     1
  3
*A1
350
C3F
100
AcmDataDictionary
  0
DICTIONARY
  5
C4C
102
{ACAD_REACTORS
330
C3D
102
}
330
C3D
100
AcDbDictionary
281
     1
  3
ANSI
350
C4D
  0
DICTIONARY
  5
B84
102
{ACAD_REACTORS
330
B83
102
}
330
B83
100
AcDbDictionary
281
     1
  3
DWGSETTINGS
350
B85
  3
TRANSSETTINGS
350
B89
  0
ACAMGFILTERDAT
  5
C80
102
{ACAD_REACTORS
330
C7B
102
}
330
C7B
100
AcAmgFilterDat
 70
    15
  1
DIMENSION,AMDT_*_DIM
  2
*
  3
*
  4
*
  5
*
290
     1
  0
ACAMGFILTERDAT
  5
C7F
102
{ACAD_REACTORS
330
C7B
102
}
330
C7B
100
AcAmgFilterDat
 70
    15
  1
*
  2
AM_FEA-AM_*
  3
*
  4
*
  5
*
290
     1
  0
ACAMGFILTERDAT
  5
C7C
102
{ACAD_REACTORS
330
C7B
102
}
330
C7B
100
AcAmgFilterDat
 70
    15
  1
HATCH
  2
*
  3
*
  4
*
  5
*
290
     1
  0
ACAMGFILTERDAT
  5
C7D
102
{ACAD_REACTORS
330
C7B
102
}
330
C7B
100
AcAmgFilterDat
 70
    15
  1
LINE
  2
8,8N,*-8,*-8N,AM_8,AM_8N,*-AM_8,*-AM_8N
  3
*
  4
*
  5
INSERT,STDPART2D
290
     1
  0
ACAMGFILTERDAT
  5
C81
102
{ACAD_REACTORS
330
C7B
102
}
330
C7B
100
AcAmgFilterDat
 70
    15
  1
ARC
  2
AM_5
  3
*
  4
2
  5
INSERT
290
     0
  0
ACAMGFILTERDAT
  5
C7E
102
{ACAD_REACTORS
330
C7B
102
}
330
C7B
100
AcAmgFilterDat
 70
    15
  1
ACMFCFRAME,ACMDATUMTARGET,ACMDATUMID,ACMWELDSYM,ACMSURFSYM,ACMFEATID,ACMPARTREF,ACMBALLOON,AMDTEDGESYM,AMGSCREWCALCTABLE
  2
*
  3
*
  4
*
  5
*
290
     1
  0
LAYER_INDEX
  5
C89
102
{ACAD_REACTORS
330
C88
102
}
330
C88
100
AcDbIndex
 40
2454537.383211805
100
AcDbLayerIndex
  8
0
360
C8A
 90
      168
  8
1
360
C8B
 90
       20
  8
3
360
C8C
 90
       35
  8
2
360
C8D
 90
       13
  0
ACMDATAENTRYBLOCK
  5
C3F
102
{ACAD_REACTORS
330
C3E
102
}
330
C3E
100
AcmDataEntry
100
AcmDataEntryBlock
  0
IDBUFFER
  5
C8A
330
0
100
AcDbIdBuffer
330
38A
330
38B
330
38C
330
38D
330
452
330
453
330
454
330
455
330
7B1
330
7B2
330
7B3
330
7B4
330
937
330
939
330
93A
330
93B
330
93C
330
93D
330
93E
330
93F
330
940
330
941
330
942
330
943
330
944
330
94B
330
94D
330
951
330
952
330
953
330
954
330
955
330
956
330
957
330
959
330
95A
330
95B
330
95C
330
95D
330
95E
330
971
330
988
330
98A
330
98B
330
98C
330
98D
330
98E
330
98F
330
990
330
991
330
992
330
994
330
995
330
99C
330
99D
330
99E
330
99F
330
9A0
330
9A1
330
9A2
330
9A3
330
9A4
330
9A5
330
9A6
330
9A8
330
9A9
330
9AB
330
9AC
330
9AD
330
9AE
330
9AF
330
9B0
330
9B1
330
9B2
330
9B3
330
9B4
330
9B5
330
9B6
330
9B7
330
9B8
330
9B9
330
9BA
330
9BB
330
9BD
330
9BE
330
9BF
330
9C0
330
9C1
330
9C2
330
9C3
330
9C4
330
9C5
330
9C7
330
9C8
330
9C9
330
9CA
330
9CB
330
9EF
330
9F0
330
9F1
330
9F2
330
9F3
330
9F4
330
9F6
330
9F7
330
9F8
330
9F9
330
9FA
330
9FB
330
9FC
330
9FD
330
9FE
330
9FF
330
A00
330
A01
330
A02
330
A03
330
A04
330
A05
330
A06
330
A07
330
A08
330
A11
330
A12
330
A13
330
A14
330
A34
330
A35
330
A36
330
A37
330
A38
330
A39
330
A3A
330
A3B
330
A3C
330
A3D
330
A3E
330
A3F
330
A40
330
A41
330
A42
330
A43
330
A44
330
A45
330
A46
330
A47
330
A48
330
A49
330
A4A
330
A4B
330
A4C
330
A4D
330
A4E
330
A4F
330
A50
330
A52
330
A53
330
A54
330
A55
330
A57
330
A58
330
A59
330
A5A
330
A5B
330
A5C
330
A5D
330
A5E
330
C86
  0
IDBUFFER
  5
C8B
330
0
100
AcDbIdBuffer
330
945
330
946
330
958
330
983
330
989
330
993
330
996
330
997
330
9A7
330
9AA
330
9C6
330
9F5
330
A09
330
A0A
330
A0B
330
A0C
330
A0D
330
A0E
330
A0F
330
A10
  0
IDBUFFER
  5
C8C
330
0
100
AcDbIdBuffer
330
94C
330
94E
330
95F
330
9DD
330
A15
330
A16
330
A17
330
A18
330
A19
330
A1A
330
A1B
330
A1C
330
A1D
330
A1E
330
A1F
330
A20
330
A21
330
A22
330
A23
330
A24
330
A25
330
A26
330
A27
330
A28
330
A29
330
A2A
330
A2B
330
A2C
330
A2D
330
A2E
330
A2F
330
A30
330
A31
330
A32
330
A33
  0
IDBUFFER
  5
C8D
330
0
100
AcDbIdBuffer
330
947
330
948
330
949
330
94A
330
950
330
998
330
999
330
99A
330
99B
330
C82
330
C83
330
C84
330
C85
  0
ENDSEC
  0
EOF
