  0
SECTION
  2
HEADER
  9
$ACADVER
  1
AC1015
  9
$ACADMAINTVER
 70
    13
  9
$DWGCODEPAGE
  3
ANSI_932
  9
$INSBASE
 10
0.0
 20
0.0
 30
0.0
  9
$EXTMIN
 10
41.61644074089872
 20
26.13235539539289
 30
-0.0015258207003583
  9
$EXTMAX
 10
314.3005379118262
 20
258.9051825004923
 30
0.0000000349246037
  9
$LIMMIN
 10
0.0
 20
0.0
  9
$LIMMAX
 10
375.0
 20
270.0
  9
$ORTHOMODE
 70
     1
  9
$REGENMODE
 70
     1
  9
$FILLMODE
 70
     1
  9
$QTEXTMODE
 70
     0
  9
$MIRRTEXT
 70
     0
  9
$LTSCALE
 40
10.0
  9
$ATTMODE
 70
     1
  9
$TEXTSIZE
 40
6.2
  9
$TRACEWID
 40
0.05
  9
$TEXTSTYLE
  7
STANDARD
  9
$CLAYER
  8
0
  9
$CELTYPE
  6
ByLayer
  9
$CECOLOR
 62
   256
  9
$CELTSCALE
 40
1.0
  9
$DISPSILH
 70
     0
  9
$DIMSCALE
 40
1.0
  9
$DIMASZ
 40
3.0
  9
$DIMEXO
 40
2.0
  9
$DIMDLI
 40
0.38
  9
$DIMRND
 40
0.0
  9
$DIMDLE
 40
0.0
  9
$DIMEXE
 40
2.0
  9
$DIMTP
 40
0.0
  9
$DIMTM
 40
0.0
  9
$DIMTXT
 40
3.2
  9
$DIMCEN
 40
0.0
  9
$DIMTSZ
 40
0.0
  9
$DIMTOL
 70
     0
  9
$DIMLIM
 70
     0
  9
$DIMTIH
 70
     0
  9
$DIMTOH
 70
     0
  9
$DIMSE1
 70
     0
  9
$DIMSE2
 70
     0
  9
$DIMTAD
 70
     1
  9
$DIMZIN
 70
     0
  9
$DIMBLK
  1

  9
$DIMASO
 70
     0
  9
$DIMSHO
 70
     0
  9
$DIMPOST
  1

  9
$DIMAPOST
  1

  9
$DIMALT
 70
     0
  9
$DIMALTD
 70
     2
  9
$DIMALTF
 40
25.4
  9
$DIMLFAC
 40
1.0
  9
$DIMTOFL
 70
     0
  9
$DIMTVP
 40
1.6
  9
$DIMTIX
 70
     1
  9
$DIMSOXD
 70
     0
  9
$DIMSAH
 70
     0
  9
$DIMBLK1
  1

  9
$DIMBLK2
  1

  9
$DIMSTYLE
  2
STANDARD
  9
$DIMCLRD
 70
     4
  9
$DIMCLRE
 70
     4
  9
$DIMCLRT
 70
     4
  9
$DIMTFAC
 40
1.0
  9
$DIMGAP
 40
0.09
  9
$DIMJUST
 70
     0
  9
$DIMSD1
 70
     0
  9
$DIMSD2
 70
     0
  9
$DIMTOLJ
 70
     1
  9
$DIMTZIN
 70
     0
  9
$DIMALTZ
 70
     0
  9
$DIMALTTZ
 70
     0
  9
$DIMUPT
 70
     0
  9
$DIMDEC
 70
     1
  9
$DIMTDEC
 70
     1
  9
$DIMALTU
 70
     2
  9
$DIMALTTD
 70
     2
  9
$DIMTXSTY
  7
STANDARD
  9
$DIMAUNIT
 70
     0
  9
$DIMADEC
 70
     0
  9
$DIMALTRND
 40
0.0
  9
$DIMAZIN
 70
     0
  9
$DIMDSEP
 70
    46
  9
$DIMATFIT
 70
     3
  9
$DIMFRAC
 70
     0
  9
$DIMLDRBLK
  1

  9
$DIMLUNIT
 70
     2
  9
$DIMLWD
 70
    -2
  9
$DIMLWE
 70
    -2
  9
$DIMTMOVE
 70
     2
  9
$LUNITS
 70
     2
  9
$LUPREC
 70
     1
  9
$SKETCHINC
 40
0.1
  9
$FILLETRAD
 40
22.0
  9
$AUNITS
 70
     0
  9
$AUPREC
 70
     0
  9
$MENU
  1
E:\r13\win\SUPPORT\ACAD
  9
$ELEVATION
 40
0.0
  9
$PELEVATION
 40
0.0
  9
$THICKNESS
 40
0.0
  9
$LIMCHECK
 70
     0
  9
$CHAMFERA
 40
1.199999999999999
  9
$CHAMFERB
 40
1.199999999999999
  9
$CHAMFERC
 40
0.0
  9
$CHAMFERD
 40
0.0
  9
$SKPOLY
 70
     0
  9
$TDCREATE
 40
2449954.602013888
  9
$TDUCREATE
 40
2449954.227013888
  9
$TDUPDATE
 40
2454537.386416377
  9
$TDUUPDATE
 40
2454537.011416377
  9
$TDINDWG
 40
0.1165487616
  9
$TDUSRTIMER
 40
0.1165487616
  9
$USRTIMER
 70
     1
  9
$ANGBASE
 50
0.0
  9
$ANGDIR
 70
     0
  9
$PDMODE
 70
     0
  9
$PDSIZE
 40
0.0
  9
$PLINEWID
 40
0.0
  9
$SPLFRAME
 70
     0
  9
$SPLINETYPE
 70
     6
  9
$SPLINESEGS
 70
     8
  9
$HANDSEED
  5
F14
  9
$SURFTAB1
 70
     6
  9
$SURFTAB2
 70
     6
  9
$SURFTYPE
 70
     6
  9
$SURFU
 70
     6
  9
$SURFV
 70
     6
  9
$UCSBASE
  2

  9
$UCSNAME
  2

  9
$UCSORG
 10
0.0
 20
0.0
 30
0.0
  9
$UCSXDIR
 10
1.0
 20
0.0
 30
0.0
  9
$UCSYDIR
 10
0.0
 20
1.0
 30
0.0
  9
$UCSORTHOREF
  2

  9
$UCSORTHOVIEW
 70
     0
  9
$UCSORGTOP
 10
0.0
 20
0.0
 30
0.0
  9
$UCSORGBOTTOM
 10
0.0
 20
0.0
 30
0.0
  9
$UCSORGLEFT
 10
0.0
 20
0.0
 30
0.0
  9
$UCSORGRIGHT
 10
0.0
 20
0.0
 30
0.0
  9
$UCSORGFRONT
 10
0.0
 20
0.0
 30
0.0
  9
$UCSORGBACK
 10
0.0
 20
0.0
 30
0.0
  9
$PUCSBASE
  2

  9
$PUCSNAME
  2

  9
$PUCSORG
 10
0.0
 20
0.0
 30
0.0
  9
$PUCSXDIR
 10
1.0
 20
0.0
 30
0.0
  9
$PUCSYDIR
 10
0.0
 20
1.0
 30
0.0
  9
$PUCSORTHOREF
  2

  9
$PUCSORTHOVIEW
 70
     0
  9
$PUCSORGTOP
 10
0.0
 20
0.0
 30
0.0
  9
$PUCSORGBOTTOM
 10
0.0
 20
0.0
 30
0.0
  9
$PUCSORGLEFT
 10
0.0
 20
0.0
 30
0.0
  9
$PUCSORGRIGHT
 10
0.0
 20
0.0
 30
0.0
  9
$PUCSORGFRONT
 10
0.0
 20
0.0
 30
0.0
  9
$PUCSORGBACK
 10
0.0
 20
0.0
 30
0.0
  9
$USERI1
 70
     0
  9
$USERI2
 70
     1
  9
$USERI3
 70
     0
  9
$USERI4
 70
     0
  9
$USERI5
 70
     0
  9
$USERR1
 40
0.0
  9
$USERR2
 40
0.0
  9
$USERR3
 40
0.0
  9
$USERR4
 40
0.0
  9
$USERR5
 40
0.0
  9
$WORLDVIEW
 70
     1
  9
$SHADEDGE
 70
     3
  9
$SHADEDIF
 70
    70
  9
$TILEMODE
 70
     1
  9
$MAXACTVP
 70
    16
  9
$PINSBASE
 10
0.0
 20
0.0
 30
0.0
  9
$PLIMCHECK
 70
     0
  9
$PEXTMIN
 10
1.000000000000000E+20
 20
1.000000000000000E+20
 30
1.000000000000000E+20
  9
$PEXTMAX
 10
-1.000000000000000E+20
 20
-1.000000000000000E+20
 30
-1.000000000000000E+20
  9
$PLIMMIN
 10
0.0
 20
0.0
  9
$PLIMMAX
 10
12.0
 20
9.0
  9
$UNITMODE
 70
     0
  9
$VISRETAIN
 70
     0
  9
$PLINEGEN
 70
     0
  9
$PSLTSCALE
 70
     0
  9
$TREEDEPTH
 70
  3020
  9
$CMLSTYLE
  2
Standard
  9
$CMLJUST
 70
     0
  9
$CMLSCALE
 40
1.0
  9
$PROXYGRAPHICS
 70
     1
  9
$MEASUREMENT
 70
     0
  9
$CELWEIGHT
370
    -1
  9
$ENDCAPS
280
     0
  9
$JOINSTYLE
280
     0
  9
$LWDISPLAY
290
     0
  9
$INSUNITS
 70
     0
  9
$HYPERLINKBASE
  1

  9
$STYLESHEET
  1

  9
$XEDIT
290
     1
  9
$CEPSNTYPE
380
     0
  9
$PSTYLEMODE
290
     1
  9
$FINGERPRINTGUID
  2
{08FA618F-4B33-4873-8A5D-72E938EE1AAC}
  9
$VERSIONGUID
  2
{0452D579-9A3C-41AC-8EDC-128E675E2109}
  9
$EXTNAMES
290
     1
  9
$PSVPSCALE
 40
0.0
  9
$OLESTARTUP
290
     0
  0
ENDSEC
  0
SECTION
  2
CLASSES
  0
CLASS
  1
ACDBDICTIONARYWDFLT
  2
AcDbDictionaryWithDefault
  3
AutoCAD 2000
 90
        0
280
     0
281
     0
  0
CLASS
  1
ACDBPLACEHOLDER
  2
AcDbPlaceHolder
  3
AutoCAD 2000
 90
        0
280
     0
281
     0
  0
CLASS
  1
LAYOUT
  2
AcDbLayout
  3
AutoCAD 2000
 90
        0
280
     0
281
     0
  0
CLASS
  1
DICTIONARYVAR
  2
AcDbDictionaryVar
  3
AutoCAD 2000
 90
        0
280
     0
281
     0
  0
CLASS
  1
ACME_DOCUMENT
  2
AcMeDbDoc
  3
AcMeServices
 90
        0
280
     0
281
     0
  0
CLASS
  1
AMGSETTINGSOBJ
  2
AmgSettingsObj
  3
"AcadM|Product Description: AutoCAD Mechanical 2000|Company: Autodesk"
 90
        0
280
     0
281
     0
  0
CLASS
  1
ACMESCOPE
  2
AcMeScope
  3
AcMeServices
 90
        0
280
     0
281
     0
  0
CLASS
  1
ACMECOMMANDHISTORY
  2
AcMeCommandHistory
  3
AcMeServices
 90
        0
280
     0
281
     0
  0
CLASS
  1
ACIMSYSVARMAN
  2
AcImSysVarManager
  3
AcMeServices
 90
        0
280
     0
281
     0
  0
CLASS
  1
ACIMREALSYSVAR
  2
AcImRealSysVar
  3
AcMeServices
 90
        0
280
     0
281
     0
  0
CLASS
  1
ACIMINTSYSVAR
  2
AcImIntSysVar
  3
AcMeServices
 90
        0
280
     0
281
     0
  0
CLASS
  1
ACMEDRAWINGMAN
  2
AcMeDrawingMan
  3
AcMeServices
 90
        0
280
     0
281
     0
  0
CLASS
  1
ACMEVIEW
  2
AcMeView
  3
AcMeServices
 90
        0
280
     0
281
     0
  0
CLASS
  1
ACDBENTITYCACHE
  2
AcMeEntityCache
  3
AcMeServices
 90
        0
280
     0
281
     0
  0
CLASS
  1
GSMANAGER
  2
AcMeGSManager
  3
AcMeServices
 90
        0
280
     0
281
     0
  0
CLASS
  1
AMDTINTERNALREACTOR
  2
AmdtInternalReactor
  3
AcMeServices
 90
        0
280
     0
281
     0
  0
CLASS
  1
ACMESTATEMGR
  2
AcMeStateMgr
  3
AcMeServices
 90
        0
280
     0
281
     0
  0
CLASS
  1
ACGREFMASTER
  2
AcGrefMaster
  3
AcAttribServices
 90
        0
280
     0
281
     0
  0
CLASS
  1
AM_DRAWING_MGR
  2
AcDmDwgMgr
  3
AcMechDwgViewMgmt
 90
        0
280
     0
281
     0
  0
CLASS
  1
AM_DWG_DOCUMENT
  2
AcDmDwgDocument
  3
AcMechDwgViewMgmt
 90
        0
280
     0
281
     0
  0
CLASS
  1
AM_DWG_SHEET
  2
AcDmSheet
  3
AcMechDwgViewMgmt
 90
        0
280
     0
281
     0
  0
CLASS
  1
AM_VIEWDIMPARMAP
  2
AcDmViewDimParMap
  3
AcMechDwgViewMgmt
 90
        0
280
     0
281
     0
  0
CLASS
  1
AM_DWGMGR_NAME
  2
AcDmDwgMgrName
  3
AcMechDwgViewMgmt
 90
        0
280
     0
281
     0
  0
CLASS
  1
ACME_DATABASE
  2
AcMeDbDatabase
  3
AcMeServices
 90
        0
280
     0
281
     0
  0
CLASS
  1
ACRFINSADJUSTERMGR
  2
AcRfInsAdjusterMgr
  3
AcMeServices
 90
        0
280
     0
281
     0
  0
CLASS
  1
ACGREFACADMASTER
  2
AcGrefacadMaster
  3
AcGrefServices
 90
        0
280
     0
281
     0
  0
CLASS
  1
AMDTMENUSTATEMGR
  2
AmdtMenuStateMgr
  3
McadcomServices
 90
        0
280
     0
281
     0
  0
CLASS
  1
AMDTMCOMMENUSTATE
  2
AmdtMcomMenuState
  3
McadcomServices
 90
        0
280
     0
281
     0
  0
CLASS
  1
AMIMASTER
  2
AmiMaster
  3
AmiServices
 90
        0
280
     0
281
     0
  0
CLASS
  1
ASAPP
  2
AcAsAppObject
  3
AutoSurfServices
 90
        0
280
     0
281
     0
  0
CLASS
  1
IM_STATIC_MAN
  2
AcImStaticVarManager
  3
AcMeServices
 90
        0
280
     0
281
     0
  0
CLASS
  1
ACIMSTRSYSVAR
  2
AcImStrSysVar
  3
AcMeServices
 90
        0
280
     0
281
     0
  0
CLASS
  1
ACIMDBLSTATICVAR
  2
AcImDblStaticVar
  3
AcMeServices
 90
        0
280
     0
281
     0
  0
CLASS
  1
ACIMSTRSTATICVAR
  2
AcImStrStaticVar
  3
AcMeServices
 90
        0
280
     0
281
     0
  0
CLASS
  1
ACIMINTSTATICVAR
  2
AcImIntStaticVar
  3
AcMeServices
 90
        0
280
     0
281
     0
  0
CLASS
  1
ACASGREFMASTER
  2
AcAsGrefMaster
  3
AutoSurfResolverServices
 90
        0
280
     0
281
     0
  0
CLASS
  1
ACADGREFMODULE
  2
AcAdGrefModule
  3
AdGrefServices
 90
        0
280
     0
281
     0
  0
CLASS
  1
AMDTMAPISURFMOUDULE
  2
AmdtMApiSurfModule
  3
MApiSurfServices
 90
        0
280
     0
281
     0
  0
CLASS
  1
MAPIAMMOUDLE
  2
MApiAmModule
  3
MApiAmServices
 90
        0
280
     0
281
     0
  0
CLASS
  1
AMDTADMENUSTATE
  2
AmdtAdMenuState
  3
DesignerServices
 90
        0
280
     0
281
     0
  0
CLASS
  1
ADAPPL
  2
AcAdAppl
  3
DesignerServices
 90
        0
280
     0
281
     0
  0
CLASS
  1
DEPMGR
  2
AcAdDepMgr
  3
DesignerServices
 90
        0
280
     0
281
     0
  0
CLASS
  1
PARAMMGR
  2
AcAdParamMgr
  3
DesignerServices
 90
        0
280
     0
281
     0
  0
CLASS
  1
PARAMSCOPE
  2
AcAdParamScope
  3
DesignerServices
 90
        0
280
     0
281
     0
  0
CLASS
  1
NAMEDAPPL
  2
AcAdNamedAppl
  3
DesignerServices
 90
        0
280
     0
281
     0
  0
CLASS
  1
AMDTDMMENUSTATE
  2
AmdtDmMenuState
  3
AcMechDwgViewMgmt
 90
        0
280
     0
281
     0
  0
CLASS
  1
MAPIADMODULE
  2
MApiAdModule
  3
MApiAdServices
 90
        0
280
     0
281
     0
  0
CLASS
  1
AMDTAMMENUSTATE
  2
AmdtAmMenuState
  3
DesignerAssemblies
 90
        0
280
     0
281
     0
  0
CLASS
  1
ACAMPROJECT
  2
AcAmProject
  3
DesignerAssemblies
 90
        0
280
     0
281
     0
  0
CLASS
  1
ACAMGRCOMPDEF
  2
AcAmGrCompDef
  3
DesignerAssemblies
 90
        0
280
     0
281
     0
  0
CLASS
  1
ACCMCONTEXT
  2
AcCmContext
  3
DesignerAssemblies
 90
        0
280
     0
281
     0
  0
CLASS
  1
ACAMCOMPDEF
  2
AcAmCompDef
  3
DesignerAssemblies
 90
        0
280
     0
281
     0
  0
CLASS
  1
ACAMCOMPDEFMGR
  2
AcAmCompDefMgr
  3
DesignerAssemblies
 90
        0
280
     0
281
     0
  0
CLASS
  1
AMCONTEXTMGR
  2
AcAmContextMgr
  3
DesignerAssemblies
 90
        0
280
     0
281
     0
  0
CLASS
  1
ACAMCONTEXTMODELER
  2
AcAmContextModeler
  3
DesignerAssemblies
 90
        0
280
     0
281
     0
  0
CLASS
  1
ACMDATADICTIONARY
  2
AcmDataDictionary
  3
"AcmSymBB|Product Description: AutoCAD Mechanical 2000|Company: Autodesk"
 90
        0
280
     0
281
     0
  0
CLASS
  1
ACMDATAENTRYBLOCK
  2
AcmDataEntryBlock
  3
"AcmSymBB|Product Description: AutoCAD Mechanical 2000|Company: Autodesk"
 90
        0
280
     0
281
     0
  0
CLASS
  1
CATALOGSTATE
  2
AcAmCatalogState
  3
DesignerAssemblies
 90
        0
280
     0
281
     0
  0
CLASS
  1
ACAMGRCOMPDEFSET
  2
AcAmGrCompDefSet
  3
DesignerAssemblies
 90
        0
280
     0
281
     0
  0
CLASS
  1
AMDTBROWSERDBTAB
  2
AmdtBrowserDbTab
  3
McadcomServices
 90
        0
280
     0
281
     0
  0
CLASS
  1
CBROWSERAPPOBJECT
  2
CBrowserAppObject
  3
McadcomServices
 90
        0
280
     0
281
     0
  0
CLASS
  1
DM_PLACEHOLDER
  2
AcDmSelsetPlaceholder
  3
AcMechDwgViewMgmt
 90
        0
280
     0
281
     0
  0
CLASS
  1
ACMSTANDARDANSI
  2
AcmStandardANSI
  3
"Amdt_StdImp|Product Description: AutoCAD Mechanical 2000|Company: Autodesk"
 90
        0
280
     0
281
     0
  0
CLASS
  1
AMGOBJPROPCFG
  2
AmgObjPropCfg
  3
"AmgLay|Product Description: AutoCAD Mechanical 2000|Company: Autodesk"
 90
        1
280
     0
281
     0
  0
CLASS
  1
ACMSURFSTANDARDANSI
  2
AcmSurfTextStdANSI
  3
"Amdt_StdImp|Product Description: AutoCAD Mechanical 2000|Company: Autodesk"
 90
        0
280
     0
281
     0
  0
CLASS
  1
ACMFCFSTANDARDANSI
  2
AcmFCFStdANSI
  3
"Amdt_StdImp|Product Description: AutoCAD Mechanical 2000|Company: Autodesk"
 90
        0
280
     0
281
     0
  0
CLASS
  1
ACMWELDSTANDARDANSI
  2
AcmWeldingStdANSI
  3
"Amdt_StdImp|Product Description: AutoCAD Mechanical 2000|Company: Autodesk"
 90
        0
280
     0
281
     0
  0
CLASS
  1
ACMIDSTANDARDANSI
  2
AcmIdStdANSI
  3
"Amdt_StdImp|Product Description: AutoCAD Mechanical 2000|Company: Autodesk"
 90
        0
280
     0
281
     0
  0
CLASS
  1
ACMDATUMSTANDARDANSI
  2
AcmDatumStdANSI
  3
"Amdt_StdImp|Product Description: AutoCAD Mechanical 2000|Company: Autodesk"
 90
        0
280
     0
281
     0
  0
CLASS
  1
ACMBOMSTANDARDANSI
  2
AcmBOMStdANSI
  3
"Amdt_StdImp|Product Description: AutoCAD Mechanical 2000|Company: Autodesk"
 90
        0
280
     0
281
     0
  0
CLASS
  1
ACMDETAILSTANDARDANSI
  2
AmdtDetailSymStdANSI
  3
"Amdt_StdImp|Product Description: AutoCAD Mechanical 2000|Company: Autodesk"
 90
        0
280
     0
281
     0
  0
CLASS
  1
ACMSECTIONSTANDARDANSI
  2
AmdtSectionSymStdANSI
  3
"Amdt_StdImp|Product Description: AutoCAD Mechanical 2000|Company: Autodesk"
 90
        0
280
     0
281
     0
  0
CLASS
  1
ACMCENTERLINESTANDARDANSI
  2
AmdtCenterLineStdANSI
  3
"Amdt_StdImp|Product Description: AutoCAD Mechanical 2000|Company: Autodesk"
 90
        0
280
     0
281
     0
  0
CLASS
  1
ACMTHREADLINESTANDARDANSI
  2
AmdtThreadLineStdANSI
  3
"Amdt_StdImp|Product Description: AutoCAD Mechanical 2000|Company: Autodesk"
 90
        0
280
     0
281
     0
  0
CLASS
  1
ACMNOTESTANDARDANSI
  2
AmdtNoteStdANSI
  3
"Amdt_StdImp|Product Description: AutoCAD Mechanical 2000|Company: Autodesk"
 90
        0
280
     0
281
     0
  0
CLASS
  1
ACAMGLAYSTD
  2
AcAmgLayStd
  3
"AcAmgLayStd|Product Description: AutoCAD Mechanical 2000|Company: Autodesk"
 90
        0
280
     0
281
     0
  0
CLASS
  1
ACAMGDIMSTD
  2
AcAmgDimStd
  3
"AcAmgDimStd|Product Description: AutoCAD Mechanical 2000|Company: Autodesk"
 90
        0
280
     0
281
     0
  0
CLASS
  1
ACAMGHOLECHARTSTDANSI
  2
AcAmgHoleChartStdANSI
  3
ACMSYMBB_MODULE_NAME
 90
        0
280
     0
281
     0
  0
CLASS
  1
ACAMGTITLESTD
  2
AcAmgTitleStd
  3
"TITLEAPP"
 90
        0
280
     0
281
     0
  0
CLASS
  1
LAYER_INDEX
  2
AcDbLayerIndex
  3
AutoCAD 2000
 90
        0
280
     0
281
     0
  0
CLASS
  1
IDBUFFER
  2
AcDbIdBuffer
  3
AutoCAD 2000
 90
        0
280
     0
281
     0
  0
CLASS
  1
ACAMGFILTERDAT
  2
AcAmgFilterDat
  3
"AcadM|Product Description: AutoCAD Mechanical 2000|Company: Autodesk"
 90
        0
280
     0
281
     0
  0
ENDSEC
  0
SECTION
  2
TABLES
  0
TABLE
  2
VPORT
  5
DBD
330
0
100
AcDbSymbolTable
 70
     5
  0
VPORT
  5
F13
330
DBD
100
AcDbSymbolTableRecord
100
AcDbViewportTableRecord
  2
*Active
 70
     0
 10
0.0
 20
0.0
 11
1.0
 21
1.0
 12
-142.0885822272482
 22
-41.8177410550083
 13
0.0
 23
0.0
 14
10.0
 24
10.0
 15
10.0
 25
10.0
 16
0.0
 26
0.0
 36
1.0
 17
329.5885822272482
 27
176.8177410550082
 37
0.0
 40
272.035175879397
 41
1.515723270440251
 42
50.0
 43
0.0
 44
0.0
 50
0.0
 51
0.0
 71
     0
 72
   500
 73
     1
 74
     0
 75
     0
 76
     0
 77
     0
 78
     2
281
     0
 65
     0
110
0.0
120
0.0
130
0.0
111
1.0
121
0.0
131
0.0
112
0.0
122
1.0
132
0.0
 79
     0
146
0.0
  0
ENDTAB
  0
TABLE
  2
LTYPE
  5
DBA
330
0
100
AcDbSymbolTable
 70
    18
  0
LTYPE
  5
DC8
330
DBA
100
AcDbSymbolTableRecord
100
AcDbLinetypeTableRecord
  2
ByBlock
 70
     0
  3

 72
    65
 73
     0
 40
0.0
  0
LTYPE
  5
DC9
330
DBA
100
AcDbSymbolTableRecord
100
AcDbLinetypeTableRecord
  2
ByLayer
 70
     0
  3

 72
    65
 73
     0
 40
0.0
  0
LTYPE
  5
DCA
330
DBA
100
AcDbSymbolTableRecord
100
AcDbLinetypeTableRecord
  2
CONTINUOUS
 70
     0
  3
Solid Line
 72
    65
 73
     0
 40
0.0
  0
LTYPE
  5
DD8
330
DBA
100
AcDbSymbolTableRecord
100
AcDbLinetypeTableRecord
  2
CENTER
 70
     0
  3
____ _ ____ _ ____ _ ____ _ ____ _ ____ _ ____
 72
    65
 73
     4
 40
2.0
 49
1.25
 74
     0
 49
-0.25
 74
     0
 49
0.25
 74
     0
 49
-0.25
 74
     0
  0
LTYPE
  5
DD9
330
DBA
100
AcDbSymbolTableRecord
100
AcDbLinetypeTableRecord
  2
HIDDEN
 70
     0
  3
_ _ _ _ _ _ _ _ _ _ _ _ _ _ _ _ _ _ _ _ _ _ _
 72
    65
 73
     2
 40
0.375
 49
0.25
 74
     0
 49
-0.125
 74
     0
  0
LTYPE
  5
E2A
330
DBA
100
AcDbSymbolTableRecord
100
AcDbLinetypeTableRecord
  2
PHANTOM2
 70
     0
  3
Phantom (.5x) ___ _ _ ___ _ _ ___ _ _ ___ _ _
 72
    65
 73
     6
 40
1.25
 49
0.625
 74
     0
 49
-0.125
 74
     0
 49
0.125
 74
     0
 49
-0.125
 74
     0
 49
0.125
 74
     0
 49
-0.125
 74
     0
  0
LTYPE
  5
E8C
330
DBA
100
AcDbSymbolTableRecord
100
AcDbLinetypeTableRecord
  2
ASULTYPE
 70
     0
  3
実線
 72
    65
 73
     2
 40
3.0
 49
2.5
 74
     0
 49
0.5
 74
     0
  0
LTYPE
  5
E8D
330
DBA
100
AcDbSymbolTableRecord
100
AcDbLinetypeTableRecord
  2
ASVLTYPE
 70
     0
  3
__ __ __ __ __ __ __ __ __ __ __ __ __ __ __ __ __ __ __ __ __
 72
    65
 73
     2
 40
0.75
 49
0.5
 74
     0
 49
-0.25
 74
     0
  0
LTYPE
  5
ED1
330
DBA
100
AcDbSymbolTableRecord
100
AcDbLinetypeTableRecord
  2
AM_ISO02W050
 70
     0
  3
__ __ __ __ __ __ __ __ __ __ __ __ __ __ __
 72
    65
 73
     2
 40
7.5
 49
6.0
 74
     0
 49
-1.5
 74
     0
  0
LTYPE
  5
ED2
330
DBA
100
AcDbSymbolTableRecord
100
AcDbLinetypeTableRecord
  2
AM_ISO08W050
 70
     0
  3
____ . ____ . ____ . ____ . ____ . ____ . ____
 72
    65
 73
     4
 40
18.0
 49
12.0
 74
     0
 49
-1.5
 74
     0
 49
3.0
 74
     0
 49
-1.5
 74
     0
  0
LTYPE
  5
ED3
330
DBA
100
AcDbSymbolTableRecord
100
AcDbLinetypeTableRecord
  2
AM_ISO09W050
 70
     0
  3
_____ . . _____ . . _____ . . ____ .. ____
 72
    65
 73
     6
 40
22.5
 49
12.0
 74
     0
 49
-1.5
 74
     0
 49
3.0
 74
     0
 49
-1.5
 74
     0
 49
3.0
 74
     0
 49
-1.5
 74
     0
  0
LTYPE
  5
ED4
330
DBA
100
AcDbSymbolTableRecord
100
AcDbLinetypeTableRecord
  2
Amconstr
 70
     0
  3
_______________________
 72
    65
 73
     2
 40
9999.0
 49
9999.0
 74
     0
 49
0.0
 74
     0
  0
LTYPE
  5
ED5
330
DBA
100
AcDbSymbolTableRecord
100
AcDbLinetypeTableRecord
  2
AM_ISO08W050x2
 70
     0
  3
__ . __ . __ . __ . __ . __
 72
    65
 73
     4
 40
9.0
 49
6.0
 74
     0
 49
-0.75
 74
     0
 49
1.5
 74
     0
 49
-0.75
 74
     0
  0
LTYPE
  5
ED6
330
DBA
100
AcDbSymbolTableRecord
100
AcDbLinetypeTableRecord
  2
AM_ISO02W050x2
 70
     0
  3
 _ _ _ _ _ _ _ _ _ _ _ _
 72
    65
 73
     2
 40
3.75
 49
3.0
 74
     0
 49
-0.75
 74
     0
  0
LTYPE
  5
ED9
330
DBA
100
AcDbSymbolTableRecord
100
AcDbLinetypeTableRecord
  2
Amzigzag
 70
     0
  3
/\/-/\/-/\/-/\/-/\/-/\/
 72
    65
 73
     2
 40
11.00009999999999
 49
0.0001
 74
     4
 75
   135
340
ED8
 46
0.04
 50
0.0
 44
0.0
 45
0.0
 49
-11.0
 74
     0
  0
LTYPE
  5
EDA
330
DBA
100
AcDbSymbolTableRecord
100
AcDbLinetypeTableRecord
  2
CENTER2
 70
     0
  3
Center (.5x) ___ _ ___ _ ___ _ ___ _ ___ _ ___
 72
    65
 73
     4
 40
1.125
 49
0.75
 74
     0
 49
-0.125
 74
     0
 49
0.125
 74
     0
 49
-0.125
 74
     0
  0
LTYPE
  5
EDB
330
DBA
100
AcDbSymbolTableRecord
100
AcDbLinetypeTableRecord
  2
HIDDEN2
 70
     0
  3
Hidden (.5x) _ _ _ _ _ _ _ _ _ _ _ _ _ _ _ _ _
 72
    65
 73
     2
 40
0.1875
 49
0.125
 74
     0
 49
-0.0625
 74
     0
  0
LTYPE
  5
EDC
330
DBA
100
AcDbSymbolTableRecord
100
AcDbLinetypeTableRecord
  2
Amzigzag2
 70
     0
  3
/\/-/\/-/\/-/\/-/\/-/\/
 72
    65
 73
     2
 40
0.4401
 49
0.0001
 74
     4
 75
   135
340
ED8
 46
0.0016
 50
0.0
 44
0.0
 45
0.0
 49
-0.4400000000000001
 74
     0
  0
LTYPE
  5
EEA
330
DBA
100
AcDbSymbolTableRecord
100
AcDbLinetypeTableRecord
  2
ACANSTGB
 70
     0
  3
__ . . __ . .
 72
    65
 73
     6
 40
0.35433070866
 49
0.15748031496
 74
     0
 49
-0.03937007874
 74
     0
 49
0.03937007874
 74
     0
 49
-0.03937007874
 74
     0
 49
0.03937007874
 74
     0
 49
-0.03937007874
 74
     0
  0
LTYPE
  5
EEB
330
DBA
100
AcDbSymbolTableRecord
100
AcDbLinetypeTableRecord
  2
ACANSTGL
 70
     0
  3
_ _ _ _ _
 72
    65
 73
     2
 40
0.11811023622
 49
0.07874015748
 74
     0
 49
-0.03937007874
 74
     0
  0
ENDTAB
  0
TABLE
  2
LAYER
  5
DB7
330
0
100
AcDbSymbolTable
 70
     4
  0
LAYER
  5
DC5
330
DB7
100
AcDbSymbolTableRecord
100
AcDbLayerTableRecord
  2
0
 70
     0
 62
     7
  6
CONTINUOUS
370
    -3
390
DC4
  0
LAYER
  5
DDD
330
DB7
100
AcDbSymbolTableRecord
100
AcDbLayerTableRecord
  2
1
 70
     0
 62
     1
  6
CENTER
370
    -3
390
DC4
  0
LAYER
  5
DDE
330
DB7
100
AcDbSymbolTableRecord
100
AcDbLayerTableRecord
  2
3
 70
     0
 62
     7
  6
CONTINUOUS
370
    -3
390
DC4
  0
LAYER
  5
DE1
330
DB7
100
AcDbSymbolTableRecord
100
AcDbLayerTableRecord
  2
2
 70
     0
 62
     3
  6
HIDDEN
370
    -3
390
DC4
  0
ENDTAB
  0
TABLE
  2
STYLE
  5
DB8
330
0
100
AcDbSymbolTable
 70
     4
  0
STYLE
  5
DC6
330
DB8
100
AcDbSymbolTableRecord
100
AcDbTextStyleTableRecord
  2
STANDARD
 70
     0
 40
0.0
 41
1.0
 50
0.0
 71
     0
 42
6.2
  3
SIMPLEX
  4
BIGFONT
  0
STYLE
  5
ED8
330
DB8
100
AcDbSymbolTableRecord
100
AcDbTextStyleTableRecord
  2

 70
     1
 40
0.0
 41
1.0
 50
0.0
 71
     0
 42
4.000000000000048
  3
ltypeshp.shx
  4

  0
STYLE
  5
EDD
330
DB8
100
AcDbSymbolTableRecord
100
AcDbTextStyleTableRecord
  2
ACANSTS
 70
     0
 40
1.0
 41
1.0
 50
0.0
 71
     0
 42
4.000000000000048
  3
romans.shx
  4
extfont.shx
  0
STYLE
  5
EE9
330
DB8
100
AcDbSymbolTableRecord
100
AcDbTextStyleTableRecord
  2
ACANSGDT
 70
     0
 40
0.0
 41
1.0
 50
0.0
 71
     0
 42
4.000000000000048
  3
amgdtans.shx
  4

  0
ENDTAB
  0
TABLE
  2
VIEW
  5
DBB
330
0
100
AcDbSymbolTable
 70
     1
  0
VIEW
  5
DDA
330
DBB
100
AcDbSymbolTableRecord
100
AcDbViewTableRecord
  2
ALL
 70
     0
 40
270.0
 10
220.7859531772575
 20
135.0
 41
441.571906354515
 11
0.0
 21
0.0
 31
1.0
 12
0.0
 22
0.0
 32
0.0
 42
50.0
 43
0.0
 44
0.0
 50
0.0
 71
     0
281
     0
 72
     0
  0
ENDTAB
  0
TABLE
  2
UCS
  5
DBC
330
0
100
AcDbSymbolTable
 70
     0
  0
ENDTAB
  0
TABLE
  2
APPID
  5
DBE
330
0
100
AcDbSymbolTable
 70
    13
  0
APPID
  5
DC7
330
DBE
100
AcDbSymbolTableRecord
100
AcDbRegAppTableRecord
  2
ACAD
 70
     0
  0
APPID
  5
E08
330
DBE
100
AcDbSymbolTableRecord
100
AcDbRegAppTableRecord
  2
GENIUS_GENDIM_13
 70
     0
  0
APPID
  5
E09
330
DBE
100
AcDbSymbolTableRecord
100
AcDbRegAppTableRecord
  2
GENIUS_GENDTOL_13
 70
     0
  0
APPID
  5
E0A
330
DBE
100
AcDbSymbolTableRecord
100
AcDbRegAppTableRecord
  2
GENIUS_GE3DTOL_13
 70
     0
  0
APPID
  5
E0D
330
DBE
100
AcDbSymbolTableRecord
100
AcDbRegAppTableRecord
  2
MCAD_NO_VIS
 70
     0
  0
APPID
  5
E0E
330
DBE
100
AcDbSymbolTableRecord
100
AcDbRegAppTableRecord
  2
ACAD_TEMP_GRAPHIC
 70
     0
  0
APPID
  5
E3F
330
DBE
100
AcDbSymbolTableRecord
100
AcDbRegAppTableRecord
  2
AD_DRAW
 70
     0
  0
APPID
  5
E42
330
DBE
100
AcDbSymbolTableRecord
100
AcDbRegAppTableRecord
  2
ACATTRIBSERVICES
 70
     0
  0
APPID
  5
E8E
330
DBE
100
AcDbSymbolTableRecord
100
AcDbRegAppTableRecord
  2
ASURF_PCURVE_APPNAME
 70
     0
  0
APPID
  5
E93
330
DBE
100
AcDbSymbolTableRecord
100
AcDbRegAppTableRecord
  2
AMG_3D2D_5.0
 70
     0
  0
APPID
  5
EBE
330
DBE
100
AcDbSymbolTableRecord
100
AcDbRegAppTableRecord
  2
DESIGNERASSEMBLIES
 70
     0
  0
APPID
  5
EC6
330
DBE
100
AcDbSymbolTableRecord
100
AcDbRegAppTableRecord
  2
ACADM_DIM_EDIT
 70
     0
  0
APPID
  5
EC7
330
DBE
100
AcDbSymbolTableRecord
100
AcDbRegAppTableRecord
  2
AMDT_DM_ADJ
 70
     0
  0
ENDTAB
  0
TABLE
  2
DIMSTYLE
  5
DBF
330
0
100
AcDbSymbolTable
 70
     7
100
AcDbDimStyleTable
 71
     0
  0
DIMSTYLE
105
DDC
330
DBF
100
AcDbSymbolTableRecord
100
AcDbDimStyleTableRecord
  2
STANDARD
 70
     0
271
     1
272
     1
279
     2
340
DC6
  0
DIMSTYLE
105
EF0
330
DBF
100
AcDbSymbolTableRecord
100
AcDbDimStyleTableRecord
  2
AM_ANSI
 70
     0
  4
mm
 41
0.1
 42
0.05
 43
0.5
 44
0.1
 47
0.1
 48
0.1
 78
     7
 79
     2
140
0.12
141
0.0
146
0.71
147
0.06
176
   256
177
   256
178
     2
274
     4
284
     7
340
DC6
371
    -1
372
    -1
  0
DIMSTYLE
105
EF1
330
DBF
100
AcDbSymbolTableRecord
100
AcDbDimStyleTableRecord
  2
AM_ANSI$3
 70
     0
  4
mm
 41
0.1
 42
0.05
 43
0.5
 44
0.1
 47
0.1
 48
0.1
 78
     7
 79
     2
140
0.12
141
0.0
146
0.71
147
0.06
176
   256
177
   256
178
     2
274
     4
284
     7
288
     1
289
     0
340
DC6
371
    -1
372
    -1
  0
DIMSTYLE
105
EF2
330
DBF
100
AcDbSymbolTableRecord
100
AcDbDimStyleTableRecord
  2
AM_ANSI$4
 70
     0
  4
mm
 41
0.1
 42
0.05
 43
0.5
 44
0.1
 47
0.1
 48
0.1
 78
     7
 79
     2
140
0.12
141
0.0
146
0.71
147
0.06
176
   256
177
   256
178
     2
274
     4
284
     7
288
     1
289
     0
340
DC6
371
    -1
372
    -1
  0
DIMSTYLE
105
EF3
330
DBF
100
AcDbSymbolTableRecord
100
AcDbDimStyleTableRecord
  2
AM_ANSI$7
 70
     0
  4
mm
 41
0.1
 42
0.05
 43
0.5
 44
0.1
 47
0.1
 48
0.1
 78
     7
 79
     2
140
0.24
141
0.0
146
0.71
147
0.06
176
   256
177
   256
178
     2
274
     4
284
     7
340
DC6
371
    -1
372
    -1
  0
DIMSTYLE
105
EF4
330
DBF
100
AcDbSymbolTableRecord
100
AcDbDimStyleTableRecord
  2
AM_ANSI$SF
 70
     0
  4
mm
 41
0.1
 42
0.05
 43
0.5
 44
0.1
 47
0.1
 48
0.1
 75
     1
 76
     1
 78
     7
 79
     2
140
0.12
141
0.0
146
0.71
147
0.06
176
   256
177
   256
178
     2
274
     4
284
     7
340
DC6
371
    -1
372
    -1
  0
DIMSTYLE
105
EF9
330
DBF
100
AcDbSymbolTableRecord
100
AcDbDimStyleTableRecord
  2
AM_ANSI$SH
 70
     0
  4
mm
 41
0.1
 42
0.05
 43
0.5
 44
0.1
 47
0.1
 48
0.1
 75
     1
 76
     1
 78
     7
 79
     2
140
0.12
141
0.0
146
0.71
147
0.06
173
     1
176
   256
177
   256
178
     2
274
     4
284
     7
340
DC6
343
EF5
371
    -1
372
    -1
  0
ENDTAB
  0
TABLE
  2
BLOCK_RECORD
  5
DB6
330
0
100
AcDbSymbolTable
 70
     3
  0
BLOCK_RECORD
  5
DD3
102
{ACAD_XDICTIONARY
360
EFD
102
}
330
DB6
100
AcDbSymbolTableRecord
100
AcDbBlockTableRecord
  2
*Model_Space
340
DD6
  0
BLOCK_RECORD
  5
DCF
330
DB6
100
AcDbSymbolTableRecord
100
AcDbBlockTableRecord
  2
*Paper_Space
340
DD2
  0
BLOCK_RECORD
  5
DD7
330
DB6
100
AcDbSymbolTableRecord
100
AcDbBlockTableRecord
  2
STDGX5
340
0
102
{BLKREFS
331
38A
331
38B
331
38C
331
38D
331
452
331
453
331
454
331
455
331
7B1
331
7B2
331
7B3
331
7B4
331
A34
331
A35
331
A36
331
A37
331
A38
331
A39
331
A3A
331
A3B
331
A3C
331
A3D
331
A3E
331
A3F
331
A49
331
A4A
331
A4B
331
A4C
331
A4D
331
A4E
331
A4F
331
A50
331
A52
331
A53
331
A54
331
A55
331
A57
331
A58
331
A59
331
A5A
331
A5B
331
A5C
331
A5D
331
A5E
331
BBE
331
BBF
331
BC0
331
BC1
331
BC2
331
BC3
331
BC4
331
BC5
331
BC6
331
BC7
331
BC8
331
BC9
331
CA1
331
CA2
331
CA3
331
CA4
331
CA5
331
CA6
331
CA7
331
CA8
331
CA9
331
CAA
331
CAB
331
CAC
331
CB5
331
CB6
331
CB7
331
CB8
331
CB9
331
CBA
331
CBB
331
CBC
331
CBE
331
CBF
331
CC0
331
CC1
331
CC3
331
CC4
331
CC5
331
CC6
331
CC7
331
CC8
331
CC9
331
CCA
102
}
  0
BLOCK_RECORD
  5
EB5
330
DB6
100
AcDbSymbolTableRecord
100
AcDbBlockTableRecord
  2
*U1
340
0
  0
BLOCK_RECORD
  5
EF5
330
DB6
100
AcDbSymbolTableRecord
100
AcDbBlockTableRecord
  2
GENAXEH
340
0
  0
ENDTAB
  0
ENDSEC
  0
SECTION
  2
BLOCKS
  0
BLOCK
  5
DE4
330
DD3
100
AcDbEntity
  8
0
100
AcDbBlockBegin
  2
*Model_Space
 70
     0
 10
0.0
 20
0.0
 30
0.0
  3
*Model_Space
  1

  0
ENDBLK
  5
DE5
330
DD3
100
AcDbEntity
  8
0
100
AcDbBlockEnd
  0
BLOCK
  5
DE2
330
DCF
100
AcDbEntity
 67
     1
  8
0
100
AcDbBlockBegin
  2
*Paper_Space
 70
     0
 10
0.0
 20
0.0
 30
0.0
  3
*Paper_Space
  1

  0
ENDBLK
  5
DE3
330
DCF
100
AcDbEntity
 67
     1
  8
0
100
AcDbBlockEnd
  0
BLOCK
  5
2ED
330
DD7
100
AcDbEntity
  8
0
100
AcDbBlockBegin
  2
STDGX5
 70
     0
 10
0.0
 20
0.0
 30
0.0
  3
STDGX5
  1

  0
ENDBLK
  5
2EE
330
DD7
100
AcDbEntity
  8
0
100
AcDbBlockEnd
  0
BLOCK
  5
EB6
330
EB5
100
AcDbEntity
  8
0
100
AcDbBlockBegin
  2
*U1
 70
     1
 10
0.0
 20
0.0
 30
0.0
  3
*U1
  1

  0
ENDBLK
  5
EB7
330
EB5
100
AcDbEntity
  8
0
100
AcDbBlockEnd
  0
BLOCK
  5
EF7
330
EF5
100
AcDbEntity
  8
0
100
AcDbBlockBegin
  2
GENAXEH
 70
     0
 10
0.0
 20
0.0
 30
0.0
  3
GENAXEH
  1

  0
LINE
  5
EF6
330
EF5
100
AcDbEntity
  8
0
100
AcDbLine
 10
-1.0
 20
0.0
 30
0.0
 11
1.0
 21
0.0
 31
0.0
  0
ENDBLK
  5
EF8
330
EF5
100
AcDbEntity
  8
0
100
AcDbBlockEnd
  0
ENDSEC
  0
SECTION
  2
ENTITIES
  0
INSERT
  5
38A
330
DD3
100
AcDbEntity
  8
0
100
AcDbBlockReference
  2
STDGX5
 10
0.0
 20
0.0
 30
0.0
  0
INSERT
  5
38B
330
DD3
100
AcDbEntity
  8
0
100
AcDbBlockReference
  2
STDGX5
 10
0.0
 20
0.0
 30
0.0
  0
INSERT
  5
38C
330
DD3
100
AcDbEntity
  8
0
100
AcDbBlockReference
  2
STDGX5
 10
275.0
 20
0.0
 30
0.0
  0
INSERT
  5
38D
330
DD3
100
AcDbEntity
  8
0
100
AcDbBlockReference
  2
STDGX5
 10
275.0
 20
0.0
 30
0.0
  0
INSERT
  5
452
330
DD3
100
AcDbEntity
  8
0
100
AcDbBlockReference
  2
STDGX5
 10
0.0
 20
0.0
 30
0.0
 41
2.0
 42
2.0
 43
2.0
  0
INSERT
  5
453
330
DD3
100
AcDbEntity
  8
0
100
AcDbBlockReference
  2
STDGX5
 10
0.0
 20
0.0
 30
0.0
 41
2.0
 42
2.0
 43
2.0
  0
INSERT
  5
454
330
DD3
100
AcDbEntity
  8
0
100
AcDbBlockReference
  2
STDGX5
 10
550.0
 20
0.0
 30
0.0
 41
2.0
 42
2.0
 43
2.0
  0
INSERT
  5
455
330
DD3
100
AcDbEntity
  8
0
100
AcDbBlockReference
  2
STDGX5
 10
550.0
 20
0.0
 30
0.0
 41
2.0
 42
2.0
 43
2.0
  0
INSERT
  5
7B1
330
DD3
100
AcDbEntity
  8
0
100
AcDbBlockReference
  2
STDGX5
 10
0.0
 20
0.0
 30
0.0
  0
INSERT
  5
7B2
330
DD3
100
AcDbEntity
  8
0
100
AcDbBlockReference
  2
STDGX5
 10
0.0
 20
0.0
 30
0.0
  0
INSERT
  5
7B3
330
DD3
100
AcDbEntity
  8
0
100
AcDbBlockReference
  2
STDGX5
 10
275.0
 20
0.0
 30
0.0
  0
INSERT
  5
7B4
330
DD3
100
AcDbEntity
  8
0
100
AcDbBlockReference
  2
STDGX5
 10
275.0
 20
0.0
 30
0.0
  0
INSERT
  5
A34
330
DD3
100
AcDbEntity
  8
0
100
AcDbBlockReference
  2
STDGX5
 10
397.0727308950417
 20
14.09011196094536
 30
0.0
  0
INSERT
  5
A35
330
DD3
100
AcDbEntity
  8
0
100
AcDbBlockReference
  2
STDGX5
 10
397.0727308950417
 20
14.09011196094536
 30
0.0
  0
INSERT
  5
A36
330
DD3
100
AcDbEntity
  8
0
100
AcDbBlockReference
  2
STDGX5
 10
672.0727308950416
 20
14.09011196094536
 30
0.0
  0
INSERT
  5
A37
330
DD3
100
AcDbEntity
  8
0
100
AcDbBlockReference
  2
STDGX5
 10
672.0727308950416
 20
14.09011196094536
 30
0.0
  0
INSERT
  5
A38
330
DD3
100
AcDbEntity
  8
0
100
AcDbBlockReference
  2
STDGX5
 10
397.0727308950417
 20
14.09011196094536
 30
0.0
 41
2.0
 42
2.0
 43
2.0
  0
INSERT
  5
A39
330
DD3
100
AcDbEntity
  8
0
100
AcDbBlockReference
  2
STDGX5
 10
397.0727308950417
 20
14.09011196094536
 30
0.0
 41
2.0
 42
2.0
 43
2.0
  0
INSERT
  5
A3A
330
DD3
100
AcDbEntity
  8
0
100
AcDbBlockReference
  2
STDGX5
 10
947.0727308950417
 20
14.09011196094536
 30
0.0
 41
2.0
 42
2.0
 43
2.0
  0
INSERT
  5
A3B
330
DD3
100
AcDbEntity
  8
0
100
AcDbBlockReference
  2
STDGX5
 10
947.0727308950417
 20
14.09011196094536
 30
0.0
 41
2.0
 42
2.0
 43
2.0
  0
INSERT
  5
A3C
330
DD3
100
AcDbEntity
  8
0
100
AcDbBlockReference
  2
STDGX5
 10
397.0727308950417
 20
14.09011196094536
 30
0.0
  0
INSERT
  5
A3D
330
DD3
100
AcDbEntity
  8
0
100
AcDbBlockReference
  2
STDGX5
 10
397.0727308950417
 20
14.09011196094536
 30
0.0
  0
INSERT
  5
A3E
330
DD3
100
AcDbEntity
  8
0
100
AcDbBlockReference
  2
STDGX5
 10
672.0727308950416
 20
14.09011196094536
 30
0.0
  0
INSERT
  5
A3F
330
DD3
100
AcDbEntity
  8
0
100
AcDbBlockReference
  2
STDGX5
 10
672.0727308950416
 20
14.09011196094536
 30
0.0
  0
INSERT
  5
A49
330
DD3
100
AcDbEntity
  8
0
100
AcDbBlockReference
  2
STDGX5
 10
0.0
 20
0.0
 30
0.0
 41
0.25
 42
0.25
 43
0.25
  0
INSERT
  5
A4A
330
DD3
100
AcDbEntity
  8
0
100
AcDbBlockReference
  2
STDGX5
 10
0.0
 20
0.0
 30
0.0
 41
0.25
 42
0.25
 43
0.25
  0
INSERT
  5
A4B
330
DD3
100
AcDbEntity
  8
0
100
AcDbBlockReference
  2
STDGX5
 10
68.75
 20
0.0
 30
0.0
 41
0.25
 42
0.25
 43
0.25
  0
INSERT
  5
A4C
330
DD3
100
AcDbEntity
  8
0
100
AcDbBlockReference
  2
STDGX5
 10
68.75
 20
0.0
 30
0.0
 41
0.25
 42
0.25
 43
0.25
  0
INSERT
  5
A4D
330
DD3
100
AcDbEntity
  8
0
100
AcDbBlockReference
  2
STDGX5
 10
0.0
 20
0.0
 30
0.0
 41
0.5
 42
0.5
 43
0.5
  0
INSERT
  5
A4E
330
DD3
100
AcDbEntity
  8
0
100
AcDbBlockReference
  2
STDGX5
 10
0.0
 20
0.0
 30
0.0
 41
0.5
 42
0.5
 43
0.5
  0
INSERT
  5
A4F
330
DD3
100
AcDbEntity
  8
0
100
AcDbBlockReference
  2
STDGX5
 10
137.5
 20
0.0
 30
0.0
 41
0.5
 42
0.5
 43
0.5
  0
INSERT
  5
A50
330
DD3
100
AcDbEntity
  8
0
100
AcDbBlockReference
  2
STDGX5
 10
137.5
 20
0.0
 30
0.0
 41
0.5
 42
0.5
 43
0.5
  0
INSERT
  5
A52
330
DD3
100
AcDbEntity
  8
0
100
AcDbBlockReference
  2
STDGX5
 10
-35.0
 20
-100.0
 30
0.0
 41
0.3333333333333333
 42
0.3333333333333333
 43
0.3333333333333333
  0
INSERT
  5
A53
330
DD3
100
AcDbEntity
  8
0
100
AcDbBlockReference
  2
STDGX5
 10
-35.0
 20
-100.0
 30
0.0
 41
0.3333333333333333
 42
0.3333333333333333
 43
0.3333333333333333
  0
INSERT
  5
A54
330
DD3
100
AcDbEntity
  8
0
100
AcDbBlockReference
  2
STDGX5
 10
56.66666666666664
 20
-100.0
 30
0.0
 41
0.3333333333333333
 42
0.3333333333333333
 43
0.3333333333333333
  0
INSERT
  5
A55
330
DD3
100
AcDbEntity
  8
0
100
AcDbBlockReference
  2
STDGX5
 10
56.66666666666664
 20
-100.0
 30
0.0
 41
0.3333333333333333
 42
0.3333333333333333
 43
0.3333333333333333
  0
INSERT
  5
A57
330
DD3
100
AcDbEntity
  8
0
100
AcDbBlockReference
  2
STDGX5
 10
-35.0
 20
-100.0
 30
0.0
 41
0.3333333333333333
 42
0.3333333333333333
 43
0.3333333333333333
  0
INSERT
  5
A58
330
DD3
100
AcDbEntity
  8
0
100
AcDbBlockReference
  2
STDGX5
 10
-35.0
 20
-100.0
 30
0.0
 41
0.3333333333333333
 42
0.3333333333333333
 43
0.3333333333333333
  0
INSERT
  5
A59
330
DD3
100
AcDbEntity
  8
0
100
AcDbBlockReference
  2
STDGX5
 10
56.66666666666666
 20
-100.0
 30
0.0
 41
0.3333333333333333
 42
0.3333333333333333
 43
0.3333333333333333
  0
INSERT
  5
A5A
330
DD3
100
AcDbEntity
  8
0
100
AcDbBlockReference
  2
STDGX5
 10
56.66666666666666
 20
-100.0
 30
0.0
 41
0.3333333333333333
 42
0.3333333333333333
 43
0.3333333333333333
  0
INSERT
  5
A5B
330
DD3
100
AcDbEntity
  8
0
100
AcDbBlockReference
  2
STDGX5
 10
0.0
 20
0.0
 30
0.0
  0
INSERT
  5
A5C
330
DD3
100
AcDbEntity
  8
0
100
AcDbBlockReference
  2
STDGX5
 10
0.0
 20
0.0
 30
0.0
  0
INSERT
  5
A5D
330
DD3
100
AcDbEntity
  8
0
100
AcDbBlockReference
  2
STDGX5
 10
275.0
 20
0.0
 30
0.0
  0
INSERT
  5
A5E
330
DD3
100
AcDbEntity
  8
0
100
AcDbBlockReference
  2
STDGX5
 10
275.0
 20
0.0
 30
0.0
  0
INSERT
  5
BBE
330
DD3
100
AcDbEntity
  8
0
100
AcDbBlockReference
  2
STDGX5
 10
392.9671840186238
 20
14.58626895085149
 30
0.0
  0
INSERT
  5
BBF
330
DD3
100
AcDbEntity
  8
0
100
AcDbBlockReference
  2
STDGX5
 10
392.9671840186238
 20
14.58626895085149
 30
0.0
  0
INSERT
  5
BC0
330
DD3
100
AcDbEntity
  8
0
100
AcDbBlockReference
  2
STDGX5
 10
667.9671840186237
 20
14.58626895085149
 30
0.0
  0
INSERT
  5
BC1
330
DD3
100
AcDbEntity
  8
0
100
AcDbBlockReference
  2
STDGX5
 10
667.9671840186237
 20
14.58626895085149
 30
0.0
  0
INSERT
  5
BC2
330
DD3
100
AcDbEntity
  8
0
100
AcDbBlockReference
  2
STDGX5
 10
392.9671840186238
 20
14.58626895085149
 30
0.0
 41
2.0
 42
2.0
 43
2.0
  0
INSERT
  5
BC3
330
DD3
100
AcDbEntity
  8
0
100
AcDbBlockReference
  2
STDGX5
 10
392.9671840186238
 20
14.58626895085149
 30
0.0
 41
2.0
 42
2.0
 43
2.0
  0
INSERT
  5
BC4
330
DD3
100
AcDbEntity
  8
0
100
AcDbBlockReference
  2
STDGX5
 10
942.9671840186237
 20
14.58626895085149
 30
0.0
 41
2.0
 42
2.0
 43
2.0
  0
INSERT
  5
BC5
330
DD3
100
AcDbEntity
  8
0
100
AcDbBlockReference
  2
STDGX5
 10
942.9671840186237
 20
14.58626895085149
 30
0.0
 41
2.0
 42
2.0
 43
2.0
  0
INSERT
  5
BC6
330
DD3
100
AcDbEntity
  8
0
100
AcDbBlockReference
  2
STDGX5
 10
392.9671840186238
 20
14.58626895085149
 30
0.0
  0
INSERT
  5
BC7
330
DD3
100
AcDbEntity
  8
0
100
AcDbBlockReference
  2
STDGX5
 10
392.9671840186238
 20
14.58626895085149
 30
0.0
  0
INSERT
  5
BC8
330
DD3
100
AcDbEntity
  8
0
100
AcDbBlockReference
  2
STDGX5
 10
667.9671840186237
 20
14.58626895085149
 30
0.0
  0
INSERT
  5
BC9
330
DD3
100
AcDbEntity
  8
0
100
AcDbBlockReference
  2
STDGX5
 10
667.9671840186237
 20
14.58626895085149
 30
0.0
  0
LINE
  5
BCA
330
DD3
100
AcDbEntity
  8
0
100
AcDbLine
 10
200.8002564907278
 20
168.452129157512
 30
0.0
 11
195.3002564907279
 21
168.452129157512
 31
0.0
  0
LINE
  5
BCB
330
DD3
100
AcDbEntity
  8
0
100
AcDbLine
 10
201.3002564907279
 20
162.9521291575108
 30
0.0
 11
201.3002564907279
 21
167.952129157512
 31
0.0
  0
LINE
  5
BCC
330
DD3
100
AcDbEntity
  8
0
100
AcDbLine
 10
200.8002564907278
 20
162.4521291575108
 30
0.0
 11
195.3002564907279
 21
162.4521291575107
 31
0.0
  0
ARC
  5
BCD
330
DD3
100
AcDbEntity
  8
0
100
AcDbCircle
 10
200.8002564907279
 20
167.952129157512
 30
0.0
 40
0.5
100
AcDbArc
 50
0.0
 51
90.0
  0
ARC
  5
BCE
330
DD3
100
AcDbEntity
  8
0
100
AcDbCircle
 10
200.8002564907279
 20
162.9521291575108
 30
0.0
 40
0.5
100
AcDbArc
 50
270.0
 51
0.0
  0
LINE
  5
BCF
330
DD3
100
AcDbEntity
  8
0
100
AcDbLine
 10
165.3002564907279
 20
206.8732181317181
 30
0.0
 11
165.8002564907279
 21
206.8732181317181
 31
0.0
  0
LINE
  5
BD0
330
DD3
100
AcDbEntity
  8
0
100
AcDbLine
 10
165.3002564907279
 20
244.8732181317181
 30
0.0
 11
165.3002564907279
 21
206.8732181317181
 31
0.0
  0
LINE
  5
BD1
330
DD3
100
AcDbEntity
  8
0
100
AcDbLine
 10
165.8002564907279
 20
244.8732181317181
 30
0.0
 11
165.3002564907279
 21
244.8732181317181
 31
0.0
  0
CIRCLE
  5
BD2
330
DD3
100
AcDbEntity
  8
0
100
AcDbCircle
 10
81.90135283308626
 20
135.4521291575121
 30
0.0
 40
19.0
  0
LINE
  5
BD3
330
DD3
100
AcDbEntity
  8
0
100
AcDbLine
 10
190.3002564907279
 20
201.8732181317177
 30
0.0
 11
190.3002564907279
 21
249.8732181317178
 31
0.0
  0
LINE
  5
BD4
330
DD3
100
AcDbEntity
  8
1
100
AcDbLine
 10
206.3002564907279
 20
225.8732181317181
 30
0.0
 11
151.8002564907279
 21
225.8732181317181
 31
0.0
  0
LINE
  5
BD5
330
DD3
100
AcDbEntity
  8
1
100
AcDbLine
 10
151.8002564907279
 20
135.4521291575121
 30
0.0
 11
202.3002564907279
 21
135.4521291575121
 31
0.0
  0
LINE
  5
BD6
330
DD3
100
AcDbEntity
  8
2
100
AcDbLine
 10
90.28130619303182
 20
129.9953552309921
 30
0.0
 11
92.79632770572277
 21
127.4803337183011
 31
0.0
  0
LINE
  5
BD7
330
DD3
100
AcDbEntity
  8
2
100
AcDbLine
 10
93.04995130569938
 20
127.8390645908317
 30
0.0
 11
90.51565175486713
 21
130.373364141664
 31
0.0
  0
LINE
  5
BD8
330
DD3
100
AcDbEntity
  8
2
100
AcDbLine
 10
87.3581267596063
 20
127.0721757975666
 30
0.0
 11
89.87314827229722
 21
124.5571542848756
 31
0.0
  0
LINE
  5
BD9
330
DD3
100
AcDbEntity
  8
2
100
AcDbLine
 10
89.51441739976667
 20
124.303530684899
 30
0.0
 11
86.98011784893441
 21
126.8378302357313
 31
0.0
  0
LINE
  5
BDA
330
DD3
100
AcDbEntity
  8
0
100
AcDbLine
 10
89.51441739976695
 20
124.3035306848987
 30
0.0
 11
89.67952742613846
 21
124.1384206585272
 31
0.0
  0
LINE
  5
BDB
330
DD3
100
AcDbEntity
  8
3
100
AcDbLine
 10
89.87314827229733
 20
124.5571542848755
 30
0.0
 11
89.98570466239204
 21
124.4445978947808
 31
0.0
  0
LINE
  5
BDC
330
DD3
100
AcDbEntity
  8
0
100
AcDbLine
 10
93.04995130569905
 20
127.839064590832
 30
0.0
 11
93.21506133207117
 21
127.6739545644599
 31
0.0
  0
LINE
  5
BDD
330
DD3
100
AcDbEntity
  8
3
100
AcDbLine
 10
92.79632770572282
 20
127.480333718301
 30
0.0
 11
92.90888409581754
 21
127.3677773282062
 31
0.0
  0
LINE
  5
BDF
330
DD3
100
AcDbEntity
  8
2
100
AcDbLine
 10
193.3002564907279
 20
155.4521291575122
 30
0.0
 11
193.3002564907279
 21
115.4521291575121
 31
0.0
  0
LINE
  5
BE0
330
DD3
100
AcDbEntity
  8
0
100
AcDbLine
 10
190.3002564907279
 20
177.4521291575124
 30
0.0
 11
190.3002564907279
 21
109.9521291575124
 31
0.0
  0
LINE
  5
BE1
330
DD3
100
AcDbEntity
  8
0
100
AcDbLine
 10
168.8002564907291
 20
208.3732181317181
 30
0.0
 11
168.8002564907291
 21
243.3732181317182
 31
0.0
  0
LINE
  5
BE2
330
DD3
100
AcDbEntity
  8
0
100
AcDbLine
 10
165.8002564907279
 20
205.8732181317177
 30
0.0
 11
165.8002564907279
 21
245.8732181317178
 31
0.0
  0
LINE
  5
BE3
330
DD3
100
AcDbEntity
  8
0
100
AcDbLine
 10
195.3002564907279
 20
201.8732181317177
 30
0.0
 11
195.3002564907279
 21
249.8732181317178
 31
0.0
  0
LINE
  5
BE4
330
DD3
100
AcDbEntity
  8
0
100
AcDbLine
 10
169.8002564907279
 20
201.8732181317177
 30
0.0
 11
195.3002564907279
 21
201.8732181317177
 31
0.0
  0
LINE
  5
BE5
330
DD3
100
AcDbEntity
  8
0
100
AcDbLine
 10
195.3002564907279
 20
249.8732181317178
 30
0.0
 11
169.8002564907279
 21
249.8732181317178
 31
0.0
  0
LINE
  5
BE6
330
DD3
100
AcDbEntity
  8
0
100
AcDbLine
 10
295.9661994917943
 20
116.6309180382191
 30
0.0
 11
295.9661994917943
 21
170.7733402768058
 31
0.0
  0
LINE
  5
BE7
330
DD3
100
AcDbEntity
  8
1
100
AcDbLine
 10
242.9661994917943
 20
135.4521291575121
 30
0.0
 11
300.9661994917943
 21
135.4521291575121
 31
0.0
  0
LINE
  5
BE8
330
DD3
100
AcDbEntity
  8
0
100
AcDbLine
 10
160.3785686542408
 20
126.7900710879767
 30
0.0
 11
159.656880817754
 21
125.9061876114936
 31
0.0
  0
LINE
  5
BE9
330
DD3
100
AcDbEntity
  8
0
100
AcDbLine
 10
160.3785686542408
 20
125.0223041350104
 30
0.0
 11
159.656880817754
 21
125.9061876114936
 31
0.0
  0
LINE
  5
BEA
330
DD3
100
AcDbEntity
  8
0
100
AcDbLine
 10
161.8219443272151
 20
125.0223041350104
 30
0.0
 11
162.5436321637019
 21
125.9061876114936
 31
0.0
  0
LINE
  5
BEB
330
DD3
100
AcDbEntity
  8
0
100
AcDbLine
 10
161.8219443272151
 20
126.7900710879767
 30
0.0
 11
162.5436321637019
 21
125.9061876114936
 31
0.0
  0
LINE
  5
BEC
330
DD3
100
AcDbEntity
  8
0
100
AcDbLine
 10
160.3785686542408
 20
125.0223041350103
 30
0.0
 11
161.8219443272151
 21
125.0223041350103
 31
0.0
  0
LINE
  5
BED
330
DD3
100
AcDbEntity
  8
0
100
AcDbLine
 10
160.3785686542408
 20
126.7900710879767
 30
0.0
 11
161.8219443272151
 21
126.7900710879767
 31
0.0
  0
POLYLINE
  5
BEE
330
DD3
100
AcDbEntity
  8
3
100
AcDb2dPolyline
 66
     1
 10
0.0
 20
0.0
 30
0.0
 70
     1
  0
VERTEX
  5
BEF
330
BEE
100
AcDbEntity
  8
3
100
AcDbVertex
100
AcDb2dVertex
 10
159.0332564907274
 20
125.9061876114936
 30
0.0
 42
0.1332561510789112
  0
VERTEX
  5
BF0
330
BEE
100
AcDbEntity
  8
3
100
AcDbVertex
100
AcDb2dVertex
 10
159.1772926709339
 20
125.3753359414486
 30
0.0
 42
0.1067562697216285
  0
VERTEX
  5
BF1
330
BEE
100
AcDbEntity
  8
3
100
AcDbVertex
100
AcDb2dVertex
 10
159.6386667740149
 20
124.8726876114934
 30
0.0
 42
0.0828275296409765
 70
     2
 50
324.7356103172502
  0
VERTEX
  5
BF2
330
BEE
100
AcDbEntity
  8
3
100
AcDbVertex
100
AcDb2dVertex
 10
160.3498987484002
 20
124.5289462655324
 30
0.0
 42
0.0867079104441287
 50
324.7356103172502
  0
VERTEX
  5
BF3
330
BEE
100
AcDbEntity
  8
3
100
AcDbVertex
100
AcDb2dVertex
 10
161.1002564907279
 20
124.4445978947808
 30
0.0
 42
0.0713517487530916
  0
VERTEX
  5
BF4
330
BEE
100
AcDbEntity
  8
3
100
AcDbVertex
100
AcDb2dVertex
 10
161.9191057482226
 20
124.5620484972351
 30
0.0
 42
0.0828275296409883
  0
VERTEX
  5
BF5
330
BEE
100
AcDbEntity
  8
3
100
AcDbVertex
100
AcDb2dVertex
 10
162.5618462074411
 20
124.8726876114934
 30
0.0
 42
0.1067562697216101
 70
     2
 50
35.26438968274903
  0
VERTEX
  5
BF6
330
BEE
100
AcDbEntity
  8
3
100
AcDbVertex
100
AcDb2dVertex
 10
163.023220310522
 20
125.3753359414486
 30
0.0
 42
0.1332561510788615
 50
35.26438968274903
  0
VERTEX
  5
BF7
330
BEE
100
AcDbEntity
  8
3
100
AcDbVertex
100
AcDb2dVertex
 10
163.1672564907286
 20
125.9061876114935
 30
0.0
 42
0.1332561510788673
  0
VERTEX
  5
BF8
330
BEE
100
AcDbEntity
  8
3
100
AcDbVertex
100
AcDb2dVertex
 10
163.023220310522
 20
126.4370392815385
 30
0.0
 42
0.1067562697216111
  0
VERTEX
  5
BF9
330
BEE
100
AcDbEntity
  8
3
100
AcDbVertex
100
AcDb2dVertex
 10
162.5618462074411
 20
126.9396876114936
 30
0.0
 42
0.0828275296410134
 70
     2
 50
144.7356103172501
  0
VERTEX
  5
BFA
330
BEE
100
AcDbEntity
  8
3
100
AcDbVertex
100
AcDb2dVertex
 10
161.9191057482226
 20
127.2503267257519
 30
0.0
 42
0.0713517487531155
 50
144.7356103172501
  0
VERTEX
  5
BFB
330
BEE
100
AcDbEntity
  8
3
100
AcDbVertex
100
AcDb2dVertex
 10
161.1002564907279
 20
127.3677773282062
 30
0.0
 42
0.0713517487530977
  0
VERTEX
  5
BFC
330
BEE
100
AcDbEntity
  8
3
100
AcDbVertex
100
AcDb2dVertex
 10
160.2814072332331
 20
127.250326725752
 30
0.0
 42
0.0828275296409885
  0
VERTEX
  5
BFD
330
BEE
100
AcDbEntity
  8
3
100
AcDbVertex
100
AcDb2dVertex
 10
159.6386667740149
 20
126.9396876114937
 30
0.0
 42
0.1067562697216128
 70
     2
 50
215.264389682749
  0
VERTEX
  5
BFE
330
BEE
100
AcDbEntity
  8
3
100
AcDbVertex
100
AcDb2dVertex
 10
159.1772926709339
 20
126.4370392815385
 30
0.0
 42
0.1332561510788984
 50
215.264389682749
  0
SEQEND
  5
BFF
330
BEE
100
AcDbEntity
  8
3
  0
POLYLINE
  5
C00
330
DD3
100
AcDbEntity
  8
0
100
AcDb2dPolyline
 66
     1
 10
0.0
 20
0.0
 30
0.0
 70
     1
  0
VERTEX
  5
C01
330
C00
100
AcDbEntity
  8
0
100
AcDbVertex
100
AcDb2dVertex
 10
163.6002564907279
 20
125.9061876114936
 30
0.0
 42
0.1332561510788753
  0
VERTEX
  5
C02
330
C00
100
AcDbEntity
  8
0
100
AcDbVertex
100
AcDb2dVertex
 10
163.4260472742229
 20
126.5482433323993
 30
0.0
 42
0.1067562697216228
  0
VERTEX
  5
C03
330
C00
100
AcDbEntity
  8
0
100
AcDbVertex
100
AcDb2dVertex
 10
162.8680234436943
 20
127.1561876114936
 30
0.0
 42
0.0828275296410038
 70
     2
 50
144.7356103172451
  0
VERTEX
  5
C04
330
C00
100
AcDbEntity
  8
0
100
AcDbVertex
100
AcDb2dVertex
 10
162.0078009299244
 20
127.5719366994966
 30
0.0
 42
0.0867079104441661
 50
144.7356103172451
  0
VERTEX
  5
C05
330
C00
100
AcDbEntity
  8
0
100
AcDbVertex
100
AcDb2dVertex
 10
161.1002564907279
 20
127.67395456446
 30
0.0
 42
0.0713517487531113
  0
VERTEX
  5
C06
330
C00
100
AcDbEntity
  8
0
100
AcDbVertex
100
AcDb2dVertex
 10
160.1098727733907
 20
127.5319001347861
 30
0.0
 42
0.0828275296410024
  0
VERTEX
  5
C07
330
C00
100
AcDbEntity
  8
0
100
AcDbVertex
100
AcDb2dVertex
 10
159.3324895377617
 20
127.1561876114936
 30
0.0
 42
0.1067562697216169
 70
     2
 50
215.2643896827548
  0
VERTEX
  5
C08
330
C00
100
AcDbEntity
  8
0
100
AcDbVertex
100
AcDb2dVertex
 10
158.7744657072331
 20
126.5482433323993
 30
0.0
 42
0.1332561510788725
 50
215.2643896827548
  0
VERTEX
  5
C09
330
C00
100
AcDbEntity
  8
0
100
AcDbVertex
100
AcDb2dVertex
 10
158.6002564907279
 20
125.9061876114936
 30
0.0
 42
0.1332561510788583
  0
VERTEX
  5
C0A
330
C00
100
AcDbEntity
  8
0
100
AcDbVertex
100
AcDb2dVertex
 10
158.7744657072331
 20
125.2641318905877
 30
0.0
 42
0.1067562697215875
  0
VERTEX
  5
C0B
330
C00
100
AcDbEntity
  8
0
100
AcDbVertex
100
AcDb2dVertex
 10
159.3324895377617
 20
124.6561876114935
 30
0.0
 42
0.0828275296410098
 70
     2
 50
324.7356103172451
  0
VERTEX
  5
C0C
330
C00
100
AcDbEntity
  8
0
100
AcDbVertex
100
AcDb2dVertex
 10
160.1098727733907
 20
124.2804750882009
 30
0.0
 42
0.0713517487531184
 50
324.7356103172451
  0
VERTEX
  5
C0D
330
C00
100
AcDbEntity
  8
0
100
AcDbVertex
100
AcDb2dVertex
 10
161.1002564907279
 20
124.1384206585272
 30
0.0
 42
0.0713517487531214
  0
VERTEX
  5
C0E
330
C00
100
AcDbEntity
  8
0
100
AcDbVertex
100
AcDb2dVertex
 10
162.0906402080653
 20
124.2804750882009
 30
0.0
 42
0.0828275296410031
  0
VERTEX
  5
C0F
330
C00
100
AcDbEntity
  8
0
100
AcDbVertex
100
AcDb2dVertex
 10
162.8680234436943
 20
124.6561876114935
 30
0.0
 42
0.1067562697216167
 70
     2
 50
35.26438968275492
  0
VERTEX
  5
C10
330
C00
100
AcDbEntity
  8
0
100
AcDbVertex
100
AcDb2dVertex
 10
163.4260472742229
 20
125.2641318905877
 30
0.0
 42
0.1332561510788725
 50
35.26438968275492
  0
SEQEND
  5
C11
330
C00
100
AcDbEntity
  8
0
  0
LINE
  5
C12
330
DD3
100
AcDbEntity
  8
1
100
AcDbLine
 10
161.1002564907279
 20
121.6384206585269
 30
0.0
 11
161.1002564907279
 21
130.1763535318882
 31
0.0
  0
LINE
  5
C17
330
DD3
100
AcDbEntity
  8
0
100
AcDbLine
 10
93.21506133207117
 20
127.67395456446
 30
0.0
 11
89.67952742613846
 21
124.1384206585272
 31
0.0
  0
LINE
  5
C18
330
DD3
100
AcDbEntity
  8
1
100
AcDbLine
 10
84.72977995783248
 20
132.6237020327659
 30
0.0
 11
97.45770201919032
 21
119.8957799714081
 31
0.0
  0
CIRCLE
  5
C19
330
DD3
100
AcDbEntity
  8
0
100
AcDbCircle
 10
81.90135283308626
 20
135.4521291575121
 30
0.0
 40
13.5
  0
CIRCLE
  5
C1A
330
DD3
100
AcDbEntity
  8
0
100
AcDbCircle
 10
81.90135283308626
 20
135.4521291575121
 30
0.0
 40
10.0
  0
LINE
  5
C1B
330
DD3
100
AcDbEntity
  8
0
100
AcDbLine
 10
165.8002564907279
 20
168.4790345314017
 30
0.0
 11
165.8002564907279
 21
113.9521291575124
 31
0.0
  0
LINE
  5
C1C
330
DD3
100
AcDbEntity
  8
0
100
AcDbLine
 10
156.8002564907279
 20
148.9521291575121
 30
0.0
 11
165.3002564907279
 21
148.9521291575121
 31
0.0
  0
LINE
  5
C1D
330
DD3
100
AcDbEntity
  8
0
100
AcDbLine
 10
156.8002564907279
 20
121.9521291575121
 30
0.0
 11
156.8002564907279
 21
148.9521291575121
 31
0.0
  0
LINE
  5
C1E
330
DD3
100
AcDbEntity
  8
0
100
AcDbLine
 10
182.7584137579446
 20
177.4521291575124
 30
0.0
 11
168.4321759174252
 21
172.2378050145453
 31
0.0
  0
LINE
  5
C1F
330
DD3
100
AcDbEntity
  8
0
100
AcDbLine
 10
195.3002564907279
 20
177.4521291575124
 30
0.0
 11
182.7584137579446
 21
177.4521291575124
 31
0.0
  0
LINE
  5
C20
330
DD3
100
AcDbEntity
  8
0
100
AcDbLine
 10
195.3002564907279
 20
109.9521291575124
 30
0.0
 11
169.8002564907279
 21
109.9521291575124
 31
0.0
  0
LINE
  5
C21
330
DD3
100
AcDbEntity
  8
0
100
AcDbLine
 10
195.3002564907279
 20
177.4521291575124
 30
0.0
 11
195.3002564907279
 21
109.9521291575124
 31
0.0
  0
LINE
  5
C22
330
DD3
100
AcDbEntity
  8
1
100
AcDbLine
 10
271.9661994917943
 20
181.9521291575124
 30
0.0
 11
271.9661994917943
 21
104.9521291575124
 31
0.0
  0
CIRCLE
  5
C23
330
DD3
100
AcDbEntity
  8
0
100
AcDbCircle
 10
271.9661994917943
 20
135.4521291575121
 30
0.0
 40
20.0
  0
CIRCLE
  5
C24
330
DD3
100
AcDbEntity
  8
0
100
AcDbCircle
 10
271.9661994917943
 20
165.4521291575121
 30
0.0
 40
3.0
  0
LINE
  5
C25
330
DD3
100
AcDbEntity
  8
1
100
AcDbLine
 10
263.9661994917943
 20
165.4521291575121
 30
0.0
 11
279.9661994917943
 21
165.4521291575121
 31
0.0
  0
LINE
  5
C26
330
DD3
100
AcDbEntity
  8
1
100
AcDbLine
 10
190.8002564907279
 20
165.4521291575121
 30
0.0
 11
206.3002564907279
 21
165.4521291575121
 31
0.0
  0
LINE
  5
C27
330
DD3
100
AcDbEntity
  8
2
100
AcDbLine
 10
195.3002564907279
 20
115.4521291575121
 30
0.0
 11
193.3002564907279
 21
115.4521291575121
 31
0.0
  0
LINE
  5
C28
330
DD3
100
AcDbEntity
  8
2
100
AcDbLine
 10
193.3002564907279
 20
155.4521291575121
 30
0.0
 11
195.3002564907279
 21
155.4521291575121
 31
0.0
  0
LINE
  5
C29
330
DD3
100
AcDbEntity
  8
2
100
AcDbLine
 10
156.8002564907279
 20
125.4521291575121
 30
0.0
 11
193.3002564907279
 21
125.4521291575122
 31
0.0
  0
LINE
  5
C2A
330
DD3
100
AcDbEntity
  8
2
100
AcDbLine
 10
193.3002564907279
 20
145.4521291575121
 30
0.0
 11
156.8002564907279
 21
145.4521291575121
 31
0.0
  0
LINE
  5
C2B
330
DD3
100
AcDbEntity
  8
0
100
AcDbLine
 10
165.8002564907279
 20
154.4521291575121
 30
0.0
 11
165.3002564907279
 21
154.4521291575121
 31
0.0
  0
LINE
  5
C2C
330
DD3
100
AcDbEntity
  8
0
100
AcDbLine
 10
165.3002564907279
 20
154.4521291575121
 30
0.0
 11
165.3002564907279
 21
116.4521291575121
 31
0.0
  0
LINE
  5
C2D
330
DD3
100
AcDbEntity
  8
0
100
AcDbLine
 10
165.3002564907279
 20
116.4521291575121
 30
0.0
 11
165.8002564907279
 21
116.4521291575121
 31
0.0
  0
ARC
  5
C2E
330
DD3
100
AcDbEntity
  8
0
100
AcDbCircle
 10
271.9661994917943
 20
189.9521291575124
 30
0.0
 40
80.0
100
AcDbArc
 50
254.7424767095436
 51
285.2575232904563
  0
ARC
  5
C2F
330
DD3
100
AcDbEntity
  8
0
100
AcDbCircle
 10
271.9661994917943
 20
97.45212915751251
 30
0.0
 40
80.0
100
AcDbArc
 50
74.74247670954365
 51
105.2575232904563
  0
CIRCLE
  5
C30
330
DD3
100
AcDbEntity
  8
0
100
AcDbCircle
 10
271.9661994917943
 20
165.4521291575121
 30
0.0
 40
1.5
  0
LINE
  5
C31
330
DD3
100
AcDbEntity
  8
0
100
AcDbLine
 10
247.9661994917943
 20
116.630918038219
 30
0.0
 11
247.9661994917943
 21
170.7733402768059
 31
0.0
  0
ARC
  5
C32
330
DD3
100
AcDbEntity
  8
0
100
AcDbCircle
 10
147.3235056430479
 20
225.8732181317179
 30
0.0
 40
37.07923758464026
100
AcDbArc
 50
319.664477367864
 51
40.33552263213532
  0
LINE
  5
C33
330
DD3
100
AcDbEntity
  8
0
100
AcDbLine
 10
156.8002564907279
 20
212.3732181317179
 30
0.0
 11
156.8002564907279
 21
239.3732181317179
 31
0.0
  0
LINE
  5
C34
330
DD3
100
AcDbEntity
  8
0
100
AcDbLine
 10
156.8002564907279
 20
239.3732181317179
 30
0.0
 11
165.3002564907279
 21
239.3732181317179
 31
0.0
  0
LINE
  5
C35
330
DD3
100
AcDbEntity
  8
0
100
AcDbLine
 10
156.8002564907279
 20
212.3732181317179
 30
0.0
 11
165.3002564907279
 21
212.3732181317179
 31
0.0
  0
LINE
  5
C36
330
DD3
100
AcDbEntity
  8
1
100
AcDbLine
 10
81.90135283308626
 20
181.9521291575125
 30
0.0
 11
81.90135283308626
 21
104.9521291575124
 31
0.0
  0
ARC
  5
C37
330
DD3
100
AcDbEntity
  8
0
100
AcDbCircle
 10
81.90135283308626
 20
97.45212915751251
 30
0.0
 40
80.0
100
AcDbArc
 50
74.74247670954366
 51
77.36437490697888
  0
LINE
  5
C38
330
DD3
100
AcDbEntity
  8
0
100
AcDbLine
 10
57.90135283308632
 20
116.630918038219
 30
0.0
 11
57.90135283308632
 21
170.7733402768059
 31
0.0
  0
LINE
  5
C39
330
DD3
100
AcDbEntity
  8
1
100
AcDbLine
 10
52.90135283308632
 20
135.4521291575121
 30
0.0
 11
110.9013528330862
 21
135.4521291575121
 31
0.0
  0
ARC
  5
C3A
330
DD3
100
AcDbEntity
  8
0
100
AcDbCircle
 10
81.90135283308626
 20
189.9521291575124
 30
0.0
 40
80.0
100
AcDbArc
 50
254.7424767095436
 51
285.2575232904563
  0
LINE
  5
C3B
330
DD3
100
AcDbEntity
  8
0
100
AcDbLine
 10
105.9013528330862
 20
116.6309180382189
 30
0.0
 11
105.9013528330862
 21
170.7733402768059
 31
0.0
  0
ARC
  5
C3C
330
DD3
100
AcDbEntity
  8
0
100
AcDbCircle
 10
61.90135283308632
 20
170.7733402768059
 30
0.0
 40
4.0
100
AcDbArc
 50
105.2575232904561
 51
180.0
  0
ARC
  5
C3D
330
DD3
100
AcDbEntity
  8
0
100
AcDbCircle
 10
61.90135283308632
 20
116.6309180382189
 30
0.0
 40
4.0
100
AcDbArc
 50
179.9999999999998
 51
254.7424767095438
  0
ARC
  5
C3E
330
DD3
100
AcDbEntity
  8
0
100
AcDbCircle
 10
101.9013528330862
 20
116.6309180382189
 30
0.0
 40
4.0
100
AcDbArc
 50
285.2575232904568
 51
0.0
  0
ARC
  5
C3F
330
DD3
100
AcDbEntity
  8
0
100
AcDbCircle
 10
101.9013528330862
 20
170.7733402768059
 30
0.0
 40
4.0
100
AcDbArc
 50
0.0
 51
74.74247670954366
  0
ARC
  5
C40
330
DD3
100
AcDbEntity
  8
0
100
AcDbCircle
 10
291.9661994917943
 20
116.6309180382191
 30
0.0
 40
4.0
100
AcDbArc
 50
285.2575232904562
 51
0.0
  0
ARC
  5
C41
330
DD3
100
AcDbEntity
  8
0
100
AcDbCircle
 10
291.9661994917943
 20
170.7733402768058
 30
0.0
 40
4.0
100
AcDbArc
 50
0.0
 51
74.74247670954381
  0
ARC
  5
C42
330
DD3
100
AcDbEntity
  8
0
100
AcDbCircle
 10
251.9661994917943
 20
170.7733402768059
 30
0.0
 40
4.0
100
AcDbArc
 50
105.2575232904558
 51
180.0
  0
ARC
  5
C43
330
DD3
100
AcDbEntity
  8
0
100
AcDbCircle
 10
251.9661994917943
 20
116.630918038219
 30
0.0
 40
4.0
100
AcDbArc
 50
180.0000000000002
 51
254.7424767095442
  0
ARC
  5
C44
330
DD3
100
AcDbEntity
  8
0
100
AcDbCircle
 10
169.8002564907279
 20
168.4790345314017
 30
0.0
 40
4.0
100
AcDbArc
 50
109.9999999999998
 51
180.0
  0
ARC
  5
C45
330
DD3
100
AcDbEntity
  8
0
100
AcDbCircle
 10
169.8002564907279
 20
113.9521291575124
 30
0.0
 40
4.0
100
AcDbArc
 50
180.0
 51
269.9999999999999
  0
ARC
  5
C46
330
DD3
100
AcDbEntity
  8
0
100
AcDbCircle
 10
169.8002564907279
 20
245.8732181317178
 30
0.0
 40
4.0
100
AcDbArc
 50
90.0
 51
179.9999999999999
  0
ARC
  5
C47
330
DD3
100
AcDbEntity
  8
0
100
AcDbCircle
 10
169.8002564907279
 20
205.8732181317177
 30
0.0
 40
4.0
100
AcDbArc
 50
179.9999999999999
 51
269.9999999999998
  0
CIRCLE
  5
C48
330
DD3
100
AcDbEntity
  8
0
100
AcDbCircle
 10
271.9661994917943
 20
135.4521291575121
 30
0.0
 40
10.0
  0
LINE
  5
C49
330
DD3
100
AcDbEntity
  8
0
100
AcDbLine
 10
156.8002564907279
 20
121.9521291575121
 30
0.0
 11
165.3002564907279
 21
121.9521291575121
 31
0.0
  0
ARC
  5
C4A
330
DD3
100
AcDbEntity
  8
0
100
AcDbCircle
 10
169.8002564907279
 20
38.1531208604415
 30
0.0
 40
4.0
100
AcDbArc
 50
179.9999999999999
 51
269.9999999999998
  0
ARC
  5
C4B
330
DD3
100
AcDbEntity
  8
0
100
AcDbCircle
 10
169.8002564907279
 20
78.15312086044162
 30
0.0
 40
4.0
100
AcDbArc
 50
90.0
 51
179.9999999999999
  0
LINE
  5
C4C
330
DD3
100
AcDbEntity
  8
0
100
AcDbLine
 10
156.8002564907279
 20
44.65312086044167
 30
0.0
 11
165.3002564907279
 21
44.65312086044167
 31
0.0
  0
LINE
  5
C4D
330
DD3
100
AcDbEntity
  8
0
100
AcDbLine
 10
156.8002564907279
 20
71.65312086044173
 30
0.0
 11
165.3002564907279
 21
71.65312086044173
 31
0.0
  0
LINE
  5
C4E
330
DD3
100
AcDbEntity
  8
0
100
AcDbLine
 10
156.8002564907279
 20
44.65312086044167
 30
0.0
 11
156.8002564907279
 21
71.65312086044173
 31
0.0
  0
LINE
  5
C4F
330
DD3
100
AcDbEntity
  8
0
100
AcDbLine
 10
195.3002564907279
 20
82.15312086044162
 30
0.0
 11
169.8002564907279
 21
82.15312086044162
 31
0.0
  0
LINE
  5
C50
330
DD3
100
AcDbEntity
  8
0
100
AcDbLine
 10
169.8002564907279
 20
34.1531208604415
 30
0.0
 11
195.3002564907279
 21
34.1531208604415
 31
0.0
  0
LINE
  5
C51
330
DD3
100
AcDbEntity
  8
0
100
AcDbLine
 10
195.3002564907279
 20
34.1531208604415
 30
0.0
 11
195.3002564907279
 21
82.15312086044162
 31
0.0
  0
LINE
  5
C52
330
DD3
100
AcDbEntity
  8
0
100
AcDbLine
 10
165.8002564907279
 20
38.1531208604415
 30
0.0
 11
165.8002564907279
 21
78.15312086044162
 31
0.0
  0
LINE
  5
C53
330
DD3
100
AcDbEntity
  8
1
100
AcDbLine
 10
206.3002564907279
 20
58.1531208604419
 30
0.0
 11
151.8002564907279
 21
58.1531208604419
 31
0.0
  0
LINE
  5
C54
330
DD3
100
AcDbEntity
  8
0
100
AcDbLine
 10
190.3002564907279
 20
34.1531208604415
 30
0.0
 11
190.3002564907279
 21
82.15312086044162
 31
0.0
  0
LINE
  5
C55
330
DD3
100
AcDbEntity
  8
0
100
AcDbLine
 10
165.8002564907279
 20
77.1531208604419
 30
0.0
 11
165.3002564907279
 21
77.1531208604419
 31
0.0
  0
LINE
  5
C56
330
DD3
100
AcDbEntity
  8
0
100
AcDbLine
 10
165.3002564907279
 20
77.1531208604419
 30
0.0
 11
165.3002564907279
 21
39.1531208604419
 31
0.0
  0
LINE
  5
C57
330
DD3
100
AcDbEntity
  8
0
100
AcDbLine
 10
165.3002564907279
 20
39.1531208604419
 30
0.0
 11
165.8002564907279
 21
39.1531208604419
 31
0.0
  0
POLYLINE
  5
C58
330
DD3
100
AcDbEntity
  8
0
100
AcDb2dPolyline
 66
     1
 10
0.0
 20
0.0
 30
0.0
 70
     1
  0
VERTEX
  5
C59
330
C58
100
AcDbEntity
  8
0
100
AcDbVertex
100
AcDb2dVertex
 10
163.6002564907278
 20
67.69906431380917
 30
0.0
 42
-0.1332561510788753
  0
VERTEX
  5
C5A
330
C58
100
AcDbEntity
  8
0
100
AcDbVertex
100
AcDb2dVertex
 10
163.4260472742228
 20
67.0570085929034
 30
0.0
 42
-0.1067562697216228
  0
VERTEX
  5
C5B
330
C58
100
AcDbEntity
  8
0
100
AcDbVertex
100
AcDb2dVertex
 10
162.8680234436942
 20
66.44906431380917
 30
0.0
 42
-0.0828275296410038
 70
     2
 50
215.2643896827548
  0
VERTEX
  5
C5C
330
C58
100
AcDbEntity
  8
0
100
AcDbVertex
100
AcDb2dVertex
 10
162.0078009299243
 20
66.03331522580612
 30
0.0
 42
-0.0867079104441661
  0
VERTEX
  5
C5D
330
C58
100
AcDbEntity
  8
0
100
AcDbVertex
100
AcDb2dVertex
 10
161.1002564907278
 20
65.93129736084279
 30
0.0
 42
-0.0713517487531113
  0
VERTEX
  5
C5E
330
C58
100
AcDbEntity
  8
0
100
AcDbVertex
100
AcDb2dVertex
 10
160.1098727733906
 20
66.07335179051659
 30
0.0
 42
-0.0828275296410024
  0
VERTEX
  5
C5F
330
C58
100
AcDbEntity
  8
0
100
AcDbVertex
100
AcDb2dVertex
 10
159.3324895377616
 20
66.44906431380917
 30
0.0
 42
-0.1067562697216169
 70
     2
 50
144.735610317245
  0
VERTEX
  5
C60
330
C58
100
AcDbEntity
  8
0
100
AcDbVertex
100
AcDb2dVertex
 10
158.774465707233
 20
67.0570085929034
 30
0.0
 42
-0.1332561510788725
  0
VERTEX
  5
C61
330
C58
100
AcDbEntity
  8
0
100
AcDbVertex
100
AcDb2dVertex
 10
158.6002564907278
 20
67.69906431380917
 30
0.0
 42
-0.1332561510788583
  0
VERTEX
  5
C62
330
C58
100
AcDbEntity
  8
0
100
AcDbVertex
100
AcDb2dVertex
 10
158.774465707233
 20
68.34112003471506
 30
0.0
 42
-0.1067562697215875
  0
VERTEX
  5
C63
330
C58
100
AcDbEntity
  8
0
100
AcDbVertex
100
AcDb2dVertex
 10
159.3324895377616
 20
68.94906431380923
 30
0.0
 42
-0.0828275296410098
 70
     2
 50
35.26438968275488
  0
VERTEX
  5
C64
330
C58
100
AcDbEntity
  8
0
100
AcDbVertex
100
AcDb2dVertex
 10
160.1098727733906
 20
69.32477683710181
 30
0.0
 42
-0.0713517487531184
  0
VERTEX
  5
C65
330
C58
100
AcDbEntity
  8
0
100
AcDbVertex
100
AcDb2dVertex
 10
161.1002564907278
 20
69.46683126677555
 30
0.0
 42
-0.0713517487531214
  0
VERTEX
  5
C66
330
C58
100
AcDbEntity
  8
0
100
AcDbVertex
100
AcDb2dVertex
 10
162.0906402080652
 20
69.32477683710181
 30
0.0
 42
-0.0828275296410031
  0
VERTEX
  5
C67
330
C58
100
AcDbEntity
  8
0
100
AcDbVertex
100
AcDb2dVertex
 10
162.8680234436942
 20
68.94906431380923
 30
0.0
 42
-0.1067562697216167
 70
     2
 50
324.735610317245
  0
VERTEX
  5
C68
330
C58
100
AcDbEntity
  8
0
100
AcDbVertex
100
AcDb2dVertex
 10
163.4260472742228
 20
68.341120034715
 30
0.0
 42
-0.1332561510788725
  0
SEQEND
  5
C69
330
C58
100
AcDbEntity
  8
0
  0
POLYLINE
  5
C6A
330
DD3
100
AcDbEntity
  8
3
100
AcDb2dPolyline
 66
     1
 10
0.0
 20
0.0
 30
0.0
 70
     1
  0
VERTEX
  5
C6B
330
C6A
100
AcDbEntity
  8
3
100
AcDbVertex
100
AcDb2dVertex
 10
159.0332564907273
 20
67.69906431380917
 30
0.0
 42
-0.1332561510789112
  0
VERTEX
  5
C6C
330
C6A
100
AcDbEntity
  8
3
100
AcDbVertex
100
AcDb2dVertex
 10
159.1772926709338
 20
68.22991598385414
 30
0.0
 42
-0.1067562697216285
  0
VERTEX
  5
C6D
330
C6A
100
AcDbEntity
  8
3
100
AcDbVertex
100
AcDb2dVertex
 10
159.6386667740148
 20
68.73256431380929
 30
0.0
 42
-0.0828275296409765
 70
     2
 50
35.26438968274979
  0
VERTEX
  5
C6E
330
C6A
100
AcDbEntity
  8
3
100
AcDbVertex
100
AcDb2dVertex
 10
160.3498987484001
 20
69.07630565977029
 30
0.0
 42
-0.0867079104441287
  0
VERTEX
  5
C6F
330
C6A
100
AcDbEntity
  8
3
100
AcDbVertex
100
AcDb2dVertex
 10
161.1002564907278
 20
69.16065403052193
 30
0.0
 42
-0.0713517487530916
  0
VERTEX
  5
C70
330
C6A
100
AcDbEntity
  8
3
100
AcDbVertex
100
AcDb2dVertex
 10
161.9191057482225
 20
69.04320342806767
 30
0.0
 42
-0.0828275296409883
  0
VERTEX
  5
C71
330
C6A
100
AcDbEntity
  8
3
100
AcDbVertex
100
AcDb2dVertex
 10
162.561846207441
 20
68.73256431380929
 30
0.0
 42
-0.1067562697216101
 70
     2
 50
324.735610317251
  0
VERTEX
  5
C72
330
C6A
100
AcDbEntity
  8
3
100
AcDbVertex
100
AcDb2dVertex
 10
163.0232203105219
 20
68.22991598385414
 30
0.0
 42
-0.1332561510788615
  0
VERTEX
  5
C73
330
C6A
100
AcDbEntity
  8
3
100
AcDbVertex
100
AcDb2dVertex
 10
163.1672564907285
 20
67.69906431380923
 30
0.0
 42
-0.1332561510788673
  0
VERTEX
  5
C74
330
C6A
100
AcDbEntity
  8
3
100
AcDbVertex
100
AcDb2dVertex
 10
163.0232203105219
 20
67.16821264376426
 30
0.0
 42
-0.1067562697216111
  0
VERTEX
  5
C75
330
C6A
100
AcDbEntity
  8
3
100
AcDbVertex
100
AcDb2dVertex
 10
162.561846207441
 20
66.66556431380911
 30
0.0
 42
-0.0828275296410134
 70
     2
 50
215.2643896827498
  0
VERTEX
  5
C76
330
C6A
100
AcDbEntity
  8
3
100
AcDbVertex
100
AcDb2dVertex
 10
161.9191057482225
 20
66.35492519955079
 30
0.0
 42
-0.0713517487531155
  0
VERTEX
  5
C77
330
C6A
100
AcDbEntity
  8
3
100
AcDbVertex
100
AcDb2dVertex
 10
161.1002564907278
 20
66.23747459709647
 30
0.0
 42
-0.0713517487530977
  0
VERTEX
  5
C78
330
C6A
100
AcDbEntity
  8
3
100
AcDbVertex
100
AcDb2dVertex
 10
160.281407233233
 20
66.35492519955073
 30
0.0
 42
-0.0828275296409885
  0
VERTEX
  5
C79
330
C6A
100
AcDbEntity
  8
3
100
AcDbVertex
100
AcDb2dVertex
 10
159.6386667740148
 20
66.66556431380906
 30
0.0
 42
-0.1067562697216128
 70
     2
 50
144.7356103172509
  0
VERTEX
  5
C7A
330
C6A
100
AcDbEntity
  8
3
100
AcDbVertex
100
AcDb2dVertex
 10
159.1772926709338
 20
67.1682126437642
 30
0.0
 42
-0.1332561510788984
  0
SEQEND
  5
C7B
330
C6A
100
AcDbEntity
  8
3
  0
LINE
  5
C7C
330
DD3
100
AcDbEntity
  8
0
100
AcDbLine
 10
160.3785686542407
 20
66.81518083732601
 30
0.0
 11
161.821944327215
 21
66.81518083732601
 31
0.0
  0
LINE
  5
C7D
330
DD3
100
AcDbEntity
  8
0
100
AcDbLine
 10
160.3785686542407
 20
68.5829477902924
 30
0.0
 11
161.821944327215
 21
68.5829477902924
 31
0.0
  0
LINE
  5
C7E
330
DD3
100
AcDbEntity
  8
0
100
AcDbLine
 10
161.821944327215
 20
66.81518083732601
 30
0.0
 11
162.5436321637018
 21
67.69906431380917
 31
0.0
  0
LINE
  5
C7F
330
DD3
100
AcDbEntity
  8
0
100
AcDbLine
 10
161.821944327215
 20
68.58294779029233
 30
0.0
 11
162.5436321637018
 21
67.69906431380917
 31
0.0
  0
LINE
  5
C80
330
DD3
100
AcDbEntity
  8
0
100
AcDbLine
 10
160.3785686542407
 20
68.58294779029233
 30
0.0
 11
159.6568808177539
 21
67.69906431380917
 31
0.0
  0
LINE
  5
C81
330
DD3
100
AcDbEntity
  8
0
100
AcDbLine
 10
160.3785686542407
 20
66.81518083732601
 30
0.0
 11
159.6568808177539
 21
67.69906431380917
 31
0.0
  0
LINE
  5
C82
330
DD3
100
AcDbEntity
  8
1
100
AcDbLine
 10
161.100256490728
 20
63.43129736084279
 30
0.0
 11
161.1002564907279
 21
71.96683126677555
 31
0.0
  0
LINE
  5
C83
330
DD3
100
AcDbEntity
  8
0
100
AcDbLine
 10
99.40135283308627
 20
157.4521291575121
 30
0.0
 11
64.40135283308626
 21
157.4521291575121
 31
0.0
  0
LINE
  5
C84
330
DD3
100
AcDbEntity
  8
0
100
AcDbLine
 10
99.40135283308627
 20
168.4521291575121
 30
0.0
 11
99.40135283308627
 21
157.4521291575121
 31
0.0
  0
LINE
  5
C85
330
DD3
100
AcDbEntity
  8
0
100
AcDbLine
 10
64.40135283308626
 20
168.4521291575121
 30
0.0
 11
64.40135283308626
 21
157.4521291575121
 31
0.0
  0
LINE
  5
C86
330
DD3
100
AcDbEntity
  8
0
100
AcDbLine
 10
99.40135283308627
 20
168.4521291575121
 30
0.0
 11
64.40135283308626
 21
168.4521291575121
 31
0.0
  0
LINE
  5
C87
330
DD3
100
AcDbEntity
  8
0
100
AcDbLine
 10
59.90135283308632
 20
170.7733402768058
 30
0.0
 11
103.9013528330862
 21
170.7733402768059
 31
0.0
  0
LINE
  5
C88
330
DD3
100
AcDbEntity
  8
0
100
AcDbLine
 10
201.3002564907279
 20
55.65312086044054
 30
0.0
 11
201.3002564907279
 21
60.65312086044173
 31
0.0
  0
LINE
  5
C89
330
DD3
100
AcDbEntity
  8
0
100
AcDbLine
 10
200.8002564907278
 20
55.15312086044054
 30
0.0
 11
195.3002564907279
 21
55.15312086044054
 31
0.0
  0
ARC
  5
C8A
330
DD3
100
AcDbEntity
  8
0
100
AcDbCircle
 10
200.8002564907279
 20
55.65312086044054
 30
0.0
 40
0.5
100
AcDbArc
 50
270.0
 51
0.0
  0
LINE
  5
C8B
330
DD3
100
AcDbEntity
  8
0
100
AcDbLine
 10
200.8002564907278
 20
61.15312086044173
 30
0.0
 11
195.3002564907279
 21
61.15312086044173
 31
0.0
  0
ARC
  5
C8C
330
DD3
100
AcDbEntity
  8
0
100
AcDbCircle
 10
200.8002564907279
 20
60.65312086044173
 30
0.0
 40
0.5
100
AcDbArc
 50
0.0
 51
90.0
  0
LINE
  5
C8D
330
DD3
100
AcDbEntity
  8
0
100
AcDbLine
 10
201.3002564907279
 20
223.3732181317168
 30
0.0
 11
201.3002564907279
 21
228.373218131718
 31
0.0
  0
LINE
  5
C8E
330
DD3
100
AcDbEntity
  8
0
100
AcDbLine
 10
200.8002564907278
 20
222.8732181317168
 30
0.0
 11
195.3002564907279
 21
222.8732181317168
 31
0.0
  0
ARC
  5
C8F
330
DD3
100
AcDbEntity
  8
0
100
AcDbCircle
 10
200.8002564907279
 20
223.3732181317168
 30
0.0
 40
0.5
100
AcDbArc
 50
270.0
 51
0.0
  0
LINE
  5
C90
330
DD3
100
AcDbEntity
  8
0
100
AcDbLine
 10
200.8002564907278
 20
228.873218131718
 30
0.0
 11
195.3002564907279
 21
228.873218131718
 31
0.0
  0
ARC
  5
C91
330
DD3
100
AcDbEntity
  8
0
100
AcDbCircle
 10
200.8002564907279
 20
228.373218131718
 30
0.0
 40
0.5
100
AcDbArc
 50
0.0
 51
90.0
  0
CIRCLE
  5
C92
330
DD3
100
AcDbEntity
  8
0
100
AcDbCircle
 10
290.2161994917943
 20
153.7021291575121
 30
0.0
 40
1.25
  0
CIRCLE
  5
C93
330
DD3
100
AcDbEntity
  8
0
100
AcDbCircle
 10
253.7161994917943
 20
153.7021291575121
 30
0.0
 40
1.25
  0
CIRCLE
  5
C94
330
DD3
100
AcDbEntity
  8
0
100
AcDbCircle
 10
290.2161994917943
 20
117.2021291575121
 30
0.0
 40
1.25
  0
CIRCLE
  5
C95
330
DD3
100
AcDbEntity
  8
0
100
AcDbCircle
 10
253.6661994917943
 20
117.1521291575121
 30
0.0
 40
1.25
  0
LINE
  5
C96
330
DD3
100
AcDbEntity
  8
1
100
AcDbLine
 10
257.4661994917943
 20
153.7021291575121
 30
0.0
 11
249.9661994917943
 21
153.7021291575121
 31
0.0
  0
LINE
  5
C97
330
DD3
100
AcDbEntity
  8
1
100
AcDbLine
 10
253.7161994917943
 20
157.4521291575121
 30
0.0
 11
253.7161994917943
 21
149.9521291575121
 31
0.0
  0
LINE
  5
C98
330
DD3
100
AcDbEntity
  8
1
100
AcDbLine
 10
257.4161994917943
 20
117.1521291575121
 30
0.0
 11
249.9161994917943
 21
117.1521291575121
 31
0.0
  0
LINE
  5
C99
330
DD3
100
AcDbEntity
  8
1
100
AcDbLine
 10
253.6661994917943
 20
120.9021291575121
 30
0.0
 11
253.6661994917943
 21
113.4021291575121
 31
0.0
  0
LINE
  5
C9A
330
DD3
100
AcDbEntity
  8
1
100
AcDbLine
 10
293.9661994917943
 20
117.2021291575121
 30
0.0
 11
286.4661994917943
 21
117.2021291575121
 31
0.0
  0
LINE
  5
C9B
330
DD3
100
AcDbEntity
  8
1
100
AcDbLine
 10
290.2161994917943
 20
120.9521291575121
 30
0.0
 11
290.2161994917943
 21
113.4521291575121
 31
0.0
  0
LINE
  5
C9C
330
DD3
100
AcDbEntity
  8
1
100
AcDbLine
 10
293.9661994917943
 20
153.7021291575121
 30
0.0
 11
286.4661994917943
 21
153.7021291575121
 31
0.0
  0
LINE
  5
C9D
330
DD3
100
AcDbEntity
  8
1
100
AcDbLine
 10
290.2161994917943
 20
157.4521291575121
 30
0.0
 11
290.2161994917943
 21
149.9521291575121
 31
0.0
  0
LINE
  5
C9E
330
DD3
100
AcDbEntity
  8
0
100
AcDbLine
 10
179.8002564907292
 20
208.3732181317181
 30
0.0
 11
179.8002564907291
 21
243.3732181317181
 31
0.0
  0
LINE
  5
C9F
330
DD3
100
AcDbEntity
  8
0
100
AcDbLine
 10
179.8002564907291
 20
243.3732181317181
 30
0.0
 11
168.8002564907291
 21
243.3732181317182
 31
0.0
  0
LINE
  5
CA0
330
DD3
100
AcDbEntity
  8
0
100
AcDbLine
 10
179.8002564907291
 20
208.3732181317181
 30
0.0
 11
168.8002564907291
 21
208.3732181317181
 31
0.0
  0
INSERT
  5
CA1
330
DD3
100
AcDbEntity
  8
0
100
AcDbBlockReference
  2
STDGX5
 10
790.0399149136655
 20
28.67638091179685
 30
0.0
  0
INSERT
  5
CA2
330
DD3
100
AcDbEntity
  8
0
100
AcDbBlockReference
  2
STDGX5
 10
790.0399149136655
 20
28.67638091179685
 30
0.0
  0
INSERT
  5
CA3
330
DD3
100
AcDbEntity
  8
0
100
AcDbBlockReference
  2
STDGX5
 10
1065.039914913665
 20
28.67638091179685
 30
0.0
  0
INSERT
  5
CA4
330
DD3
100
AcDbEntity
  8
0
100
AcDbBlockReference
  2
STDGX5
 10
1065.039914913665
 20
28.67638091179685
 30
0.0
  0
INSERT
  5
CA5
330
DD3
100
AcDbEntity
  8
0
100
AcDbBlockReference
  2
STDGX5
 10
790.0399149136655
 20
28.67638091179685
 30
0.0
 41
2.0
 42
2.0
 43
2.0
  0
INSERT
  5
CA6
330
DD3
100
AcDbEntity
  8
0
100
AcDbBlockReference
  2
STDGX5
 10
790.0399149136655
 20
28.67638091179685
 30
0.0
 41
2.0
 42
2.0
 43
2.0
  0
INSERT
  5
CA7
330
DD3
100
AcDbEntity
  8
0
100
AcDbBlockReference
  2
STDGX5
 10
1340.039914913665
 20
28.67638091179685
 30
0.0
 41
2.0
 42
2.0
 43
2.0
  0
INSERT
  5
CA8
330
DD3
100
AcDbEntity
  8
0
100
AcDbBlockReference
  2
STDGX5
 10
1340.039914913665
 20
28.67638091179685
 30
0.0
 41
2.0
 42
2.0
 43
2.0
  0
INSERT
  5
CA9
330
DD3
100
AcDbEntity
  8
0
100
AcDbBlockReference
  2
STDGX5
 10
790.0399149136655
 20
28.67638091179685
 30
0.0
  0
INSERT
  5
CAA
330
DD3
100
AcDbEntity
  8
0
100
AcDbBlockReference
  2
STDGX5
 10
790.0399149136655
 20
28.67638091179685
 30
0.0
  0
INSERT
  5
CAB
330
DD3
100
AcDbEntity
  8
0
100
AcDbBlockReference
  2
STDGX5
 10
1065.039914913665
 20
28.67638091179685
 30
0.0
  0
INSERT
  5
CAC
330
DD3
100
AcDbEntity
  8
0
100
AcDbBlockReference
  2
STDGX5
 10
1065.039914913665
 20
28.67638091179685
 30
0.0
  0
LINE
  5
CAD
330
DD3
100
AcDbEntity
  8
0
100
AcDbLine
 10
99.40135283308627
 20
172.3717753870396
 30
0.0
 11
64.40135283308626
 21
172.3717753870396
 31
0.0
  0
ARC
  5
CAE
330
DD3
100
AcDbEntity
  8
0
100
AcDbCircle
 10
59.90135283308632
 20
168.7733402768058
 30
0.0
 40
2.0
100
AcDbArc
 50
90.00000000000007
 51
180.0
  0
ARC
  5
CAF
330
DD3
100
AcDbEntity
  8
0
100
AcDbCircle
 10
103.9013528330862
 20
168.7733402768059
 30
0.0
 40
2.0
100
AcDbArc
 50
0.0
 51
90.0000000000001
  0
LINE
  5
CB0
330
DD3
100
AcDbEntity
  8
0
100
AcDbLine
 10
99.40135283308627
 20
176.3955532748459
 30
0.0
 11
99.40135283308627
 21
172.3717753870395
 31
0.0
  0
LINE
  5
CB1
330
DD3
100
AcDbEntity
  8
0
100
AcDbLine
 10
64.40135283308626
 20
176.3955532748459
 30
0.0
 11
64.40135283308626
 21
172.3717753870395
 31
0.0
  0
LINE
  5
CB2
330
DD3
100
AcDbEntity
  8
0
100
AcDbLine
 10
99.40135283308627
 20
176.3955532748459
 30
0.0
 11
64.40135283308626
 21
176.3955532748459
 31
0.0
  0
ARC
  5
CB3
330
DD3
100
AcDbEntity
  8
0
100
AcDbCircle
 10
81.90135283308626
 20
97.45212915751251
 30
0.0
 40
80.0
100
AcDbArc
 50
102.6356250930211
 51
105.2575232904563
  0
ARC
  5
CB4
330
DD3
100
AcDbEntity
  8
0
100
AcDbCircle
 10
81.90135283308626
 20
97.45212915751251
 30
0.0
 40
80.0
100
AcDbArc
 50
80.67772029297762
 51
99.32227970702248
  0
INSERT
  5
CB5
330
DD3
100
AcDbEntity
  8
0
100
AcDbBlockReference
  2
STDGX5
 10
392.9671840186238
 20
14.58626895085149
 30
0.0
 41
0.25
 42
0.25
 43
0.25
  0
INSERT
  5
CB6
330
DD3
100
AcDbEntity
  8
0
100
AcDbBlockReference
  2
STDGX5
 10
392.9671840186238
 20
14.58626895085149
 30
0.0
 41
0.25
 42
0.25
 43
0.25
  0
INSERT
  5
CB7
330
DD3
100
AcDbEntity
  8
0
100
AcDbBlockReference
  2
STDGX5
 10
461.7171840186237
 20
14.58626895085149
 30
0.0
 41
0.25
 42
0.25
 43
0.25
  0
INSERT
  5
CB8
330
DD3
100
AcDbEntity
  8
0
100
AcDbBlockReference
  2
STDGX5
 10
461.7171840186237
 20
14.58626895085149
 30
0.0
 41
0.25
 42
0.25
 43
0.25
  0
INSERT
  5
CB9
330
DD3
100
AcDbEntity
  8
0
100
AcDbBlockReference
  2
STDGX5
 10
392.9671840186238
 20
14.58626895085149
 30
0.0
 41
0.5
 42
0.5
 43
0.5
  0
INSERT
  5
CBA
330
DD3
100
AcDbEntity
  8
0
100
AcDbBlockReference
  2
STDGX5
 10
392.9671840186238
 20
14.58626895085149
 30
0.0
 41
0.5
 42
0.5
 43
0.5
  0
INSERT
  5
CBB
330
DD3
100
AcDbEntity
  8
0
100
AcDbBlockReference
  2
STDGX5
 10
530.4671840186237
 20
14.58626895085149
 30
0.0
 41
0.5
 42
0.5
 43
0.5
  0
INSERT
  5
CBC
330
DD3
100
AcDbEntity
  8
0
100
AcDbBlockReference
  2
STDGX5
 10
530.4671840186237
 20
14.58626895085149
 30
0.0
 41
0.5
 42
0.5
 43
0.5
  0
INSERT
  5
CBE
330
DD3
100
AcDbEntity
  8
0
100
AcDbBlockReference
  2
STDGX5
 10
357.9671840186238
 20
-85.41373104914852
 30
0.0
 41
0.3333333333333333
 42
0.3333333333333333
 43
0.3333333333333333
  0
INSERT
  5
CBF
330
DD3
100
AcDbEntity
  8
0
100
AcDbBlockReference
  2
STDGX5
 10
357.9671840186238
 20
-85.41373104914852
 30
0.0
 41
0.3333333333333333
 42
0.3333333333333333
 43
0.3333333333333333
  0
INSERT
  5
CC0
330
DD3
100
AcDbEntity
  8
0
100
AcDbBlockReference
  2
STDGX5
 10
449.6338506852904
 20
-85.41373104914852
 30
0.0
 41
0.3333333333333333
 42
0.3333333333333333
 43
0.3333333333333333
  0
INSERT
  5
CC1
330
DD3
100
AcDbEntity
  8
0
100
AcDbBlockReference
  2
STDGX5
 10
449.6338506852904
 20
-85.41373104914852
 30
0.0
 41
0.3333333333333333
 42
0.3333333333333333
 43
0.3333333333333333
  0
INSERT
  5
CC3
330
DD3
100
AcDbEntity
  8
0
100
AcDbBlockReference
  2
STDGX5
 10
357.9671840186238
 20
-85.41373104914852
 30
0.0
 41
0.3333333333333333
 42
0.3333333333333333
 43
0.3333333333333333
  0
INSERT
  5
CC4
330
DD3
100
AcDbEntity
  8
0
100
AcDbBlockReference
  2
STDGX5
 10
357.9671840186238
 20
-85.41373104914852
 30
0.0
 41
0.3333333333333333
 42
0.3333333333333333
 43
0.3333333333333333
  0
INSERT
  5
CC5
330
DD3
100
AcDbEntity
  8
0
100
AcDbBlockReference
  2
STDGX5
 10
449.6338506852904
 20
-85.41373104914852
 30
0.0
 41
0.3333333333333333
 42
0.3333333333333333
 43
0.3333333333333333
  0
INSERT
  5
CC6
330
DD3
100
AcDbEntity
  8
0
100
AcDbBlockReference
  2
STDGX5
 10
449.6338506852904
 20
-85.41373104914852
 30
0.0
 41
0.3333333333333333
 42
0.3333333333333333
 43
0.3333333333333333
  0
INSERT
  5
CC7
330
DD3
100
AcDbEntity
  8
0
100
AcDbBlockReference
  2
STDGX5
 10
392.9671840186238
 20
14.58626895085149
 30
0.0
  0
INSERT
  5
CC8
330
DD3
100
AcDbEntity
  8
0
100
AcDbBlockReference
  2
STDGX5
 10
392.9671840186238
 20
14.58626895085149
 30
0.0
  0
INSERT
  5
CC9
330
DD3
100
AcDbEntity
  8
0
100
AcDbBlockReference
  2
STDGX5
 10
667.9671840186237
 20
14.58626895085149
 30
0.0
  0
INSERT
  5
CCA
330
DD3
100
AcDbEntity
  8
0
100
AcDbBlockReference
  2
STDGX5
 10
667.9671840186237
 20
14.58626895085149
 30
0.0
  0
TEXT
  5
CDA
330
DD3
100
AcDbEntity
  8
0
100
AcDbText
 10
93.18552549495695
 20
159.7021291575123
 30
0.0
 40
6.4
  1
0
 41
0.8349999999999999
100
AcDbText
  0
LINE
  5
CDB
330
DD3
100
AcDbEntity
  8
0
100
AcDbLine
 10
85.1513528330865
 20
157.4521291575121
 30
0.0
 11
85.15135283308643
 21
168.4521291575122
 31
0.0
  0
TEXT
  5
CDC
330
DD3
100
AcDbEntity
  8
0
100
AcDbText
 10
79.41664060287064
 20
159.7021291575123
 30
0.0
 40
6.4
  1
0
 41
0.8349999999999999
100
AcDbText
  0
TEXT
  5
CDE
330
DD3
100
AcDbEntity
  8
0
100
AcDbText
 10
65.17563340862603
 20
159.7021291575123
 30
0.0
 40
6.4
  1
0
 41
0.8349999999999999
100
AcDbText
  0
TEXT
  5
CDF
330
DD3
100
AcDbEntity
  8
0
100
AcDbText
 10
72.29613700574834
 20
159.7021291575123
 30
0.0
 40
6.4
  1
0
 41
0.8349999999999999
100
AcDbText
  0
POLYLINE
  5
CE0
330
DD3
100
AcDbEntity
  8
3
  6
Continuous
100
AcDb3dPolyline
 66
     1
 10
0.0
 20
0.0
 30
0.0
 70
     8
  0
VERTEX
  5
D08
330
CE0
100
AcDbEntity
  8
3
  6
Continuous
100
AcDbVertex
100
AcDb3dPolylineVertex
 10
175.8002564907291
 20
222.2732181317183
 30
0.0
 70
    32
1001
ACAD
1000
R13OBJECT
1002
{
1005
CE0
1002
}
  0
VERTEX
  5
D09
330
CE0
100
AcDbEntity
  8
3
  6
Continuous
100
AcDbVertex
100
AcDb3dPolylineVertex
 10
175.7564521488785
 20
222.6088801002066
 30
0.0
 70
    32
1001
ACAD
1000
R13OBJECT
1002
{
1005
CE0
1002
}
  0
VERTEX
  5
D0A
330
CE0
100
AcDbEntity
  8
3
  6
Continuous
100
AcDbVertex
100
AcDb3dPolylineVertex
 10
175.6141744773099
 20
222.9482690339929
 30
0.0
 70
    32
1001
ACAD
1000
R13OBJECT
1002
{
1005
CE0
1002
}
  0
VERTEX
  5
D0B
330
CE0
100
AcDbEntity
  8
3
  6
Continuous
100
AcDbVertex
100
AcDb3dPolylineVertex
 10
175.3700953221448
 20
223.2542212991755
 30
0.0
 70
    32
1001
ACAD
1000
R13OBJECT
1002
{
1005
CE0
1002
}
  0
VERTEX
  5
D0C
330
CE0
100
AcDbEntity
  8
3
  6
Continuous
100
AcDbVertex
100
AcDb3dPolylineVertex
 10
175.0432883854332
 20
223.4892071247015
 30
0.0
 70
    32
1001
ACAD
1000
R13OBJECT
1002
{
1005
CE0
1002
}
  0
VERTEX
  5
D0D
330
CE0
100
AcDbEntity
  8
3
  6
Continuous
100
AcDbVertex
100
AcDb3dPolylineVertex
 10
174.3002564907291
 20
223.6732181317182
 30
0.0
 70
    32
1001
ACAD
1000
R13OBJECT
1002
{
1005
CE0
1002
}
  0
VERTEX
  5
D0E
330
CE0
100
AcDbEntity
  8
3
  6
Continuous
100
AcDbVertex
100
AcDb3dPolylineVertex
 10
173.5572245960249
 20
223.4892071247015
 30
0.0
 70
    32
1001
ACAD
1000
R13OBJECT
1002
{
1005
CE0
1002
}
  0
VERTEX
  5
D0F
330
CE0
100
AcDbEntity
  8
3
  6
Continuous
100
AcDbVertex
100
AcDb3dPolylineVertex
 10
173.2304176593133
 20
223.2542212991755
 30
0.0
 70
    32
1001
ACAD
1000
R13OBJECT
1002
{
1005
CE0
1002
}
  0
VERTEX
  5
D10
330
CE0
100
AcDbEntity
  8
3
  6
Continuous
100
AcDbVertex
100
AcDb3dPolylineVertex
 10
172.9863385041483
 20
222.9482690339929
 30
0.0
 70
    32
1001
ACAD
1000
R13OBJECT
1002
{
1005
CE0
1002
}
  0
VERTEX
  5
D11
330
CE0
100
AcDbEntity
  8
3
  6
Continuous
100
AcDbVertex
100
AcDb3dPolylineVertex
 10
172.8440608325796
 20
222.6088801002066
 30
0.0
 70
    32
1001
ACAD
1000
R13OBJECT
1002
{
1005
CE0
1002
}
  0
VERTEX
  5
D12
330
CE0
100
AcDbEntity
  8
3
  6
Continuous
100
AcDbVertex
100
AcDb3dPolylineVertex
 10
172.8002564907292
 20
222.2732181317182
 30
0.0
 70
    32
1001
ACAD
1000
R13OBJECT
1002
{
1005
CE0
1002
}
  0
VERTEX
  5
D13
330
CE0
100
AcDbEntity
  8
3
  6
Continuous
100
AcDbVertex
100
AcDb3dPolylineVertex
 10
172.8440608325796
 20
221.9375561632298
 30
0.0
 70
    32
1001
ACAD
1000
R13OBJECT
1002
{
1005
CE0
1002
}
  0
VERTEX
  5
D14
330
CE0
100
AcDbEntity
  8
3
  6
Continuous
100
AcDbVertex
100
AcDb3dPolylineVertex
 10
172.9863385041482
 20
221.5981672294436
 30
0.0
 70
    32
1001
ACAD
1000
R13OBJECT
1002
{
1005
CE0
1002
}
  0
VERTEX
  5
D15
330
CE0
100
AcDbEntity
  8
3
  6
Continuous
100
AcDbVertex
100
AcDb3dPolylineVertex
 10
173.2304176593133
 20
221.292214964261
 30
0.0
 70
    32
1001
ACAD
1000
R13OBJECT
1002
{
1005
CE0
1002
}
  0
VERTEX
  5
D16
330
CE0
100
AcDbEntity
  8
3
  6
Continuous
100
AcDbVertex
100
AcDb3dPolylineVertex
 10
173.557224596025
 20
221.057229138735
 30
0.0
 70
    32
1001
ACAD
1000
R13OBJECT
1002
{
1005
CE0
1002
}
  0
VERTEX
  5
D17
330
CE0
100
AcDbEntity
  8
3
  6
Continuous
100
AcDbVertex
100
AcDb3dPolylineVertex
 10
174.3002564907292
 20
220.8732181317182
 30
0.0
 70
    32
1001
ACAD
1000
R13OBJECT
1002
{
1005
CE0
1002
}
  0
VERTEX
  5
D18
330
CE0
100
AcDbEntity
  8
3
  6
Continuous
100
AcDbVertex
100
AcDb3dPolylineVertex
 10
175.0432883854332
 20
221.0572291387349
 30
0.0
 70
    32
1001
ACAD
1000
R13OBJECT
1002
{
1005
CE0
1002
}
  0
VERTEX
  5
D19
330
CE0
100
AcDbEntity
  8
3
  6
Continuous
100
AcDbVertex
100
AcDb3dPolylineVertex
 10
175.3700953221448
 20
221.292214964261
 30
0.0
 70
    32
1001
ACAD
1000
R13OBJECT
1002
{
1005
CE0
1002
}
  0
VERTEX
  5
D1A
330
CE0
100
AcDbEntity
  8
3
  6
Continuous
100
AcDbVertex
100
AcDb3dPolylineVertex
 10
175.6141744773099
 20
221.5981672294436
 30
0.0
 70
    32
1001
ACAD
1000
R13OBJECT
1002
{
1005
CE0
1002
}
  0
VERTEX
  5
D1B
330
CE0
100
AcDbEntity
  8
3
  6
Continuous
100
AcDbVertex
100
AcDb3dPolylineVertex
 10
175.7564521488785
 20
221.9375561632298
 30
0.0
 70
    32
1001
ACAD
1000
R13OBJECT
1002
{
1005
CE0
1002
}
  0
VERTEX
  5
D1C
330
CE0
100
AcDbEntity
  8
3
  6
Continuous
100
AcDbVertex
100
AcDb3dPolylineVertex
 10
175.8002564907291
 20
222.2732181317183
 30
0.0
 70
    32
1001
ACAD
1000
R13OBJECT
1002
{
1005
CE0
1002
}
  0
SEQEND
  5
D1D
330
CE0
100
AcDbEntity
  8
3
  6
Continuous
  0
POLYLINE
  5
CE1
330
DD3
100
AcDbEntity
  8
3
  6
Continuous
100
AcDb3dPolyline
 66
     1
 10
0.0
 20
0.0
 30
0.0
 70
     8
  0
VERTEX
  5
D1E
330
CE1
100
AcDbEntity
  8
3
  6
Continuous
100
AcDbVertex
100
AcDb3dPolylineVertex
 10
176.3002564907291
 20
222.2732181317183
 30
0.0
 70
    32
1001
ACAD
1000
R13OBJECT
1002
{
1005
CE1
1002
}
  0
VERTEX
  5
D1F
330
CE1
100
AcDbEntity
  8
3
  6
Continuous
100
AcDbVertex
100
AcDb3dPolylineVertex
 10
176.0711685420355
 20
223.1561921586014
 30
0.0
 70
    32
1001
ACAD
1000
R13OBJECT
1002
{
1005
CE1
1002
}
  0
VERTEX
  5
D20
330
CE1
100
AcDbEntity
  8
3
  6
Continuous
100
AcDbVertex
100
AcDb3dPolylineVertex
 10
175.4363859841914
 20
223.8368874769162
 30
0.0
 70
    32
1001
ACAD
1000
R13OBJECT
1002
{
1005
CE1
1002
}
  0
VERTEX
  5
D21
330
CE1
100
AcDbEntity
  8
3
  6
Continuous
100
AcDbVertex
100
AcDb3dPolylineVertex
 10
174.5413298512397
 20
224.1593649925046
 30
0.0
 70
    32
1001
ACAD
1000
R13OBJECT
1002
{
1005
CE1
1002
}
  0
VERTEX
  5
D22
330
CE1
100
AcDbEntity
  8
3
  6
Continuous
100
AcDbVertex
100
AcDb3dPolylineVertex
 10
173.591046716644
 20
224.0497489928205
 30
0.0
 70
    32
1001
ACAD
1000
R13OBJECT
1002
{
1005
CE1
1002
}
  0
VERTEX
  5
D23
330
CE1
100
AcDbEntity
  8
3
  6
Continuous
100
AcDbVertex
100
AcDb3dPolylineVertex
 10
172.8032349943869
 20
223.5331511823757
 30
0.0
 70
    32
1001
ACAD
1000
R13OBJECT
1002
{
1005
CE1
1002
}
  0
VERTEX
  5
D24
330
CE1
100
AcDbEntity
  8
3
  6
Continuous
100
AcDbVertex
100
AcDb3dPolylineVertex
 10
172.358372855877
 20
222.7279178938646
 30
0.0
 70
    32
1001
ACAD
1000
R13OBJECT
1002
{
1005
CE1
1002
}
  0
VERTEX
  5
D25
330
CE1
100
AcDbEntity
  8
3
  6
Continuous
100
AcDbVertex
100
AcDb3dPolylineVertex
 10
172.358372855877
 20
221.8185183695719
 30
0.0
 70
    32
1001
ACAD
1000
R13OBJECT
1002
{
1005
CE1
1002
}
  0
VERTEX
  5
D26
330
CE1
100
AcDbEntity
  8
3
  6
Continuous
100
AcDbVertex
100
AcDb3dPolylineVertex
 10
172.8032349943869
 20
221.0132850810607
 30
0.0
 70
    32
1001
ACAD
1000
R13OBJECT
1002
{
1005
CE1
1002
}
  0
VERTEX
  5
D27
330
CE1
100
AcDbEntity
  8
3
  6
Continuous
100
AcDbVertex
100
AcDb3dPolylineVertex
 10
173.591046716644
 20
220.4966872706159
 30
0.0
 70
    32
1001
ACAD
1000
R13OBJECT
1002
{
1005
CE1
1002
}
  0
VERTEX
  5
D28
330
CE1
100
AcDbEntity
  8
3
  6
Continuous
100
AcDbVertex
100
AcDb3dPolylineVertex
 10
174.5413298512397
 20
220.3870712709319
 30
0.0
 70
    32
1001
ACAD
1000
R13OBJECT
1002
{
1005
CE1
1002
}
  0
VERTEX
  5
D29
330
CE1
100
AcDbEntity
  8
3
  6
Continuous
100
AcDbVertex
100
AcDb3dPolylineVertex
 10
175.4363859841914
 20
220.7095487865203
 30
0.0
 70
    32
1001
ACAD
1000
R13OBJECT
1002
{
1005
CE1
1002
}
  0
VERTEX
  5
D2A
330
CE1
100
AcDbEntity
  8
3
  6
Continuous
100
AcDbVertex
100
AcDb3dPolylineVertex
 10
176.0711685420355
 20
221.3902441048351
 30
0.0
 70
    32
1001
ACAD
1000
R13OBJECT
1002
{
1005
CE1
1002
}
  0
VERTEX
  5
D2B
330
CE1
100
AcDbEntity
  8
3
  6
Continuous
100
AcDbVertex
100
AcDb3dPolylineVertex
 10
176.3002564907291
 20
222.2732181317183
 30
0.0
 70
    32
1001
ACAD
1000
R13OBJECT
1002
{
1005
CE1
1002
}
  0
SEQEND
  5
D2C
330
CE1
100
AcDbEntity
  8
3
  6
Continuous
  0
POLYLINE
  5
CE2
330
DD3
100
AcDbEntity
  8
3
  6
Continuous
100
AcDb3dPolyline
 66
     1
 10
0.0
 20
0.0
 30
0.0
 70
     8
  0
VERTEX
  5
D2D
330
CE2
100
AcDbEntity
  8
3
  6
Continuous
100
AcDbVertex
100
AcDb3dPolylineVertex
 10
173.0778470450192
 20
230.5475931567439
 30
0.0
 70
    32
1001
ACAD
1000
R13OBJECT
1002
{
1005
CE2
1002
}
  0
VERTEX
  5
D2E
330
CE2
100
AcDbEntity
  8
3
  6
Continuous
100
AcDbVertex
100
AcDb3dPolylineVertex
 10
172.9980263061082
 20
230.4738656529101
 30
0.0
 70
    32
1001
ACAD
1000
R13OBJECT
1002
{
1005
CE2
1002
}
  0
VERTEX
  5
D2F
330
CE2
100
AcDbEntity
  8
3
  6
Continuous
100
AcDbVertex
100
AcDb3dPolylineVertex
 10
172.8884977548824
 20
230.3160512801377
 30
0.0
 70
    32
1001
ACAD
1000
R13OBJECT
1002
{
1005
CE2
1002
}
  0
VERTEX
  5
D30
330
CE2
100
AcDbEntity
  8
3
  6
Continuous
100
AcDbVertex
100
AcDb3dPolylineVertex
 10
172.800256490729
 20
229.945862345745
 30
0.0
 70
    32
1001
ACAD
1000
R13OBJECT
1002
{
1005
CE2
1002
}
  0
VERTEX
  5
D31
330
CE2
100
AcDbEntity
  8
3
  6
Continuous
100
AcDbVertex
100
AcDb3dPolylineVertex
 10
172.8884977548824
 20
229.5756734113522
 30
0.0
 70
    32
1001
ACAD
1000
R13OBJECT
1002
{
1005
CE2
1002
}
  0
VERTEX
  5
D32
330
CE2
100
AcDbEntity
  8
3
  6
Continuous
100
AcDbVertex
100
AcDb3dPolylineVertex
 10
172.9980263061082
 20
229.4178590385798
 30
0.0
 70
    32
1001
ACAD
1000
R13OBJECT
1002
{
1005
CE2
1002
}
  0
VERTEX
  5
D33
330
CE2
100
AcDbEntity
  8
3
  6
Continuous
100
AcDbVertex
100
AcDb3dPolylineVertex
 10
173.1356186535945
 20
229.3041008857646
 30
0.0
 70
    32
1001
ACAD
1000
R13OBJECT
1002
{
1005
CE2
1002
}
  0
VERTEX
  5
D34
330
CE2
100
AcDbEntity
  8
3
  6
Continuous
100
AcDbVertex
100
AcDb3dPolylineVertex
 10
173.2828419103051
 20
229.2401256405118
 30
0.0
 70
    32
1001
ACAD
1000
R13OBJECT
1002
{
1005
CE2
1002
}
  0
VERTEX
  5
D35
330
CE2
100
AcDbEntity
  8
3
  6
Continuous
100
AcDbVertex
100
AcDb3dPolylineVertex
 10
173.4252564907291
 20
229.220862345745
 30
0.0
 70
    32
1001
ACAD
1000
R13OBJECT
1002
{
1005
CE2
1002
}
  0
VERTEX
  5
D36
330
CE2
100
AcDbEntity
  8
3
  6
Continuous
100
AcDbVertex
100
AcDb3dPolylineVertex
 10
173.5676710711531
 20
229.2401256405118
 30
0.0
 70
    32
1001
ACAD
1000
R13OBJECT
1002
{
1005
CE2
1002
}
  0
VERTEX
  5
D37
330
CE2
100
AcDbEntity
  8
3
  6
Continuous
100
AcDbVertex
100
AcDb3dPolylineVertex
 10
173.7148943278637
 20
229.3041008857647
 30
0.0
 70
    32
1001
ACAD
1000
R13OBJECT
1002
{
1005
CE2
1002
}
  0
VERTEX
  5
D38
330
CE2
100
AcDbEntity
  8
3
  6
Continuous
100
AcDbVertex
100
AcDb3dPolylineVertex
 10
173.8524866753499
 20
229.4178590385798
 30
0.0
 70
    32
1001
ACAD
1000
R13OBJECT
1002
{
1005
CE2
1002
}
  0
VERTEX
  5
D39
330
CE2
100
AcDbEntity
  8
3
  6
Continuous
100
AcDbVertex
100
AcDb3dPolylineVertex
 10
173.9620152265758
 20
229.5756734113522
 30
0.0
 70
    32
1001
ACAD
1000
R13OBJECT
1002
{
1005
CE2
1002
}
  0
VERTEX
  5
D3A
330
CE2
100
AcDbEntity
  8
3
  6
Continuous
100
AcDbVertex
100
AcDb3dPolylineVertex
 10
174.0502564907291
 20
229.945862345745
 30
0.0
 70
    32
1001
ACAD
1000
R13OBJECT
1002
{
1005
CE2
1002
}
  0
SEQEND
  5
D3B
330
CE2
100
AcDbEntity
  8
3
  6
Continuous
  0
LINE
  5
CE3
330
DD3
100
AcDbEntity
  8
3
100
AcDbLine
 10
172.3002564907292
 20
224.4982181317182
 30
0.0
 11
174.1335898240624
 21
225.8732181317181
 31
0.0
  0
POLYLINE
  5
CE4
330
DD3
100
AcDbEntity
  8
3
  6
Continuous
100
AcDb3dPolyline
 66
     1
 10
0.0
 20
0.0
 30
0.0
 70
     8
  0
VERTEX
  5
D3C
330
CE4
100
AcDbEntity
  8
3
  6
Continuous
100
AcDbVertex
100
AcDb3dPolylineVertex
 10
172.8264960099197
 20
230.982945920071
 30
0.0
 70
    32
1001
ACAD
1000
R13OBJECT
1002
{
1005
CE4
1002
}
  0
VERTEX
  5
D3D
330
CE4
100
AcDbEntity
  8
3
  6
Continuous
100
AcDbVertex
100
AcDb3dPolylineVertex
 10
172.3964503551066
 20
230.4414957365773
 30
0.0
 70
    32
1001
ACAD
1000
R13OBJECT
1002
{
1005
CE4
1002
}
  0
VERTEX
  5
D3E
330
CE4
100
AcDbEntity
  8
3
  6
Continuous
100
AcDbVertex
100
AcDb3dPolylineVertex
 10
172.3177306622285
 20
229.7307922100368
 30
0.0
 70
    32
1001
ACAD
1000
R13OBJECT
1002
{
1005
CE4
1002
}
  0
VERTEX
  5
D3F
330
CE4
100
AcDbEntity
  8
3
  6
Continuous
100
AcDbVertex
100
AcDb3dPolylineVertex
 10
172.6172188392231
 20
229.0935327656172
 30
0.0
 70
    32
1001
ACAD
1000
R13OBJECT
1002
{
1005
CE4
1002
}
  0
VERTEX
  5
D40
330
CE4
100
AcDbEntity
  8
3
  6
Continuous
100
AcDbVertex
100
AcDb3dPolylineVertex
 10
173.1926429728237
 20
228.7473344835057
 30
0.0
 70
    32
1001
ACAD
1000
R13OBJECT
1002
{
1005
CE4
1002
}
  0
VERTEX
  5
D41
330
CE4
100
AcDbEntity
  8
3
  6
Continuous
100
AcDbVertex
100
AcDb3dPolylineVertex
 10
173.8475020603068
 20
228.8104202633058
 30
0.0
 70
    32
1001
ACAD
1000
R13OBJECT
1002
{
1005
CE4
1002
}
  0
VERTEX
  5
D42
330
CE4
100
AcDbEntity
  8
3
  6
Continuous
100
AcDbVertex
100
AcDb3dPolylineVertex
 10
174.3581689372574
 20
229.2612470061719
 30
0.0
 70
    32
1001
ACAD
1000
R13OBJECT
1002
{
1005
CE4
1002
}
  0
VERTEX
  5
D43
330
CE4
100
AcDbEntity
  8
3
  6
Continuous
100
AcDbVertex
100
AcDb3dPolylineVertex
 10
174.5502564907291
 20
229.9458623457452
 30
0.0
 70
    32
1001
ACAD
1000
R13OBJECT
1002
{
1005
CE4
1002
}
  0
SEQEND
  5
D44
330
CE4
100
AcDbEntity
  8
3
  6
Continuous
  0
LINE
  5
CE5
330
DD3
100
AcDbEntity
  8
3
100
AcDbLine
 10
174.1335898240624
 20
225.8732181317181
 30
0.0
 11
172.3002564907291
 21
225.8732181317181
 31
0.0
  0
LINE
  5
CE6
330
DD3
100
AcDbEntity
  8
3
100
AcDbLine
 10
172.3002564907291
 20
227.3732181317182
 30
0.0
 11
176.3002564907291
 21
227.3732181317182
 31
0.0
  0
LINE
  5
CE7
330
DD3
100
AcDbEntity
  8
3
100
AcDbLine
 10
172.3002564907291
 20
227.8732181317181
 30
0.0
 11
176.3002564907291
 21
227.8732181317181
 31
0.0
  0
LINE
  5
CE8
330
DD3
100
AcDbEntity
  8
3
100
AcDbLine
 10
172.3002564907291
 20
226.3732181317181
 30
0.0
 11
176.3002564907291
 21
226.3732181317181
 31
0.0
  0
LINE
  5
CE9
330
DD3
100
AcDbEntity
  8
3
100
AcDbLine
 10
172.3002564907291
 20
223.8732181317181
 30
0.0
 11
174.3002564907291
 21
225.3732181317182
 31
0.0
  0
POLYLINE
  5
CEA
330
DD3
100
AcDbEntity
  8
3
  6
Continuous
100
AcDb3dPolyline
 66
     1
 10
0.0
 20
0.0
 30
0.0
 70
     8
  0
VERTEX
  5
D45
330
CEA
100
AcDbEntity
  8
3
  6
Continuous
100
AcDbVertex
100
AcDb3dPolylineVertex
 10
171.5259552840187
 20
229.8353308701837
 30
0.0
 70
    32
1001
ACAD
1000
R13OBJECT
1002
{
1005
CEA
1002
}
  0
VERTEX
  5
D46
330
CEA
100
AcDbEntity
  8
3
  6
Continuous
100
AcDbVertex
100
AcDb3dPolylineVertex
 10
170.757116543262
 20
228.4257453011139
 30
0.0
 70
    32
1001
ACAD
1000
R13OBJECT
1002
{
1005
CEA
1002
}
  0
VERTEX
  5
D47
330
CEA
100
AcDbEntity
  8
3
  6
Continuous
100
AcDbVertex
100
AcDb3dPolylineVertex
 10
170.3519040486363
 20
226.7541983400254
 30
0.0
 70
    32
1001
ACAD
1000
R13OBJECT
1002
{
1005
CEA
1002
}
  0
VERTEX
  5
D48
330
CEA
100
AcDbEntity
  8
3
  6
Continuous
100
AcDbVertex
100
AcDb3dPolylineVertex
 10
170.3519040486363
 20
224.992237923411
 30
0.0
 70
    32
1001
ACAD
1000
R13OBJECT
1002
{
1005
CEA
1002
}
  0
VERTEX
  5
D49
330
CEA
100
AcDbEntity
  8
3
  6
Continuous
100
AcDbVertex
100
AcDb3dPolylineVertex
 10
170.757116543262
 20
223.3206909623225
 30
0.0
 70
    32
1001
ACAD
1000
R13OBJECT
1002
{
1005
CEA
1002
}
  0
VERTEX
  5
D4A
330
CEA
100
AcDbEntity
  8
3
  6
Continuous
100
AcDbVertex
100
AcDb3dPolylineVertex
 10
171.5259552840187
 20
221.9111053932526
 30
0.0
 70
    32
1001
ACAD
1000
R13OBJECT
1002
{
1005
CEA
1002
}
  0
SEQEND
  5
D4B
330
CEA
100
AcDbEntity
  8
3
  6
Continuous
  0
POLYLINE
  5
CEB
330
DD3
100
AcDbEntity
  8
3
  6
Continuous
100
AcDb3dPolyline
 66
     1
 10
0.0
 20
0.0
 30
0.0
 70
     8
  0
VERTEX
  5
D4C
330
CEB
100
AcDbEntity
  8
3
  6
Continuous
100
AcDbVertex
100
AcDb3dPolylineVertex
 10
171.8291617264323
 20
229.4023071938204
 30
0.0
 70
    32
1001
ACAD
1000
R13OBJECT
1002
{
1005
CEB
1002
}
  0
VERTEX
  5
D4D
330
CEB
100
AcDbEntity
  8
3
  6
Continuous
100
AcDbVertex
100
AcDb3dPolylineVertex
 10
171.2742050898132
 20
228.3741617466024
 30
0.0
 70
    32
1001
ACAD
1000
R13OBJECT
1002
{
1005
CEB
1002
}
  0
VERTEX
  5
D4E
330
CEB
100
AcDbEntity
  8
3
  6
Continuous
100
AcDbVertex
100
AcDb3dPolylineVertex
 10
170.9314838929382
 20
227.2283262226489
 30
0.0
 70
    32
1001
ACAD
1000
R13OBJECT
1002
{
1005
CEB
1002
}
  0
VERTEX
  5
D4F
330
CEB
100
AcDbEntity
  8
3
  6
Continuous
100
AcDbVertex
100
AcDb3dPolylineVertex
 10
170.8007636780467
 20
225.9593021314969
 30
0.0
 70
    32
1001
ACAD
1000
R13OBJECT
1002
{
1005
CEB
1002
}
  0
VERTEX
  5
D50
330
CEB
100
AcDbEntity
  8
3
  6
Continuous
100
AcDbVertex
100
AcDb3dPolylineVertex
 10
170.8002564907292
 20
225.8732181317182
 30
0.0
 70
    32
1001
ACAD
1000
R13OBJECT
1002
{
1005
CEB
1002
}
  0
VERTEX
  5
D51
330
CEB
100
AcDbEntity
  8
3
  6
Continuous
100
AcDbVertex
100
AcDb3dPolylineVertex
 10
170.9000132303614
 20
224.6875830647288
 30
0.0
 70
    32
1001
ACAD
1000
R13OBJECT
1002
{
1005
CEB
1002
}
  0
VERTEX
  5
D52
330
CEB
100
AcDbEntity
  8
3
  6
Continuous
100
AcDbVertex
100
AcDb3dPolylineVertex
 10
171.2419028086064
 20
223.4531502230956
 30
0.0
 70
    32
1001
ACAD
1000
R13OBJECT
1002
{
1005
CEB
1002
}
  0
VERTEX
  5
D53
330
CEB
100
AcDbEntity
  8
3
  6
Continuous
100
AcDbVertex
100
AcDb3dPolylineVertex
 10
171.2742050898131
 20
223.372274516834
 30
0.0
 70
    32
1001
ACAD
1000
R13OBJECT
1002
{
1005
CEB
1002
}
  0
VERTEX
  5
D54
330
CEB
100
AcDbEntity
  8
3
  6
Continuous
100
AcDbVertex
100
AcDb3dPolylineVertex
 10
171.8291617264323
 20
222.3441290696162
 30
0.0
 70
    32
1001
ACAD
1000
R13OBJECT
1002
{
1005
CEB
1002
}
  0
SEQEND
  5
D55
330
CEB
100
AcDbEntity
  8
3
  6
Continuous
  0
LINE
  5
CEC
330
DD3
100
AcDbEntity
  8
3
100
AcDbLine
 10
171.5259552840189
 20
221.9111053932526
 30
0.0
 11
171.8291617264319
 21
222.3441290696165
 31
0.0
  0
LINE
  5
CED
330
DD3
100
AcDbEntity
  8
3
100
AcDbLine
 10
172.3002564907291
 20
226.3732181317181
 30
0.0
 11
172.3002564907291
 21
225.8732181317181
 31
0.0
  0
LINE
  5
CEE
330
DD3
100
AcDbEntity
  8
3
100
AcDbLine
 10
172.3002564907291
 20
223.8732181317181
 30
0.0
 11
172.3002564907291
 21
224.4982181317181
 31
0.0
  0
LINE
  5
CEF
330
DD3
100
AcDbEntity
  8
3
100
AcDbLine
 10
172.8264960099197
 20
230.9829459200709
 30
0.0
 11
173.0778470450192
 21
230.5475931567439
 31
0.0
  0
LINE
  5
CF0
330
DD3
100
AcDbEntity
  8
3
100
AcDbLine
 10
171.829161726432
 20
229.4023071938199
 30
0.0
 11
171.5259552840189
 21
229.8353308701837
 31
0.0
  0
LINE
  5
CF1
330
DD3
100
AcDbEntity
  8
3
100
AcDbLine
 10
172.3002564907291
 20
227.3732181317182
 30
0.0
 11
172.3002564907291
 21
227.8732181317181
 31
0.0
  0
POLYLINE
  5
CF2
330
DD3
100
AcDbEntity
  8
3
  6
Continuous
100
AcDb3dPolyline
 66
     1
 10
0.0
 20
0.0
 30
0.0
 70
     8
  0
VERTEX
  5
D56
330
CF2
100
AcDbEntity
  8
3
  6
Continuous
100
AcDbVertex
100
AcDb3dPolylineVertex
 10
176.7713512550259
 20
222.3441290696161
 30
0.0
 70
    32
1001
ACAD
1000
R13OBJECT
1002
{
1005
CF2
1002
}
  0
VERTEX
  5
D57
330
CF2
100
AcDbEntity
  8
3
  6
Continuous
100
AcDbVertex
100
AcDb3dPolylineVertex
 10
177.326307891645
 20
223.372274516834
 30
0.0
 70
    32
1001
ACAD
1000
R13OBJECT
1002
{
1005
CF2
1002
}
  0
VERTEX
  5
D58
330
CF2
100
AcDbEntity
  8
3
  6
Continuous
100
AcDbVertex
100
AcDb3dPolylineVertex
 10
177.3586101728517
 20
223.4531502230955
 30
0.0
 70
    32
1001
ACAD
1000
R13OBJECT
1002
{
1005
CF2
1002
}
  0
VERTEX
  5
D59
330
CF2
100
AcDbEntity
  8
3
  6
Continuous
100
AcDbVertex
100
AcDb3dPolylineVertex
 10
177.7004997510967
 20
224.6875830647288
 30
0.0
 70
    32
1001
ACAD
1000
R13OBJECT
1002
{
1005
CF2
1002
}
  0
VERTEX
  5
D5A
330
CF2
100
AcDbEntity
  8
3
  6
Continuous
100
AcDbVertex
100
AcDb3dPolylineVertex
 10
177.8002564907291
 20
225.8732181317182
 30
0.0
 70
    32
1001
ACAD
1000
R13OBJECT
1002
{
1005
CF2
1002
}
  0
VERTEX
  5
D5B
330
CF2
100
AcDbEntity
  8
3
  6
Continuous
100
AcDbVertex
100
AcDb3dPolylineVertex
 10
177.7997493034116
 20
225.9593021314969
 30
0.0
 70
    32
1001
ACAD
1000
R13OBJECT
1002
{
1005
CF2
1002
}
  0
VERTEX
  5
D5C
330
CF2
100
AcDbEntity
  8
3
  6
Continuous
100
AcDbVertex
100
AcDb3dPolylineVertex
 10
177.6690290885201
 20
227.2283262226488
 30
0.0
 70
    32
1001
ACAD
1000
R13OBJECT
1002
{
1005
CF2
1002
}
  0
VERTEX
  5
D5D
330
CF2
100
AcDbEntity
  8
3
  6
Continuous
100
AcDbVertex
100
AcDb3dPolylineVertex
 10
177.326307891645
 20
228.3741617466024
 30
0.0
 70
    32
1001
ACAD
1000
R13OBJECT
1002
{
1005
CF2
1002
}
  0
VERTEX
  5
D5E
330
CF2
100
AcDbEntity
  8
3
  6
Continuous
100
AcDbVertex
100
AcDb3dPolylineVertex
 10
176.771351255026
 20
229.4023071938204
 30
0.0
 70
    32
1001
ACAD
1000
R13OBJECT
1002
{
1005
CF2
1002
}
  0
SEQEND
  5
D5F
330
CF2
100
AcDbEntity
  8
3
  6
Continuous
  0
POLYLINE
  5
CF3
330
DD3
100
AcDbEntity
  8
3
  6
Continuous
100
AcDb3dPolyline
 66
     1
 10
0.0
 20
0.0
 30
0.0
 70
     8
  0
VERTEX
  5
D60
330
CF3
100
AcDbEntity
  8
3
  6
Continuous
100
AcDbVertex
100
AcDb3dPolylineVertex
 10
177.0745576974394
 20
221.9111053932526
 30
0.0
 70
    32
1001
ACAD
1000
R13OBJECT
1002
{
1005
CF3
1002
}
  0
VERTEX
  5
D61
330
CF3
100
AcDbEntity
  8
3
  6
Continuous
100
AcDbVertex
100
AcDb3dPolylineVertex
 10
177.8433964381962
 20
223.3206909623225
 30
0.0
 70
    32
1001
ACAD
1000
R13OBJECT
1002
{
1005
CF3
1002
}
  0
VERTEX
  5
D62
330
CF3
100
AcDbEntity
  8
3
  6
Continuous
100
AcDbVertex
100
AcDb3dPolylineVertex
 10
178.2486089328218
 20
224.992237923411
 30
0.0
 70
    32
1001
ACAD
1000
R13OBJECT
1002
{
1005
CF3
1002
}
  0
VERTEX
  5
D63
330
CF3
100
AcDbEntity
  8
3
  6
Continuous
100
AcDbVertex
100
AcDb3dPolylineVertex
 10
178.2486089328218
 20
226.7541983400254
 30
0.0
 70
    32
1001
ACAD
1000
R13OBJECT
1002
{
1005
CF3
1002
}
  0
VERTEX
  5
D64
330
CF3
100
AcDbEntity
  8
3
  6
Continuous
100
AcDbVertex
100
AcDb3dPolylineVertex
 10
177.8433964381962
 20
228.4257453011139
 30
0.0
 70
    32
1001
ACAD
1000
R13OBJECT
1002
{
1005
CF3
1002
}
  0
VERTEX
  5
D65
330
CF3
100
AcDbEntity
  8
3
  6
Continuous
100
AcDbVertex
100
AcDb3dPolylineVertex
 10
177.0745576974394
 20
229.8353308701837
 30
0.0
 70
    32
1001
ACAD
1000
R13OBJECT
1002
{
1005
CF3
1002
}
  0
SEQEND
  5
D66
330
CF3
100
AcDbEntity
  8
3
  6
Continuous
  0
LINE
  5
CF4
330
DD3
100
AcDbEntity
  8
3
100
AcDbLine
 10
177.0745576974394
 20
221.9111053932526
 30
0.0
 11
176.7713512550262
 21
222.3441290696165
 31
0.0
  0
LINE
  5
CF5
330
DD3
100
AcDbEntity
  8
3
100
AcDbLine
 10
174.4669231573957
 20
225.8732181317181
 30
0.0
 11
176.3002564907291
 21
224.4982181317181
 31
0.0
  0
LINE
  5
CF6
330
DD3
100
AcDbEntity
  8
3
100
AcDbLine
 10
176.3002564907292
 20
225.8732181317181
 30
0.0
 11
176.3002564907291
 21
226.3732181317181
 31
0.0
  0
LINE
  5
CF7
330
DD3
100
AcDbEntity
  8
3
100
AcDbLine
 10
174.4669231573957
 20
225.8732181317181
 30
0.0
 11
176.3002564907291
 21
225.8732181317181
 31
0.0
  0
LINE
  5
CF8
330
DD3
100
AcDbEntity
  8
3
100
AcDbLine
 10
174.3002564907291
 20
225.3732181317182
 30
0.0
 11
176.3002564907291
 21
223.8732181317181
 31
0.0
  0
LINE
  5
CF9
330
DD3
100
AcDbEntity
  8
3
100
AcDbLine
 10
176.3002564907292
 20
223.8732181317181
 30
0.0
 11
176.3002564907292
 21
224.4982181317181
 31
0.0
  0
LINE
  5
CFA
330
DD3
100
AcDbEntity
  8
3
100
AcDbLine
 10
176.7713512550262
 20
229.4023071938199
 30
0.0
 11
177.0745576974394
 21
229.8353308701837
 31
0.0
  0
LINE
  5
CFB
330
DD3
100
AcDbEntity
  8
3
100
AcDbLine
 10
176.3002564907291
 20
227.3732181317182
 30
0.0
 11
176.3002564907291
 21
227.8732181317181
 31
0.0
  0
LINE
  5
CFC
330
DD3
100
AcDbEntity
  8
3
100
AcDbLine
 10
175.7740169715384
 20
228.9087787714189
 30
0.0
 11
175.5226659364389
 21
229.3441315347461
 31
0.0
  0
POLYLINE
  5
CFD
330
DD3
100
AcDbEntity
  8
3
  6
Continuous
100
AcDb3dPolyline
 66
     1
 10
0.0
 20
0.0
 30
0.0
 70
     8
  0
VERTEX
  5
D67
330
CFD
100
AcDbEntity
  8
3
  6
Continuous
100
AcDbVertex
100
AcDb3dPolylineVertex
 10
175.5226659364389
 20
229.3441315347461
 30
0.0
 70
    32
1001
ACAD
1000
R13OBJECT
1002
{
1005
CFD
1002
}
  0
VERTEX
  5
D68
330
CFD
100
AcDbEntity
  8
3
  6
Continuous
100
AcDbVertex
100
AcDb3dPolylineVertex
 10
175.6024866753499
 20
229.4178590385798
 30
0.0
 70
    32
1001
ACAD
1000
R13OBJECT
1002
{
1005
CFD
1002
}
  0
VERTEX
  5
D69
330
CFD
100
AcDbEntity
  8
3
  6
Continuous
100
AcDbVertex
100
AcDb3dPolylineVertex
 10
175.7120152265756
 20
229.5756734113521
 30
0.0
 70
    32
1001
ACAD
1000
R13OBJECT
1002
{
1005
CFD
1002
}
  0
VERTEX
  5
D6A
330
CFD
100
AcDbEntity
  8
3
  6
Continuous
100
AcDbVertex
100
AcDb3dPolylineVertex
 10
175.7123351207802
 20
229.5762953795032
 30
0.0
 70
    32
1001
ACAD
1000
R13OBJECT
1002
{
1005
CFD
1002
}
  0
VERTEX
  5
D6B
330
CFD
100
AcDbEntity
  8
3
  6
Continuous
100
AcDbVertex
100
AcDb3dPolylineVertex
 10
175.7968822502403
 20
229.8703528394073
 30
0.0
 70
    32
1001
ACAD
1000
R13OBJECT
1002
{
1005
CFD
1002
}
  0
VERTEX
  5
D6C
330
CFD
100
AcDbEntity
  8
3
  6
Continuous
100
AcDbVertex
100
AcDb3dPolylineVertex
 10
175.8002564907291
 20
229.945862345745
 30
0.0
 70
    32
1001
ACAD
1000
R13OBJECT
1002
{
1005
CFD
1002
}
  0
VERTEX
  5
D6D
330
CFD
100
AcDbEntity
  8
3
  6
Continuous
100
AcDbVertex
100
AcDb3dPolylineVertex
 10
175.7688566771333
 20
230.1723947546227
 30
0.0
 70
    32
1001
ACAD
1000
R13OBJECT
1002
{
1005
CFD
1002
}
  0
VERTEX
  5
D6E
330
CFD
100
AcDbEntity
  8
3
  6
Continuous
100
AcDbVertex
100
AcDb3dPolylineVertex
 10
175.7120152265757
 20
230.3160512801377
 30
0.0
 70
    32
1001
ACAD
1000
R13OBJECT
1002
{
1005
CFD
1002
}
  0
VERTEX
  5
D6F
330
CFD
100
AcDbEntity
  8
3
  6
Continuous
100
AcDbVertex
100
AcDb3dPolylineVertex
 10
175.6270347781153
 20
230.4456032214754
 30
0.0
 70
    32
1001
ACAD
1000
R13OBJECT
1002
{
1005
CFD
1002
}
  0
VERTEX
  5
D70
330
CFD
100
AcDbEntity
  8
3
  6
Continuous
100
AcDbVertex
100
AcDb3dPolylineVertex
 10
175.60248667535
 20
230.4738656529101
 30
0.0
 70
    32
1001
ACAD
1000
R13OBJECT
1002
{
1005
CFD
1002
}
  0
VERTEX
  5
D71
330
CFD
100
AcDbEntity
  8
3
  6
Continuous
100
AcDbVertex
100
AcDb3dPolylineVertex
 10
175.4648943278636
 20
230.5876238057253
 30
0.0
 70
    32
1001
ACAD
1000
R13OBJECT
1002
{
1005
CFD
1002
}
  0
VERTEX
  5
D72
330
CFD
100
AcDbEntity
  8
3
  6
Continuous
100
AcDbVertex
100
AcDb3dPolylineVertex
 10
175.3176710711529
 20
230.6515990509781
 30
0.0
 70
    32
1001
ACAD
1000
R13OBJECT
1002
{
1005
CFD
1002
}
  0
VERTEX
  5
D73
330
CFD
100
AcDbEntity
  8
3
  6
Continuous
100
AcDbVertex
100
AcDb3dPolylineVertex
 10
175.1752564907291
 20
230.670862345745
 30
0.0
 70
    32
1001
ACAD
1000
R13OBJECT
1002
{
1005
CFD
1002
}
  0
VERTEX
  5
D74
330
CFD
100
AcDbEntity
  8
3
  6
Continuous
100
AcDbVertex
100
AcDb3dPolylineVertex
 10
175.1234042066905
 20
230.6683367337361
 30
0.0
 70
    32
1001
ACAD
1000
R13OBJECT
1002
{
1005
CFD
1002
}
  0
VERTEX
  5
D75
330
CFD
100
AcDbEntity
  8
3
  6
Continuous
100
AcDbVertex
100
AcDb3dPolylineVertex
 10
175.0331687124708
 20
230.6516884971664
 30
0.0
 70
    32
1001
ACAD
1000
R13OBJECT
1002
{
1005
CFD
1002
}
  0
VERTEX
  5
D76
330
CFD
100
AcDbEntity
  8
3
  6
Continuous
100
AcDbVertex
100
AcDb3dPolylineVertex
 10
175.0328419103051
 20
230.6515990509781
 30
0.0
 70
    32
1001
ACAD
1000
R13OBJECT
1002
{
1005
CFD
1002
}
  0
VERTEX
  5
D77
330
CFD
100
AcDbEntity
  8
3
  6
Continuous
100
AcDbVertex
100
AcDb3dPolylineVertex
 10
174.8856186535945
 20
230.5876238057253
 30
0.0
 70
    32
1001
ACAD
1000
R13OBJECT
1002
{
1005
CFD
1002
}
  0
VERTEX
  5
D78
330
CFD
100
AcDbEntity
  8
3
  6
Continuous
100
AcDbVertex
100
AcDb3dPolylineVertex
 10
174.8498877806526
 20
230.5640238259857
 30
0.0
 70
    32
1001
ACAD
1000
R13OBJECT
1002
{
1005
CFD
1002
}
  0
VERTEX
  5
D79
330
CFD
100
AcDbEntity
  8
3
  6
Continuous
100
AcDbVertex
100
AcDb3dPolylineVertex
 10
174.7480263061083
 20
230.4738656529102
 30
0.0
 70
    32
1001
ACAD
1000
R13OBJECT
1002
{
1005
CFD
1002
}
  0
VERTEX
  5
D7A
330
CFD
100
AcDbEntity
  8
3
  6
Continuous
100
AcDbVertex
100
AcDb3dPolylineVertex
 10
174.6887971195623
 20
230.399729024558
 30
0.0
 70
    32
1001
ACAD
1000
R13OBJECT
1002
{
1005
CFD
1002
}
  0
VERTEX
  5
D7B
330
CFD
100
AcDbEntity
  8
3
  6
Continuous
100
AcDbVertex
100
AcDb3dPolylineVertex
 10
174.6384977548824
 20
230.3160512801378
 30
0.0
 70
    32
1001
ACAD
1000
R13OBJECT
1002
{
1005
CFD
1002
}
  0
VERTEX
  5
D7C
330
CFD
100
AcDbEntity
  8
3
  6
Continuous
100
AcDbVertex
100
AcDb3dPolylineVertex
 10
174.6276993988179
 20
230.2942516560852
 30
0.0
 70
    32
1001
ACAD
1000
R13OBJECT
1002
{
1005
CFD
1002
}
  0
VERTEX
  5
D7D
330
CFD
100
AcDbEntity
  8
3
  6
Continuous
100
AcDbVertex
100
AcDb3dPolylineVertex
 10
174.5842682415762
 20
230.1813245065318
 30
0.0
 70
    32
1001
ACAD
1000
R13OBJECT
1002
{
1005
CFD
1002
}
  0
VERTEX
  5
D7E
330
CFD
100
AcDbEntity
  8
3
  6
Continuous
100
AcDbVertex
100
AcDb3dPolylineVertex
 10
174.5586575985872
 20
230.0645542123064
 30
0.0
 70
    32
1001
ACAD
1000
R13OBJECT
1002
{
1005
CFD
1002
}
  0
VERTEX
  5
D7F
330
CFD
100
AcDbEntity
  8
3
  6
Continuous
100
AcDbVertex
100
AcDb3dPolylineVertex
 10
174.5502564907291
 20
229.945862345745
 30
0.0
 70
    32
1001
ACAD
1000
R13OBJECT
1002
{
1005
CFD
1002
}
  0
SEQEND
  5
D80
330
CFD
100
AcDbEntity
  8
3
  6
Continuous
  0
POLYLINE
  5
CFE
330
DD3
100
AcDbEntity
  8
3
  6
Continuous
100
AcDb3dPolyline
 66
     1
 10
0.0
 20
0.0
 30
0.0
 70
     8
  0
VERTEX
  5
D81
330
CFE
100
AcDbEntity
  8
3
  6
Continuous
100
AcDbVertex
100
AcDb3dPolylineVertex
 10
175.7740169715384
 20
228.908778771419
 30
0.0
 70
    32
1001
ACAD
1000
R13OBJECT
1002
{
1005
CFE
1002
}
  0
VERTEX
  5
D82
330
CFE
100
AcDbEntity
  8
3
  6
Continuous
100
AcDbVertex
100
AcDb3dPolylineVertex
 10
176.2040626263515
 20
229.4502289549126
 30
0.0
 70
    32
1001
ACAD
1000
R13OBJECT
1002
{
1005
CFE
1002
}
  0
VERTEX
  5
D83
330
CFE
100
AcDbEntity
  8
3
  6
Continuous
100
AcDbVertex
100
AcDb3dPolylineVertex
 10
176.2827823192297
 20
230.1609324814531
 30
0.0
 70
    32
1001
ACAD
1000
R13OBJECT
1002
{
1005
CFE
1002
}
  0
VERTEX
  5
D84
330
CFE
100
AcDbEntity
  8
3
  6
Continuous
100
AcDbVertex
100
AcDb3dPolylineVertex
 10
175.9832941422351
 20
230.7981919258727
 30
0.0
 70
    32
1001
ACAD
1000
R13OBJECT
1002
{
1005
CFE
1002
}
  0
VERTEX
  5
D85
330
CFE
100
AcDbEntity
  8
3
  6
Continuous
100
AcDbVertex
100
AcDb3dPolylineVertex
 10
175.4078700086346
 20
231.1443902079842
 30
0.0
 70
    32
1001
ACAD
1000
R13OBJECT
1002
{
1005
CFE
1002
}
  0
VERTEX
  5
D86
330
CFE
100
AcDbEntity
  8
3
  6
Continuous
100
AcDbVertex
100
AcDb3dPolylineVertex
 10
174.7530109211515
 20
231.0813044281842
 30
0.0
 70
    32
1001
ACAD
1000
R13OBJECT
1002
{
1005
CFE
1002
}
  0
VERTEX
  5
D87
330
CFE
100
AcDbEntity
  8
3
  6
Continuous
100
AcDbVertex
100
AcDb3dPolylineVertex
 10
174.2423440442008
 20
230.6304776853182
 30
0.0
 70
    32
1001
ACAD
1000
R13OBJECT
1002
{
1005
CFE
1002
}
  0
VERTEX
  5
D88
330
CFE
100
AcDbEntity
  8
3
  6
Continuous
100
AcDbVertex
100
AcDb3dPolylineVertex
 10
174.0502564907291
 20
229.945862345745
 30
0.0
 70
    32
1001
ACAD
1000
R13OBJECT
1002
{
1005
CFE
1002
}
  0
SEQEND
  5
D89
330
CFE
100
AcDbEntity
  8
3
  6
Continuous
  0
ARC
  5
CFF
330
DD3
100
AcDbEntity
  8
0
100
AcDbCircle
 10
179.7695276352725
 20
162.9165105214172
 30
0.0
 40
15.0
100
AcDbArc
 50
158.3434996295352
 51
201.3640232679492
  0
LINE
  5
F0D
330
DD3
100
AcDbEntity
  8
2
100
AcDbLine
 10
87.60721065979815
 20
126.2107374248675
 30
0.0
 11
91.14274456573088
 21
129.7462713308002
 31
0.0
  0
LINE
  5
F0E
330
DD3
100
AcDbEntity
  8
2
100
AcDbLine
 10
87.510830928239
 20
126.9194716289339
 30
0.0
 11
90.43401036166448
 21
129.8426510623594
 31
0.0
  0
LINE
  5
F0F
330
DD3
100
AcDbEntity
  8
2
100
AcDbLine
 10
87.510830928239
 20
126.9194716289339
 30
0.0
 11
87.60721065979817
 21
126.2107374248675
 31
0.0
  0
LINE
  5
F10
330
DD3
100
AcDbEntity
  8
2
100
AcDbLine
 10
90.43401036166446
 20
129.8426510623594
 30
0.0
 11
91.14274456573085
 21
129.7462713308002
 31
0.0
  0
TEXT
  5
F11
330
DD3
100
AcDbEntity
  8
0
100
AcDbText
 10
87.28132049052238
 20
159.7730046484115
 30
0.0
 40
6.2
  1
3
100
AcDbText
  0
ENDSEC
  0
SECTION
  2
OBJECTS
  0
DICTIONARY
  5
DC1
330
0
100
AcDbDictionary
281
     1
  3
ACAD_GROUP
350
DC2
  3
ACAD_LAYOUT
350
DCE
  3
ACAD_MLINESTYLE
350
DCB
  3
ACAD_PLOTSETTINGS
350
DCD
  3
ACAD_PLOTSTYLENAME
350
DC3
  3
AcDbVariableDictionary
350
DF6
  3
AcmDictionary
350
EBF
  3
AMG
350
E05
  3
AMGSNAPSETTINGS
350
F06
  3
DWGPROPS
350
EC2
  3
MAPISURF_MODULE
350
E91
  3
Simple$CDFRecord
350
DEA
  3
Simple$Histroy
350
DE8
  3
Simple$System
350
DE9
  0
DICTIONARY
  5
EFD
330
DD3
100
AcDbDictionary
280
     1
281
     1
  3
ACAD_INDEX
360
EFE
  0
DICTIONARY
  5
DC2
102
{ACAD_REACTORS
330
DC1
102
}
330
DC1
100
AcDbDictionary
281
     1
  0
DICTIONARY
  5
DCE
102
{ACAD_REACTORS
330
DC1
102
}
330
DC1
100
AcDbDictionary
281
     1
  3
Model
350
DD6
  3
ﾚｲｱｳﾄ1
350
DD2
  0
DICTIONARY
  5
DCB
102
{ACAD_REACTORS
330
DC1
102
}
330
DC1
100
AcDbDictionary
281
     1
  3
Standard
350
DCC
  0
DICTIONARY
  5
DCD
102
{ACAD_REACTORS
330
DC1
102
}
330
DC1
100
AcDbDictionary
281
     1
  0
ACDBDICTIONARYWDFLT
  5
DC3
102
{ACAD_REACTORS
330
DC1
102
}
330
DC1
100
AcDbDictionary
281
     1
  3
Normal
350
DC4
100
AcDbDictionaryWithDefault
340
DC4
  0
DICTIONARY
  5
DF6
102
{ACAD_REACTORS
330
DC1
102
}
330
DC1
100
AcDbDictionary
281
     1
  3
DIMASSOC
350
DF7
  3
INDEXCTL
350
F05
  0
DICTIONARY
  5
EBF
102
{ACAD_REACTORS
330
DC1
102
}
330
DC1
100
AcDbDictionary
281
     1
  3
AcmBOMDATA
350
EC0
  3
AcmStdDictionary
350
ECE
  0
DICTIONARY
  5
E05
102
{ACAD_REACTORS
330
DC1
102
}
330
DC1
100
AcDbDictionary
281
     1
  3
AcMgSettings
350
E06
  3
AMGLAYCFG
350
ED0
  0
DICTIONARY
  5
F06
102
{ACAD_REACTORS
330
DC1
102
}
330
DC1
100
AcDbDictionary
281
     1
  3
DIMENSION
350
F0B
  3
FEA
350
F0A
  3
HATCH (1)
350
F07
  3
HATCH (2)
350
F08
  3
SIMPLE WELD
350
F0C
  3
SYMBOLS
350
F09
  0
XRECORD
  5
EC2
102
{ACAD_REACTORS
330
DC1
102
}
330
DC1
100
AcDbXrecord
280
     1
  1
DWGPROPS COOKIE
  2

  3

  4

  6

  7

  8

  9

300
AmdtFileType=84
301
=
302
=
303
=
304
=
305
=
306
=
307
=
308
=
309
=
 40
0.1135378819444444
 41
2449954.602013888
 42
2453220.794571933
  1

 90
        1
  0
XRECORD
  5
DEA
102
{ACAD_REACTORS
330
DC1
102
}
330
DC1
100
AcDbXrecord
280
     1
  1

  0
XRECORD
  5
DE8
102
{ACAD_REACTORS
330
DC1
102
}
330
DC1
100
AcDbXrecord
280
     1
  1
2003年01月09日　20:51^J^J^J
  0
XRECORD
  5
DE9
102
{ACAD_REACTORS
330
DC1
102
}
330
DC1
100
AcDbXrecord
280
     1
  1
"14Q1FY",0,0,"1.25","0",0,0,0,1,"","",0,0,0,0,"",20,0,0,0,"\x81\x41\x81\x42\x81\x43\x81\x44\x81\x48\x81\x49\x81\x6A\x81\x6C\x81\x6E\x81\x70\x81\x72\x81\x74\x81\x76\x81\x78\x81\x7A\x29\x5D\x7D\xA3\xA4\xA1","\x81\x69\x81\x6B\x81\x6D\x81\x6F\x81\x71\x81\x73\x81\x75\x81\x77\x81\x79\x28\x5B\xA2\x7B","\x81\x69\x28\x81\x6A\x29\x81\x6D\x5B\x81\x6E\x5D\x81\x6F\x7B\x81\x70\x7D\x81\x75\xA2\x81\x76\xA3\x81\x41\xA4\x81\x42\xA1\x81\x43\x2C\x81\x44\x2E\x81\x45\xA5"
  2
50,"0",0,1,0
  3
|><@~^ %$~
  4
0,"0","0"
  6
0,0,0,0,0,"0",0
  8
0,""
 38
1.0
  0
DICTIONARY
  5
EFE
102
{ACAD_REACTORS
330
EFD
102
}
330
EFD
100
AcDbDictionary
281
     1
  3
*A1
350
EFF
  0
LAYOUT
  5
DD6
102
{ACAD_REACTORS
330
DCE
102
}
330
DCE
100
AcDbPlotSettings
  1

  2
Canon LASER SHOT LBP-1510
  4

  6

 40
0.0
 41
0.0
 42
0.0
 43
0.0
 44
0.0
 45
0.0
 46
0.0
 47
0.0
 48
0.0
 49
0.0
140
0.0
141
0.0
142
1.0
143
1.0
 70
  1712
 72
     0
 73
     0
 74
     0
  7

 75
     0
147
1.0
148
0.0
149
0.0
100
AcDbLayout
  1
Model
 70
     1
 71
     0
 10
0.0
 20
0.0
 11
12.0
 21
9.0
 12
0.0
 22
0.0
 32
0.0
 14
0.0
 24
0.0
 34
0.0
 15
0.0
 25
0.0
 35
0.0
146
0.0
 13
0.0
 23
0.0
 33
0.0
 16
1.0
 26
0.0
 36
0.0
 17
0.0
 27
1.0
 37
0.0
 76
     0
330
DD3
  0
LAYOUT
  5
DD2
102
{ACAD_REACTORS
330
DCE
102
}
330
DCE
100
AcDbPlotSettings
  1

  2
Canon LASER SHOT LBP-1510
  4

  6

 40
0.0
 41
0.0
 42
0.0
 43
0.0
 44
0.0
 45
0.0
 46
0.0
 47
0.0
 48
0.0
 49
0.0
140
0.0
141
0.0
142
1.0
143
1.0
 70
   688
 72
     0
 73
     0
 74
     5
  7

 75
    16
147
1.0
148
0.0
149
0.0
100
AcDbLayout
  1
ﾚｲｱｳﾄ1
 70
     0
 71
     1
 10
0.0
 20
0.0
 11
12.0
 21
9.0
 12
0.0
 22
0.0
 32
0.0
 14
1.000000000000000E+20
 24
1.000000000000000E+20
 34
1.000000000000000E+20
 15
-1.000000000000000E+20
 25
-1.000000000000000E+20
 35
-1.000000000000000E+20
146
0.0
 13
0.0
 23
0.0
 33
0.0
 16
1.0
 26
0.0
 36
0.0
 17
0.0
 27
1.0
 37
0.0
 76
     0
330
DCF
  0
MLINESTYLE
  5
DCC
102
{ACAD_REACTORS
330
DCB
102
}
330
DCB
100
AcDbMlineStyle
  2
STANDARD
 70
     0
  3

 62
   256
 51
90.0
 52
90.0
 71
     2
 49
0.5
 62
   256
  6
BYLAYER
 49
-0.5
 62
   256
  6
BYLAYER
  0
ACDBPLACEHOLDER
  5
DC4
102
{ACAD_REACTORS
330
DC3
102
}
330
DC3
  0
DICTIONARYVAR
  5
DF7
102
{ACAD_REACTORS
330
DF6
102
}
330
DF6
100
DictionaryVariables
280
     0
  1
0
  0
DICTIONARYVAR
  5
F05
102
{ACAD_REACTORS
330
DF6
102
}
330
DF6
100
DictionaryVariables
280
     0
  1
1
  0
ACMDATADICTIONARY
  5
EC0
102
{ACAD_REACTORS
330
EBF
102
}
330
EBF
100
AcDbDictionary
281
     1
  3
*A1
350
EC1
100
AcmDataDictionary
  0
DICTIONARY
  5
ECE
102
{ACAD_REACTORS
330
EBF
102
}
330
EBF
100
AcDbDictionary
281
     1
  3
ANSI
350
ECF
  0
DICTIONARY
  5
E06
102
{ACAD_REACTORS
330
E05
102
}
330
E05
100
AcDbDictionary
281
     1
  3
DWGSETTINGS
350
E07
  3
TRANSSETTINGS
350
E0B
  0
ACAMGFILTERDAT
  5
F0B
102
{ACAD_REACTORS
330
F06
102
}
330
F06
100
AcAmgFilterDat
 70
    15
  1
DIMENSION,AMDT_*_DIM
  2
*
  3
*
  4
*
  5
*
290
     1
  0
ACAMGFILTERDAT
  5
F0A
102
{ACAD_REACTORS
330
F06
102
}
330
F06
100
AcAmgFilterDat
 70
    15
  1
*
  2
AM_FEA-AM_*
  3
*
  4
*
  5
*
290
     1
  0
ACAMGFILTERDAT
  5
F07
102
{ACAD_REACTORS
330
F06
102
}
330
F06
100
AcAmgFilterDat
 70
    15
  1
HATCH
  2
*
  3
*
  4
*
  5
*
290
     1
  0
ACAMGFILTERDAT
  5
F08
102
{ACAD_REACTORS
330
F06
102
}
330
F06
100
AcAmgFilterDat
 70
    15
  1
LINE
  2
8,8N,*-8,*-8N,AM_8,AM_8N,*-AM_8,*-AM_8N
  3
*
  4
*
  5
INSERT,STDPART2D
290
     1
  0
ACAMGFILTERDAT
  5
F0C
102
{ACAD_REACTORS
330
F06
102
}
330
F06
100
AcAmgFilterDat
 70
    15
  1
ARC
  2
AM_5
  3
*
  4
2
  5
INSERT
290
     0
  0
ACAMGFILTERDAT
  5
F09
102
{ACAD_REACTORS
330
F06
102
}
330
F06
100
AcAmgFilterDat
 70
    15
  1
ACMFCFRAME,ACMDATUMTARGET,ACMDATUMID,ACMWELDSYM,ACMSURFSYM,ACMFEATID,ACMPARTREF,ACMBALLOON,AMDTEDGESYM,AMGSCREWCALCTABLE
  2
*
  3
*
  4
*
  5
*
290
     1
  0
LAYER_INDEX
  5
EFF
102
{ACAD_REACTORS
330
EFE
102
}
330
EFE
100
AcDbIndex
 40
2454537.386416377
100
AcDbLayerIndex
  8
0
360
F00
 90
      212
  8
1
360
F01
 90
       20
  8
3
360
F02
 90
       35
  8
2
360
F03
 90
       13
  0
ACMDATAENTRYBLOCK
  5
EC1
102
{ACAD_REACTORS
330
EC0
102
}
330
EC0
100
AcmDataEntry
100
AcmDataEntryBlock
  0
IDBUFFER
  5
F00
330
0
100
AcDbIdBuffer
330
38A
330
38B
330
38C
330
38D
330
452
330
453
330
454
330
455
330
7B1
330
7B2
330
7B3
330
7B4
330
A34
330
A35
330
A36
330
A37
330
A38
330
A39
330
A3A
330
A3B
330
A3C
330
A3D
330
A3E
330
A3F
330
A49
330
A4A
330
A4B
330
A4C
330
A4D
330
A4E
330
A4F
330
A50
330
A52
330
A53
330
A54
330
A55
330
A57
330
A58
330
A59
330
A5A
330
A5B
330
A5C
330
A5D
330
A5E
330
BBE
330
BBF
330
BC0
330
BC1
330
BC2
330
BC3
330
BC4
330
BC5
330
BC6
330
BC7
330
BC8
330
BC9
330
BCA
330
BCB
330
BCC
330
BCD
330
BCE
330
BCF
330
BD0
330
BD1
330
BD2
330
BD3
330
BDA
330
BDC
330
BE0
330
BE1
330
BE2
330
BE3
330
BE4
330
BE5
330
BE6
330
BE8
330
BE9
330
BEA
330
BEB
330
BEC
330
BED
330
C00
330
C17
330
C19
330
C1A
330
C1B
330
C1C
330
C1D
330
C1E
330
C1F
330
C20
330
C21
330
C23
330
C24
330
C2B
330
C2C
330
C2D
330
C2E
330
C2F
330
C30
330
C31
330
C32
330
C33
330
C34
330
C35
330
C37
330
C38
330
C3A
330
C3B
330
C3C
330
C3D
330
C3E
330
C3F
330
C40
330
C41
330
C42
330
C43
330
C44
330
C45
330
C46
330
C47
330
C48
330
C49
330
C4A
330
C4B
330
C4C
330
C4D
330
C4E
330
C4F
330
C50
330
C51
330
C52
330
C54
330
C55
330
C56
330
C57
330
C58
330
C7C
330
C7D
330
C7E
330
C7F
330
C80
330
C81
330
C83
330
C84
330
C85
330
C86
330
C87
330
C88
330
C89
330
C8A
330
C8B
330
C8C
330
C8D
330
C8E
330
C8F
330
C90
330
C91
330
C92
330
C93
330
C94
330
C95
330
C9E
330
C9F
330
CA0
330
CA1
330
CA2
330
CA3
330
CA4
330
CA5
330
CA6
330
CA7
330
CA8
330
CA9
330
CAA
330
CAB
330
CAC
330
CAD
330
CAE
330
CAF
330
CB0
330
CB1
330
CB2
330
CB3
330
CB4
330
CB5
330
CB6
330
CB7
330
CB8
330
CB9
330
CBA
330
CBB
330
CBC
330
CBE
330
CBF
330
CC0
330
CC1
330
CC3
330
CC4
330
CC5
330
CC6
330
CC7
330
CC8
330
CC9
330
CCA
330
CDA
330
CDB
330
CDC
330
CDE
330
CDF
330
CFF
330
F11
  0
IDBUFFER
  5
F01
330
0
100
AcDbIdBuffer
330
BD4
330
BD5
330
BE7
330
C12
330
C18
330
C22
330
C25
330
C26
330
C36
330
C39
330
C53
330
C82
330
C96
330
C97
330
C98
330
C99
330
C9A
330
C9B
330
C9C
330
C9D
  0
IDBUFFER
  5
F02
330
0
100
AcDbIdBuffer
330
BDB
330
BDD
330
BEE
330
C6A
330
CE0
330
CE1
330
CE2
330
CE3
330
CE4
330
CE5
330
CE6
330
CE7
330
CE8
330
CE9
330
CEA
330
CEB
330
CEC
330
CED
330
CEE
330
CEF
330
CF0
330
CF1
330
CF2
330
CF3
330
CF4
330
CF5
330
CF6
330
CF7
330
CF8
330
CF9
330
CFA
330
CFB
330
CFC
330
CFD
330
CFE
  0
IDBUFFER
  5
F03
330
0
100
AcDbIdBuffer
330
F0D
330
F0E
330
F0F
330
F10
330
BD6
330
BD7
330
BD8
330
BD9
330
BDF
330
C27
330
C28
330
C29
330
C2A
  0
ENDSEC
  0
EOF
