  0
SECTION
  2
HEADER
  9
$ACADVER
  1
AC1015
  9
$ACADMAINTVER
 70
    13
  9
$DWGCODEPAGE
  3
ANSI_932
  9
$INSBASE
 10
0.0
 20
0.0
 30
0.0
  9
$EXTMIN
 10
99.66659644812636
 20
68.89663767173965
 30
-0.0015258207003583
  9
$EXTMAX
 10
273.6740119856245
 20
233.4649664064228
 30
0.0000000349246037
  9
$LIMMIN
 10
0.0
 20
0.0
  9
$LIMMAX
 10
375.0
 20
270.0
  9
$ORTHOMODE
 70
     1
  9
$REGENMODE
 70
     1
  9
$FILLMODE
 70
     1
  9
$QTEXTMODE
 70
     0
  9
$MIRRTEXT
 70
     0
  9
$LTSCALE
 40
10.0
  9
$ATTMODE
 70
     1
  9
$TEXTSIZE
 40
6.0
  9
$TRACEWID
 40
0.05
  9
$TEXTSTYLE
  7
STANDARD
  9
$CLAYER
  8
0
  9
$CELTYPE
  6
ByLayer
  9
$CECOLOR
 62
   256
  9
$CELTSCALE
 40
1.0
  9
$DISPSILH
 70
     0
  9
$DIMSCALE
 40
1.0
  9
$DIMASZ
 40
3.0
  9
$DIMEXO
 40
2.0
  9
$DIMDLI
 40
0.38
  9
$DIMRND
 40
0.0
  9
$DIMDLE
 40
0.0
  9
$DIMEXE
 40
2.0
  9
$DIMTP
 40
0.0
  9
$DIMTM
 40
0.0
  9
$DIMTXT
 40
3.2
  9
$DIMCEN
 40
0.0
  9
$DIMTSZ
 40
0.0
  9
$DIMTOL
 70
     0
  9
$DIMLIM
 70
     0
  9
$DIMTIH
 70
     0
  9
$DIMTOH
 70
     0
  9
$DIMSE1
 70
     0
  9
$DIMSE2
 70
     0
  9
$DIMTAD
 70
     1
  9
$DIMZIN
 70
     0
  9
$DIMBLK
  1

  9
$DIMASO
 70
     0
  9
$DIMSHO
 70
     0
  9
$DIMPOST
  1

  9
$DIMAPOST
  1

  9
$DIMALT
 70
     0
  9
$DIMALTD
 70
     2
  9
$DIMALTF
 40
25.4
  9
$DIMLFAC
 40
1.0
  9
$DIMTOFL
 70
     0
  9
$DIMTVP
 40
1.6
  9
$DIMTIX
 70
     1
  9
$DIMSOXD
 70
     0
  9
$DIMSAH
 70
     0
  9
$DIMBLK1
  1

  9
$DIMBLK2
  1

  9
$DIMSTYLE
  2
STANDARD
  9
$DIMCLRD
 70
     4
  9
$DIMCLRE
 70
     4
  9
$DIMCLRT
 70
     4
  9
$DIMTFAC
 40
1.0
  9
$DIMGAP
 40
0.09
  9
$DIMJUST
 70
     0
  9
$DIMSD1
 70
     0
  9
$DIMSD2
 70
     0
  9
$DIMTOLJ
 70
     1
  9
$DIMTZIN
 70
     0
  9
$DIMALTZ
 70
     0
  9
$DIMALTTZ
 70
     0
  9
$DIMUPT
 70
     0
  9
$DIMDEC
 70
     1
  9
$DIMTDEC
 70
     1
  9
$DIMALTU
 70
     2
  9
$DIMALTTD
 70
     2
  9
$DIMTXSTY
  7
STANDARD
  9
$DIMAUNIT
 70
     0
  9
$DIMADEC
 70
     0
  9
$DIMALTRND
 40
0.0
  9
$DIMAZIN
 70
     0
  9
$DIMDSEP
 70
    46
  9
$DIMATFIT
 70
     3
  9
$DIMFRAC
 70
     0
  9
$DIMLDRBLK
  1

  9
$DIMLUNIT
 70
     2
  9
$DIMLWD
 70
    -2
  9
$DIMLWE
 70
    -2
  9
$DIMTMOVE
 70
     2
  9
$LUNITS
 70
     2
  9
$LUPREC
 70
     1
  9
$SKETCHINC
 40
0.1
  9
$FILLETRAD
 40
22.0
  9
$AUNITS
 70
     0
  9
$AUPREC
 70
     0
  9
$MENU
  1
E:\r13\win\SUPPORT\ACAD
  9
$ELEVATION
 40
0.0
  9
$PELEVATION
 40
0.0
  9
$THICKNESS
 40
0.0
  9
$LIMCHECK
 70
     0
  9
$CHAMFERA
 40
1.199999999999999
  9
$CHAMFERB
 40
1.199999999999999
  9
$CHAMFERC
 40
0.0
  9
$CHAMFERD
 40
0.0
  9
$SKPOLY
 70
     0
  9
$TDCREATE
 40
2449954.602013888
  9
$TDUCREATE
 40
2449954.227013888
  9
$TDUPDATE
 40
2454537.365569108
  9
$TDUUPDATE
 40
2454536.990569108
  9
$TDINDWG
 40
0.1128526157
  9
$TDUSRTIMER
 40
0.1128526157
  9
$USRTIMER
 70
     1
  9
$ANGBASE
 50
0.0
  9
$ANGDIR
 70
     0
  9
$PDMODE
 70
     0
  9
$PDSIZE
 40
0.0
  9
$PLINEWID
 40
0.0
  9
$SPLFRAME
 70
     0
  9
$SPLINETYPE
 70
     6
  9
$SPLINESEGS
 70
     8
  9
$HANDSEED
  5
D2B
  9
$SURFTAB1
 70
     6
  9
$SURFTAB2
 70
     6
  9
$SURFTYPE
 70
     6
  9
$SURFU
 70
     6
  9
$SURFV
 70
     6
  9
$UCSBASE
  2

  9
$UCSNAME
  2

  9
$UCSORG
 10
0.0
 20
0.0
 30
0.0
  9
$UCSXDIR
 10
1.0
 20
0.0
 30
0.0
  9
$UCSYDIR
 10
0.0
 20
1.0
 30
0.0
  9
$UCSORTHOREF
  2

  9
$UCSORTHOVIEW
 70
     0
  9
$UCSORGTOP
 10
0.0
 20
0.0
 30
0.0
  9
$UCSORGBOTTOM
 10
0.0
 20
0.0
 30
0.0
  9
$UCSORGLEFT
 10
0.0
 20
0.0
 30
0.0
  9
$UCSORGRIGHT
 10
0.0
 20
0.0
 30
0.0
  9
$UCSORGFRONT
 10
0.0
 20
0.0
 30
0.0
  9
$UCSORGBACK
 10
0.0
 20
0.0
 30
0.0
  9
$PUCSBASE
  2

  9
$PUCSNAME
  2

  9
$PUCSORG
 10
0.0
 20
0.0
 30
0.0
  9
$PUCSXDIR
 10
1.0
 20
0.0
 30
0.0
  9
$PUCSYDIR
 10
0.0
 20
1.0
 30
0.0
  9
$PUCSORTHOREF
  2

  9
$PUCSORTHOVIEW
 70
     0
  9
$PUCSORGTOP
 10
0.0
 20
0.0
 30
0.0
  9
$PUCSORGBOTTOM
 10
0.0
 20
0.0
 30
0.0
  9
$PUCSORGLEFT
 10
0.0
 20
0.0
 30
0.0
  9
$PUCSORGRIGHT
 10
0.0
 20
0.0
 30
0.0
  9
$PUCSORGFRONT
 10
0.0
 20
0.0
 30
0.0
  9
$PUCSORGBACK
 10
0.0
 20
0.0
 30
0.0
  9
$USERI1
 70
     0
  9
$USERI2
 70
     1
  9
$USERI3
 70
     0
  9
$USERI4
 70
     0
  9
$USERI5
 70
     0
  9
$USERR1
 40
0.0
  9
$USERR2
 40
0.0
  9
$USERR3
 40
0.0
  9
$USERR4
 40
0.0
  9
$USERR5
 40
0.0
  9
$WORLDVIEW
 70
     1
  9
$SHADEDGE
 70
     3
  9
$SHADEDIF
 70
    70
  9
$TILEMODE
 70
     1
  9
$MAXACTVP
 70
    16
  9
$PINSBASE
 10
0.0
 20
0.0
 30
0.0
  9
$PLIMCHECK
 70
     0
  9
$PEXTMIN
 10
1.000000000000000E+20
 20
1.000000000000000E+20
 30
1.000000000000000E+20
  9
$PEXTMAX
 10
-1.000000000000000E+20
 20
-1.000000000000000E+20
 30
-1.000000000000000E+20
  9
$PLIMMIN
 10
0.0
 20
0.0
  9
$PLIMMAX
 10
12.0
 20
9.0
  9
$UNITMODE
 70
     0
  9
$VISRETAIN
 70
     0
  9
$PLINEGEN
 70
     0
  9
$PSLTSCALE
 70
     0
  9
$TREEDEPTH
 70
  3020
  9
$CMLSTYLE
  2
Standard
  9
$CMLJUST
 70
     0
  9
$CMLSCALE
 40
1.0
  9
$PROXYGRAPHICS
 70
     1
  9
$MEASUREMENT
 70
     0
  9
$CELWEIGHT
370
    -1
  9
$ENDCAPS
280
     0
  9
$JOINSTYLE
280
     0
  9
$LWDISPLAY
290
     0
  9
$INSUNITS
 70
     0
  9
$HYPERLINKBASE
  1

  9
$STYLESHEET
  1

  9
$XEDIT
290
     1
  9
$CEPSNTYPE
380
     0
  9
$PSTYLEMODE
290
     1
  9
$FINGERPRINTGUID
  2
{A2016F66-8363-49D1-AC01-DBEF63F67716}
  9
$VERSIONGUID
  2
{0E06E6E7-635F-4396-A98E-954DBCEA3B0D}
  9
$EXTNAMES
290
     1
  9
$PSVPSCALE
 40
0.0
  9
$OLESTARTUP
290
     0
  0
ENDSEC
  0
SECTION
  2
CLASSES
  0
CLASS
  1
ACDBDICTIONARYWDFLT
  2
AcDbDictionaryWithDefault
  3
AutoCAD 2000
 90
        0
280
     0
281
     0
  0
CLASS
  1
ACDBPLACEHOLDER
  2
AcDbPlaceHolder
  3
AutoCAD 2000
 90
        0
280
     0
281
     0
  0
CLASS
  1
LAYOUT
  2
AcDbLayout
  3
AutoCAD 2000
 90
        0
280
     0
281
     0
  0
CLASS
  1
DICTIONARYVAR
  2
AcDbDictionaryVar
  3
AutoCAD 2000
 90
        0
280
     0
281
     0
  0
CLASS
  1
ACME_DOCUMENT
  2
AcMeDbDoc
  3
AcMeServices
 90
        0
280
     0
281
     0
  0
CLASS
  1
AMGSETTINGSOBJ
  2
AmgSettingsObj
  3
"AcadM|Product Description: AutoCAD Mechanical 2000|Company: Autodesk"
 90
        0
280
     0
281
     0
  0
CLASS
  1
ACMESCOPE
  2
AcMeScope
  3
AcMeServices
 90
        0
280
     0
281
     0
  0
CLASS
  1
ACMECOMMANDHISTORY
  2
AcMeCommandHistory
  3
AcMeServices
 90
        0
280
     0
281
     0
  0
CLASS
  1
ACIMSYSVARMAN
  2
AcImSysVarManager
  3
AcMeServices
 90
        0
280
     0
281
     0
  0
CLASS
  1
ACIMREALSYSVAR
  2
AcImRealSysVar
  3
AcMeServices
 90
        0
280
     0
281
     0
  0
CLASS
  1
ACIMINTSYSVAR
  2
AcImIntSysVar
  3
AcMeServices
 90
        0
280
     0
281
     0
  0
CLASS
  1
ACMEDRAWINGMAN
  2
AcMeDrawingMan
  3
AcMeServices
 90
        0
280
     0
281
     0
  0
CLASS
  1
ACMEVIEW
  2
AcMeView
  3
AcMeServices
 90
        0
280
     0
281
     0
  0
CLASS
  1
ACDBENTITYCACHE
  2
AcMeEntityCache
  3
AcMeServices
 90
        0
280
     0
281
     0
  0
CLASS
  1
GSMANAGER
  2
AcMeGSManager
  3
AcMeServices
 90
        0
280
     0
281
     0
  0
CLASS
  1
AMDTINTERNALREACTOR
  2
AmdtInternalReactor
  3
AcMeServices
 90
        0
280
     0
281
     0
  0
CLASS
  1
ACMESTATEMGR
  2
AcMeStateMgr
  3
AcMeServices
 90
        0
280
     0
281
     0
  0
CLASS
  1
ACGREFMASTER
  2
AcGrefMaster
  3
AcAttribServices
 90
        0
280
     0
281
     0
  0
CLASS
  1
AM_DRAWING_MGR
  2
AcDmDwgMgr
  3
AcMechDwgViewMgmt
 90
        0
280
     0
281
     0
  0
CLASS
  1
AM_DWG_DOCUMENT
  2
AcDmDwgDocument
  3
AcMechDwgViewMgmt
 90
        0
280
     0
281
     0
  0
CLASS
  1
AM_DWG_SHEET
  2
AcDmSheet
  3
AcMechDwgViewMgmt
 90
        0
280
     0
281
     0
  0
CLASS
  1
AM_VIEWDIMPARMAP
  2
AcDmViewDimParMap
  3
AcMechDwgViewMgmt
 90
        0
280
     0
281
     0
  0
CLASS
  1
AM_DWGMGR_NAME
  2
AcDmDwgMgrName
  3
AcMechDwgViewMgmt
 90
        0
280
     0
281
     0
  0
CLASS
  1
ACME_DATABASE
  2
AcMeDbDatabase
  3
AcMeServices
 90
        0
280
     0
281
     0
  0
CLASS
  1
ACRFINSADJUSTERMGR
  2
AcRfInsAdjusterMgr
  3
AcMeServices
 90
        0
280
     0
281
     0
  0
CLASS
  1
ACGREFACADMASTER
  2
AcGrefacadMaster
  3
AcGrefServices
 90
        0
280
     0
281
     0
  0
CLASS
  1
AMDTMENUSTATEMGR
  2
AmdtMenuStateMgr
  3
McadcomServices
 90
        0
280
     0
281
     0
  0
CLASS
  1
AMDTMCOMMENUSTATE
  2
AmdtMcomMenuState
  3
McadcomServices
 90
        0
280
     0
281
     0
  0
CLASS
  1
AMIMASTER
  2
AmiMaster
  3
AmiServices
 90
        0
280
     0
281
     0
  0
CLASS
  1
ASAPP
  2
AcAsAppObject
  3
AutoSurfServices
 90
        0
280
     0
281
     0
  0
CLASS
  1
IM_STATIC_MAN
  2
AcImStaticVarManager
  3
AcMeServices
 90
        0
280
     0
281
     0
  0
CLASS
  1
ACIMSTRSYSVAR
  2
AcImStrSysVar
  3
AcMeServices
 90
        0
280
     0
281
     0
  0
CLASS
  1
ACIMDBLSTATICVAR
  2
AcImDblStaticVar
  3
AcMeServices
 90
        0
280
     0
281
     0
  0
CLASS
  1
ACIMSTRSTATICVAR
  2
AcImStrStaticVar
  3
AcMeServices
 90
        0
280
     0
281
     0
  0
CLASS
  1
ACIMINTSTATICVAR
  2
AcImIntStaticVar
  3
AcMeServices
 90
        0
280
     0
281
     0
  0
CLASS
  1
ACASGREFMASTER
  2
AcAsGrefMaster
  3
AutoSurfResolverServices
 90
        0
280
     0
281
     0
  0
CLASS
  1
ACADGREFMODULE
  2
AcAdGrefModule
  3
AdGrefServices
 90
        0
280
     0
281
     0
  0
CLASS
  1
AMDTMAPISURFMOUDULE
  2
AmdtMApiSurfModule
  3
MApiSurfServices
 90
        0
280
     0
281
     0
  0
CLASS
  1
MAPIAMMOUDLE
  2
MApiAmModule
  3
MApiAmServices
 90
        0
280
     0
281
     0
  0
CLASS
  1
AMDTADMENUSTATE
  2
AmdtAdMenuState
  3
DesignerServices
 90
        0
280
     0
281
     0
  0
CLASS
  1
ADAPPL
  2
AcAdAppl
  3
DesignerServices
 90
        0
280
     0
281
     0
  0
CLASS
  1
DEPMGR
  2
AcAdDepMgr
  3
DesignerServices
 90
        0
280
     0
281
     0
  0
CLASS
  1
PARAMMGR
  2
AcAdParamMgr
  3
DesignerServices
 90
        0
280
     0
281
     0
  0
CLASS
  1
PARAMSCOPE
  2
AcAdParamScope
  3
DesignerServices
 90
        0
280
     0
281
     0
  0
CLASS
  1
NAMEDAPPL
  2
AcAdNamedAppl
  3
DesignerServices
 90
        0
280
     0
281
     0
  0
CLASS
  1
AMDTDMMENUSTATE
  2
AmdtDmMenuState
  3
AcMechDwgViewMgmt
 90
        0
280
     0
281
     0
  0
CLASS
  1
MAPIADMODULE
  2
MApiAdModule
  3
MApiAdServices
 90
        0
280
     0
281
     0
  0
CLASS
  1
AMDTAMMENUSTATE
  2
AmdtAmMenuState
  3
DesignerAssemblies
 90
        0
280
     0
281
     0
  0
CLASS
  1
ACAMPROJECT
  2
AcAmProject
  3
DesignerAssemblies
 90
        0
280
     0
281
     0
  0
CLASS
  1
ACAMGRCOMPDEF
  2
AcAmGrCompDef
  3
DesignerAssemblies
 90
        0
280
     0
281
     0
  0
CLASS
  1
ACCMCONTEXT
  2
AcCmContext
  3
DesignerAssemblies
 90
        0
280
     0
281
     0
  0
CLASS
  1
ACAMCOMPDEF
  2
AcAmCompDef
  3
DesignerAssemblies
 90
        0
280
     0
281
     0
  0
CLASS
  1
ACAMCOMPDEFMGR
  2
AcAmCompDefMgr
  3
DesignerAssemblies
 90
        0
280
     0
281
     0
  0
CLASS
  1
AMCONTEXTMGR
  2
AcAmContextMgr
  3
DesignerAssemblies
 90
        0
280
     0
281
     0
  0
CLASS
  1
ACAMCONTEXTMODELER
  2
AcAmContextModeler
  3
DesignerAssemblies
 90
        0
280
     0
281
     0
  0
CLASS
  1
ACMDATADICTIONARY
  2
AcmDataDictionary
  3
"AcmSymBB|Product Description: AutoCAD Mechanical 2000|Company: Autodesk"
 90
        0
280
     0
281
     0
  0
CLASS
  1
ACMDATAENTRYBLOCK
  2
AcmDataEntryBlock
  3
"AcmSymBB|Product Description: AutoCAD Mechanical 2000|Company: Autodesk"
 90
        0
280
     0
281
     0
  0
CLASS
  1
CATALOGSTATE
  2
AcAmCatalogState
  3
DesignerAssemblies
 90
        0
280
     0
281
     0
  0
CLASS
  1
ACAMGRCOMPDEFSET
  2
AcAmGrCompDefSet
  3
DesignerAssemblies
 90
        0
280
     0
281
     0
  0
CLASS
  1
AMDTBROWSERDBTAB
  2
AmdtBrowserDbTab
  3
McadcomServices
 90
        0
280
     0
281
     0
  0
CLASS
  1
CBROWSERAPPOBJECT
  2
CBrowserAppObject
  3
McadcomServices
 90
        0
280
     0
281
     0
  0
CLASS
  1
DM_PLACEHOLDER
  2
AcDmSelsetPlaceholder
  3
AcMechDwgViewMgmt
 90
        0
280
     0
281
     0
  0
CLASS
  1
ACMSTANDARDANSI
  2
AcmStandardANSI
  3
"Amdt_StdImp|Product Description: AutoCAD Mechanical 2000|Company: Autodesk"
 90
        0
280
     0
281
     0
  0
CLASS
  1
AMGOBJPROPCFG
  2
AmgObjPropCfg
  3
"AmgLay|Product Description: AutoCAD Mechanical 2000|Company: Autodesk"
 90
        1
280
     0
281
     0
  0
CLASS
  1
ACMSURFSTANDARDANSI
  2
AcmSurfTextStdANSI
  3
"Amdt_StdImp|Product Description: AutoCAD Mechanical 2000|Company: Autodesk"
 90
        0
280
     0
281
     0
  0
CLASS
  1
ACMFCFSTANDARDANSI
  2
AcmFCFStdANSI
  3
"Amdt_StdImp|Product Description: AutoCAD Mechanical 2000|Company: Autodesk"
 90
        0
280
     0
281
     0
  0
CLASS
  1
ACMWELDSTANDARDANSI
  2
AcmWeldingStdANSI
  3
"Amdt_StdImp|Product Description: AutoCAD Mechanical 2000|Company: Autodesk"
 90
        0
280
     0
281
     0
  0
CLASS
  1
ACMIDSTANDARDANSI
  2
AcmIdStdANSI
  3
"Amdt_StdImp|Product Description: AutoCAD Mechanical 2000|Company: Autodesk"
 90
        0
280
     0
281
     0
  0
CLASS
  1
ACMDATUMSTANDARDANSI
  2
AcmDatumStdANSI
  3
"Amdt_StdImp|Product Description: AutoCAD Mechanical 2000|Company: Autodesk"
 90
        0
280
     0
281
     0
  0
CLASS
  1
ACMBOMSTANDARDANSI
  2
AcmBOMStdANSI
  3
"Amdt_StdImp|Product Description: AutoCAD Mechanical 2000|Company: Autodesk"
 90
        0
280
     0
281
     0
  0
CLASS
  1
ACMDETAILSTANDARDANSI
  2
AmdtDetailSymStdANSI
  3
"Amdt_StdImp|Product Description: AutoCAD Mechanical 2000|Company: Autodesk"
 90
        0
280
     0
281
     0
  0
CLASS
  1
ACMSECTIONSTANDARDANSI
  2
AmdtSectionSymStdANSI
  3
"Amdt_StdImp|Product Description: AutoCAD Mechanical 2000|Company: Autodesk"
 90
        0
280
     0
281
     0
  0
CLASS
  1
ACMCENTERLINESTANDARDANSI
  2
AmdtCenterLineStdANSI
  3
"Amdt_StdImp|Product Description: AutoCAD Mechanical 2000|Company: Autodesk"
 90
        0
280
     0
281
     0
  0
CLASS
  1
ACMTHREADLINESTANDARDANSI
  2
AmdtThreadLineStdANSI
  3
"Amdt_StdImp|Product Description: AutoCAD Mechanical 2000|Company: Autodesk"
 90
        0
280
     0
281
     0
  0
CLASS
  1
ACMNOTESTANDARDANSI
  2
AmdtNoteStdANSI
  3
"Amdt_StdImp|Product Description: AutoCAD Mechanical 2000|Company: Autodesk"
 90
        0
280
     0
281
     0
  0
CLASS
  1
ACAMGLAYSTD
  2
AcAmgLayStd
  3
"AcAmgLayStd|Product Description: AutoCAD Mechanical 2000|Company: Autodesk"
 90
        0
280
     0
281
     0
  0
CLASS
  1
ACAMGDIMSTD
  2
AcAmgDimStd
  3
"AcAmgDimStd|Product Description: AutoCAD Mechanical 2000|Company: Autodesk"
 90
        0
280
     0
281
     0
  0
CLASS
  1
ACAMGHOLECHARTSTDANSI
  2
AcAmgHoleChartStdANSI
  3
ACMSYMBB_MODULE_NAME
 90
        0
280
     0
281
     0
  0
CLASS
  1
ACAMGTITLESTD
  2
AcAmgTitleStd
  3
"TITLEAPP"
 90
        0
280
     0
281
     0
  0
CLASS
  1
ACAMGFILTERDAT
  2
AcAmgFilterDat
  3
"AcadM|Product Description: AutoCAD Mechanical 2000|Company: Autodesk"
 90
        0
280
     0
281
     0
  0
CLASS
  1
LAYER_INDEX
  2
AcDbLayerIndex
  3
AutoCAD 2000
 90
        0
280
     0
281
     0
  0
CLASS
  1
IDBUFFER
  2
AcDbIdBuffer
  3
AutoCAD 2000
 90
        0
280
     0
281
     0
  0
ENDSEC
  0
SECTION
  2
TABLES
  0
TABLE
  2
VPORT
  5
BD2
330
0
100
AcDbSymbolTable
 70
     5
  0
VPORT
  5
D2A
330
BD2
100
AcDbSymbolTableRecord
100
AcDbViewportTableRecord
  2
*Active
 70
     0
 10
0.0
 20
0.0
 11
1.0
 21
1.0
 12
-113.854119150644
 22
-37.48779998343619
 13
0.0
 23
0.0
 14
10.0
 24
10.0
 15
10.0
 25
10.0
 16
0.0
 26
0.0
 36
1.0
 17
301.354119150644
 27
172.4877999834362
 37
0.0
 40
272.035175879397
 41
1.515723270440251
 42
50.0
 43
0.0
 44
0.0
 50
0.0
 51
0.0
 71
     0
 72
   500
 73
     1
 74
     0
 75
     0
 76
     0
 77
     0
 78
     2
281
     0
 65
     0
110
0.0
120
0.0
130
0.0
111
1.0
121
0.0
131
0.0
112
0.0
122
1.0
132
0.0
 79
     0
146
0.0
  0
ENDTAB
  0
TABLE
  2
LTYPE
  5
BCF
330
0
100
AcDbSymbolTable
 70
    20
  0
LTYPE
  5
BDD
330
BCF
100
AcDbSymbolTableRecord
100
AcDbLinetypeTableRecord
  2
ByBlock
 70
     0
  3

 72
    65
 73
     0
 40
0.0
  0
LTYPE
  5
BDE
330
BCF
100
AcDbSymbolTableRecord
100
AcDbLinetypeTableRecord
  2
ByLayer
 70
     0
  3

 72
    65
 73
     0
 40
0.0
  0
LTYPE
  5
BDF
330
BCF
100
AcDbSymbolTableRecord
100
AcDbLinetypeTableRecord
  2
CONTINUOUS
 70
     0
  3
Solid Line
 72
    65
 73
     0
 40
0.0
  0
LTYPE
  5
BEE
330
BCF
100
AcDbSymbolTableRecord
100
AcDbLinetypeTableRecord
  2
CENTER
 70
     0
  3
____ _ ____ _ ____ _ ____ _ ____ _ ____ _ ____
 72
    65
 73
     4
 40
2.0
 49
1.25
 74
     0
 49
-0.25
 74
     0
 49
0.25
 74
     0
 49
-0.25
 74
     0
  0
LTYPE
  5
BEF
330
BCF
100
AcDbSymbolTableRecord
100
AcDbLinetypeTableRecord
  2
HIDDEN
 70
     0
  3
_ _ _ _ _ _ _ _ _ _ _ _ _ _ _ _ _ _ _ _ _ _ _
 72
    65
 73
     2
 40
0.375
 49
0.25
 74
     0
 49
-0.125
 74
     0
  0
LTYPE
  5
BF0
330
BCF
100
AcDbSymbolTableRecord
100
AcDbLinetypeTableRecord
  2
PHANTOM
 70
     0
  3
_____ _ _ _____ _ _ _____ _ _ _____ _ _ ____
 72
    65
 73
     6
 40
2.5
 49
1.25
 74
     0
 49
-0.25
 74
     0
 49
0.25
 74
     0
 49
-0.25
 74
     0
 49
0.25
 74
     0
 49
-0.25
 74
     0
  0
LTYPE
  5
BF1
330
BCF
100
AcDbSymbolTableRecord
100
AcDbLinetypeTableRecord
  2
PHA-05
 70
     0
  3
_____ _ _ _____ _ _ _____ _ _ _____ _ _ ____
 72
    65
 73
     6
 40
1.25
 49
0.625
 74
     0
 49
-0.125
 74
     0
 49
0.125
 74
     0
 49
-0.125
 74
     0
 49
0.125
 74
     0
 49
-0.125
 74
     0
  0
LTYPE
  5
C43
330
BCF
100
AcDbSymbolTableRecord
100
AcDbLinetypeTableRecord
  2
PHANTOM2
 70
     0
  3
Phantom (.5x) ___ _ _ ___ _ _ ___ _ _ ___ _ _
 72
    65
 73
     6
 40
1.25
 49
0.625
 74
     0
 49
-0.125
 74
     0
 49
0.125
 74
     0
 49
-0.125
 74
     0
 49
0.125
 74
     0
 49
-0.125
 74
     0
  0
LTYPE
  5
CA5
330
BCF
100
AcDbSymbolTableRecord
100
AcDbLinetypeTableRecord
  2
ASULTYPE
 70
     0
  3
実線
 72
    65
 73
     2
 40
3.0
 49
2.5
 74
     0
 49
0.5
 74
     0
  0
LTYPE
  5
CA6
330
BCF
100
AcDbSymbolTableRecord
100
AcDbLinetypeTableRecord
  2
ASVLTYPE
 70
     0
  3
__ __ __ __ __ __ __ __ __ __ __ __ __ __ __ __ __ __ __ __ __
 72
    65
 73
     2
 40
0.75
 49
0.5
 74
     0
 49
-0.25
 74
     0
  0
LTYPE
  5
CEA
330
BCF
100
AcDbSymbolTableRecord
100
AcDbLinetypeTableRecord
  2
AM_ISO02W050
 70
     0
  3
__ __ __ __ __ __ __ __ __ __ __ __ __ __ __
 72
    65
 73
     2
 40
7.5
 49
6.0
 74
     0
 49
-1.5
 74
     0
  0
LTYPE
  5
CEB
330
BCF
100
AcDbSymbolTableRecord
100
AcDbLinetypeTableRecord
  2
AM_ISO08W050
 70
     0
  3
____ . ____ . ____ . ____ . ____ . ____ . ____
 72
    65
 73
     4
 40
18.0
 49
12.0
 74
     0
 49
-1.5
 74
     0
 49
3.0
 74
     0
 49
-1.5
 74
     0
  0
LTYPE
  5
CEC
330
BCF
100
AcDbSymbolTableRecord
100
AcDbLinetypeTableRecord
  2
AM_ISO09W050
 70
     0
  3
_____ . . _____ . . _____ . . ____ .. ____
 72
    65
 73
     6
 40
22.5
 49
12.0
 74
     0
 49
-1.5
 74
     0
 49
3.0
 74
     0
 49
-1.5
 74
     0
 49
3.0
 74
     0
 49
-1.5
 74
     0
  0
LTYPE
  5
CED
330
BCF
100
AcDbSymbolTableRecord
100
AcDbLinetypeTableRecord
  2
Amconstr
 70
     0
  3
_______________________
 72
    65
 73
     2
 40
9999.0
 49
9999.0
 74
     0
 49
0.0
 74
     0
  0
LTYPE
  5
CEE
330
BCF
100
AcDbSymbolTableRecord
100
AcDbLinetypeTableRecord
  2
AM_ISO08W050x2
 70
     0
  3
__ . __ . __ . __ . __ . __
 72
    65
 73
     4
 40
9.0
 49
6.0
 74
     0
 49
-0.75
 74
     0
 49
1.5
 74
     0
 49
-0.75
 74
     0
  0
LTYPE
  5
CEF
330
BCF
100
AcDbSymbolTableRecord
100
AcDbLinetypeTableRecord
  2
AM_ISO02W050x2
 70
     0
  3
 _ _ _ _ _ _ _ _ _ _ _ _
 72
    65
 73
     2
 40
3.75
 49
3.0
 74
     0
 49
-0.75
 74
     0
  0
LTYPE
  5
CF2
330
BCF
100
AcDbSymbolTableRecord
100
AcDbLinetypeTableRecord
  2
Amzigzag
 70
     0
  3
/\/-/\/-/\/-/\/-/\/-/\/
 72
    65
 73
     2
 40
11.00009999999999
 49
0.0001
 74
     4
 75
   135
340
CF1
 46
0.04
 50
0.0
 44
0.0
 45
0.0
 49
-11.0
 74
     0
  0
LTYPE
  5
CF3
330
BCF
100
AcDbSymbolTableRecord
100
AcDbLinetypeTableRecord
  2
CENTER2
 70
     0
  3
Center (.5x) ___ _ ___ _ ___ _ ___ _ ___ _ ___
 72
    65
 73
     4
 40
1.125
 49
0.75
 74
     0
 49
-0.125
 74
     0
 49
0.125
 74
     0
 49
-0.125
 74
     0
  0
LTYPE
  5
CF4
330
BCF
100
AcDbSymbolTableRecord
100
AcDbLinetypeTableRecord
  2
HIDDEN2
 70
     0
  3
Hidden (.5x) _ _ _ _ _ _ _ _ _ _ _ _ _ _ _ _ _
 72
    65
 73
     2
 40
0.1875
 49
0.125
 74
     0
 49
-0.0625
 74
     0
  0
LTYPE
  5
CF5
330
BCF
100
AcDbSymbolTableRecord
100
AcDbLinetypeTableRecord
  2
Amzigzag2
 70
     0
  3
/\/-/\/-/\/-/\/-/\/-/\/
 72
    65
 73
     2
 40
0.4401
 49
0.0001
 74
     4
 75
   135
340
CF1
 46
0.0016
 50
0.0
 44
0.0
 45
0.0
 49
-0.4400000000000001
 74
     0
  0
LTYPE
  5
D03
330
BCF
100
AcDbSymbolTableRecord
100
AcDbLinetypeTableRecord
  2
ACANSTGB
 70
     0
  3
__ . . __ . .
 72
    65
 73
     6
 40
0.35433070866
 49
0.15748031496
 74
     0
 49
-0.03937007874
 74
     0
 49
0.03937007874
 74
     0
 49
-0.03937007874
 74
     0
 49
0.03937007874
 74
     0
 49
-0.03937007874
 74
     0
  0
LTYPE
  5
D04
330
BCF
100
AcDbSymbolTableRecord
100
AcDbLinetypeTableRecord
  2
ACANSTGL
 70
     0
  3
_ _ _ _ _
 72
    65
 73
     2
 40
0.11811023622
 49
0.07874015748
 74
     0
 49
-0.03937007874
 74
     0
  0
ENDTAB
  0
TABLE
  2
LAYER
  5
BCC
330
0
100
AcDbSymbolTable
 70
     5
  0
LAYER
  5
BDA
330
BCC
100
AcDbSymbolTableRecord
100
AcDbLayerTableRecord
  2
0
 70
     0
 62
     7
  6
CONTINUOUS
370
    -3
390
BD9
  0
LAYER
  5
BF5
330
BCC
100
AcDbSymbolTableRecord
100
AcDbLayerTableRecord
  2
1
 70
     0
 62
     1
  6
CENTER
370
    -3
390
BD9
  0
LAYER
  5
BF6
330
BCC
100
AcDbSymbolTableRecord
100
AcDbLayerTableRecord
  2
3
 70
     0
 62
     7
  6
CONTINUOUS
370
    -3
390
BD9
  0
LAYER
  5
BF9
330
BCC
100
AcDbSymbolTableRecord
100
AcDbLayerTableRecord
  2
2
 70
     0
 62
     3
  6
HIDDEN
370
    -3
390
BD9
  0
LAYER
  5
BFA
330
BCC
100
AcDbSymbolTableRecord
100
AcDbLayerTableRecord
  2
5
 70
     0
 62
     7
  6
PHANTOM
370
    -3
390
BD9
  0
ENDTAB
  0
TABLE
  2
STYLE
  5
BCD
330
0
100
AcDbSymbolTable
 70
     5
  0
STYLE
  5
BDB
330
BCD
100
AcDbSymbolTableRecord
100
AcDbTextStyleTableRecord
  2
STANDARD
 70
     0
 40
0.0
 41
0.7
 50
0.0
 71
     0
 42
6.0
  3
SIMPLEX.shx
  4
BIGFONT.shx
  0
STYLE
  5
BED
330
BCD
100
AcDbSymbolTableRecord
100
AcDbTextStyleTableRecord
  2
SIM065
 70
     0
 40
0.0
 41
0.65
 50
0.0
 71
     0
 42
3.2
  3
SIMPLEX
  4

  0
STYLE
  5
CF1
330
BCD
100
AcDbSymbolTableRecord
100
AcDbTextStyleTableRecord
  2

 70
     1
 40
0.0
 41
1.0
 50
0.0
 71
     0
 42
4.000000000000048
  3
ltypeshp.shx
  4

  0
STYLE
  5
CF6
330
BCD
100
AcDbSymbolTableRecord
100
AcDbTextStyleTableRecord
  2
ACANSTS
 70
     0
 40
1.0
 41
1.0
 50
0.0
 71
     0
 42
4.000000000000048
  3
romans.shx
  4
extfont.shx
  0
STYLE
  5
D02
330
BCD
100
AcDbSymbolTableRecord
100
AcDbTextStyleTableRecord
  2
ACANSGDT
 70
     0
 40
0.0
 41
1.0
 50
0.0
 71
     0
 42
4.000000000000048
  3
amgdtans.shx
  4

  0
ENDTAB
  0
TABLE
  2
VIEW
  5
BD0
330
0
100
AcDbSymbolTable
 70
     1
  0
VIEW
  5
BF2
330
BD0
100
AcDbSymbolTableRecord
100
AcDbViewTableRecord
  2
ALL
 70
     0
 40
270.0
 10
220.7859531772575
 20
135.0
 41
441.571906354515
 11
0.0
 21
0.0
 31
1.0
 12
0.0
 22
0.0
 32
0.0
 42
50.0
 43
0.0
 44
0.0
 50
0.0
 71
     0
281
     0
 72
     0
  0
ENDTAB
  0
TABLE
  2
UCS
  5
BD1
330
0
100
AcDbSymbolTable
 70
     0
  0
ENDTAB
  0
TABLE
  2
APPID
  5
BD3
330
0
100
AcDbSymbolTable
 70
    13
  0
APPID
  5
BDC
330
BD3
100
AcDbSymbolTableRecord
100
AcDbRegAppTableRecord
  2
ACAD
 70
     0
  0
APPID
  5
C21
330
BD3
100
AcDbSymbolTableRecord
100
AcDbRegAppTableRecord
  2
GENIUS_GENDIM_13
 70
     0
  0
APPID
  5
C22
330
BD3
100
AcDbSymbolTableRecord
100
AcDbRegAppTableRecord
  2
GENIUS_GENDTOL_13
 70
     0
  0
APPID
  5
C23
330
BD3
100
AcDbSymbolTableRecord
100
AcDbRegAppTableRecord
  2
GENIUS_GE3DTOL_13
 70
     0
  0
APPID
  5
C26
330
BD3
100
AcDbSymbolTableRecord
100
AcDbRegAppTableRecord
  2
MCAD_NO_VIS
 70
     0
  0
APPID
  5
C27
330
BD3
100
AcDbSymbolTableRecord
100
AcDbRegAppTableRecord
  2
ACAD_TEMP_GRAPHIC
 70
     0
  0
APPID
  5
C58
330
BD3
100
AcDbSymbolTableRecord
100
AcDbRegAppTableRecord
  2
AD_DRAW
 70
     0
  0
APPID
  5
C5B
330
BD3
100
AcDbSymbolTableRecord
100
AcDbRegAppTableRecord
  2
ACATTRIBSERVICES
 70
     0
  0
APPID
  5
CA7
330
BD3
100
AcDbSymbolTableRecord
100
AcDbRegAppTableRecord
  2
ASURF_PCURVE_APPNAME
 70
     0
  0
APPID
  5
CAC
330
BD3
100
AcDbSymbolTableRecord
100
AcDbRegAppTableRecord
  2
AMG_3D2D_5.0
 70
     0
  0
APPID
  5
CD7
330
BD3
100
AcDbSymbolTableRecord
100
AcDbRegAppTableRecord
  2
DESIGNERASSEMBLIES
 70
     0
  0
APPID
  5
CDF
330
BD3
100
AcDbSymbolTableRecord
100
AcDbRegAppTableRecord
  2
ACADM_DIM_EDIT
 70
     0
  0
APPID
  5
CE0
330
BD3
100
AcDbSymbolTableRecord
100
AcDbRegAppTableRecord
  2
AMDT_DM_ADJ
 70
     0
  0
ENDTAB
  0
TABLE
  2
DIMSTYLE
  5
BD4
330
0
100
AcDbSymbolTable
 70
     7
100
AcDbDimStyleTable
 71
     0
  0
DIMSTYLE
105
BF4
330
BD4
100
AcDbSymbolTableRecord
100
AcDbDimStyleTableRecord
  2
STANDARD
 70
     0
271
     1
272
     1
279
     2
340
BDB
  0
DIMSTYLE
105
D09
330
BD4
100
AcDbSymbolTableRecord
100
AcDbDimStyleTableRecord
  2
AM_ANSI
 70
     0
  4
mm
 41
0.1
 42
0.05
 43
0.5
 44
0.1
 47
0.1
 48
0.1
 78
     7
 79
     2
140
0.12
141
0.0
146
0.71
147
0.06
176
   256
177
   256
178
     2
274
     4
284
     7
340
BDB
371
    -1
372
    -1
  0
DIMSTYLE
105
D0A
330
BD4
100
AcDbSymbolTableRecord
100
AcDbDimStyleTableRecord
  2
AM_ANSI$3
 70
     0
  4
mm
 41
0.1
 42
0.05
 43
0.5
 44
0.1
 47
0.1
 48
0.1
 78
     7
 79
     2
140
0.12
141
0.0
146
0.71
147
0.06
176
   256
177
   256
178
     2
274
     4
284
     7
288
     1
289
     0
340
BDB
371
    -1
372
    -1
  0
DIMSTYLE
105
D0B
330
BD4
100
AcDbSymbolTableRecord
100
AcDbDimStyleTableRecord
  2
AM_ANSI$4
 70
     0
  4
mm
 41
0.1
 42
0.05
 43
0.5
 44
0.1
 47
0.1
 48
0.1
 78
     7
 79
     2
140
0.12
141
0.0
146
0.71
147
0.06
176
   256
177
   256
178
     2
274
     4
284
     7
288
     1
289
     0
340
BDB
371
    -1
372
    -1
  0
DIMSTYLE
105
D0C
330
BD4
100
AcDbSymbolTableRecord
100
AcDbDimStyleTableRecord
  2
AM_ANSI$7
 70
     0
  4
mm
 41
0.1
 42
0.05
 43
0.5
 44
0.1
 47
0.1
 48
0.1
 78
     7
 79
     2
140
0.24
141
0.0
146
0.71
147
0.06
176
   256
177
   256
178
     2
274
     4
284
     7
340
BDB
371
    -1
372
    -1
  0
DIMSTYLE
105
D0D
330
BD4
100
AcDbSymbolTableRecord
100
AcDbDimStyleTableRecord
  2
AM_ANSI$SF
 70
     0
  4
mm
 41
0.1
 42
0.05
 43
0.5
 44
0.1
 47
0.1
 48
0.1
 75
     1
 76
     1
 78
     7
 79
     2
140
0.12
141
0.0
146
0.71
147
0.06
176
   256
177
   256
178
     2
274
     4
284
     7
340
BDB
371
    -1
372
    -1
  0
DIMSTYLE
105
D12
330
BD4
100
AcDbSymbolTableRecord
100
AcDbDimStyleTableRecord
  2
AM_ANSI$SH
 70
     0
  4
mm
 41
0.1
 42
0.05
 43
0.5
 44
0.1
 47
0.1
 48
0.1
 75
     1
 76
     1
 78
     7
 79
     2
140
0.12
141
0.0
146
0.71
147
0.06
173
     1
176
   256
177
   256
178
     2
274
     4
284
     7
340
BDB
343
D0E
371
    -1
372
    -1
  0
ENDTAB
  0
TABLE
  2
BLOCK_RECORD
  5
BCB
330
0
100
AcDbSymbolTable
 70
     3
  0
BLOCK_RECORD
  5
BE8
102
{ACAD_XDICTIONARY
360
D1E
102
}
330
BCB
100
AcDbSymbolTableRecord
100
AcDbBlockTableRecord
  2
*Model_Space
340
BEB
  0
BLOCK_RECORD
  5
BE4
330
BCB
100
AcDbSymbolTableRecord
100
AcDbBlockTableRecord
  2
*Paper_Space
340
BE7
  0
BLOCK_RECORD
  5
BEC
330
BCB
100
AcDbSymbolTableRecord
100
AcDbBlockTableRecord
  2
STDGX5
340
0
102
{BLKREFS
331
38A
331
38B
331
38C
331
38D
331
452
331
453
331
454
331
455
331
7B1
331
7B2
331
7B3
331
7B4
331
BB4
331
BB5
331
BB6
331
BB7
102
}
  0
BLOCK_RECORD
  5
CCE
330
BCB
100
AcDbSymbolTableRecord
100
AcDbBlockTableRecord
  2
*U1
340
0
  0
BLOCK_RECORD
  5
D0E
330
BCB
100
AcDbSymbolTableRecord
100
AcDbBlockTableRecord
  2
GENAXEH
340
0
  0
ENDTAB
  0
ENDSEC
  0
SECTION
  2
BLOCKS
  0
BLOCK
  5
BFD
330
BE8
100
AcDbEntity
  8
0
100
AcDbBlockBegin
  2
*Model_Space
 70
     0
 10
0.0
 20
0.0
 30
0.0
  3
*Model_Space
  1

  0
ENDBLK
  5
BFE
330
BE8
100
AcDbEntity
  8
0
100
AcDbBlockEnd
  0
BLOCK
  5
BFB
330
BE4
100
AcDbEntity
 67
     1
  8
0
100
AcDbBlockBegin
  2
*Paper_Space
 70
     0
 10
0.0
 20
0.0
 30
0.0
  3
*Paper_Space
  1

  0
ENDBLK
  5
BFC
330
BE4
100
AcDbEntity
 67
     1
  8
0
100
AcDbBlockEnd
  0
BLOCK
  5
2ED
330
BEC
100
AcDbEntity
  8
0
100
AcDbBlockBegin
  2
STDGX5
 70
     0
 10
0.0
 20
0.0
 30
0.0
  3
STDGX5
  1

  0
ENDBLK
  5
2EE
330
BEC
100
AcDbEntity
  8
0
100
AcDbBlockEnd
  0
BLOCK
  5
CCF
330
CCE
100
AcDbEntity
  8
0
100
AcDbBlockBegin
  2
*U1
 70
     1
 10
0.0
 20
0.0
 30
0.0
  3
*U1
  1

  0
ENDBLK
  5
CD0
330
CCE
100
AcDbEntity
  8
0
100
AcDbBlockEnd
  0
BLOCK
  5
D10
330
D0E
100
AcDbEntity
  8
0
100
AcDbBlockBegin
  2
GENAXEH
 70
     0
 10
0.0
 20
0.0
 30
0.0
  3
GENAXEH
  1

  0
LINE
  5
D0F
330
D0E
100
AcDbEntity
  8
0
100
AcDbLine
 10
-1.0
 20
0.0
 30
0.0
 11
1.0
 21
0.0
 31
0.0
  0
ENDBLK
  5
D11
330
D0E
100
AcDbEntity
  8
0
100
AcDbBlockEnd
  0
ENDSEC
  0
SECTION
  2
ENTITIES
  0
INSERT
  5
38A
330
BE8
100
AcDbEntity
  8
0
100
AcDbBlockReference
  2
STDGX5
 10
0.0
 20
0.0
 30
0.0
  0
INSERT
  5
38B
330
BE8
100
AcDbEntity
  8
0
100
AcDbBlockReference
  2
STDGX5
 10
0.0
 20
0.0
 30
0.0
  0
INSERT
  5
38C
330
BE8
100
AcDbEntity
  8
0
100
AcDbBlockReference
  2
STDGX5
 10
275.0
 20
0.0
 30
0.0
  0
INSERT
  5
38D
330
BE8
100
AcDbEntity
  8
0
100
AcDbBlockReference
  2
STDGX5
 10
275.0
 20
0.0
 30
0.0
  0
INSERT
  5
452
330
BE8
100
AcDbEntity
  8
0
100
AcDbBlockReference
  2
STDGX5
 10
0.0
 20
0.0
 30
0.0
 41
2.0
 42
2.0
 43
2.0
  0
INSERT
  5
453
330
BE8
100
AcDbEntity
  8
0
100
AcDbBlockReference
  2
STDGX5
 10
0.0
 20
0.0
 30
0.0
 41
2.0
 42
2.0
 43
2.0
  0
INSERT
  5
454
330
BE8
100
AcDbEntity
  8
0
100
AcDbBlockReference
  2
STDGX5
 10
550.0
 20
0.0
 30
0.0
 41
2.0
 42
2.0
 43
2.0
  0
INSERT
  5
455
330
BE8
100
AcDbEntity
  8
0
100
AcDbBlockReference
  2
STDGX5
 10
550.0
 20
0.0
 30
0.0
 41
2.0
 42
2.0
 43
2.0
  0
INSERT
  5
7B1
330
BE8
100
AcDbEntity
  8
0
100
AcDbBlockReference
  2
STDGX5
 10
0.0
 20
0.0
 30
0.0
  0
INSERT
  5
7B2
330
BE8
100
AcDbEntity
  8
0
100
AcDbBlockReference
  2
STDGX5
 10
0.0
 20
0.0
 30
0.0
  0
INSERT
  5
7B3
330
BE8
100
AcDbEntity
  8
0
100
AcDbBlockReference
  2
STDGX5
 10
275.0
 20
0.0
 30
0.0
  0
INSERT
  5
7B4
330
BE8
100
AcDbEntity
  8
0
100
AcDbBlockReference
  2
STDGX5
 10
275.0
 20
0.0
 30
0.0
  0
LINE
  5
984
330
BE8
100
AcDbEntity
  8
2
100
AcDbLine
 10
199.6556740799117
 20
163.9106442042322
 30
0.0
 11
194.6556740799117
 21
163.9106442042322
 31
0.0
  0
LINE
  5
985
330
BE8
100
AcDbEntity
  8
2
100
AcDbLine
 10
199.6556740799117
 20
160.9106442042324
 30
0.0
 11
194.6556740799117
 21
160.9106442042324
 31
0.0
  0
LINE
  5
986
330
BE8
100
AcDbEntity
  8
1
100
AcDbLine
 10
167.1556740799118
 20
138.0771729784789
 30
0.0
 11
167.1556740799116
 21
128.8723298214001
 31
0.0
  0
POLYLINE
  5
987
330
BE8
100
AcDbEntity
  8
0
100
AcDb2dPolyline
 66
     1
 10
0.0
 20
0.0
 30
0.0
  0
VERTEX
  5
988
330
987
100
AcDbEntity
  8
0
100
AcDbVertex
100
AcDb2dVertex
 10
169.1556740799119
 20
133.6629594161011
 30
0.0
 42
0.1332561510785427
  0
VERTEX
  5
989
330
987
100
AcDbEntity
  8
0
100
AcDbVertex
100
AcDb2dVertex
 10
169.0163067067075
 20
134.176603992828
 30
0.0
 42
0.1067562697215899
  0
VERTEX
  5
98A
330
987
100
AcDbEntity
  8
0
100
AcDbVertex
100
AcDb2dVertex
 10
168.5698876422849
 20
134.6629594161044
 30
0.0
 42
0.0828275296411588
 70
     2
 50
144.7356103171562
  0
VERTEX
  5
98B
330
987
100
AcDbEntity
  8
0
100
AcDbVertex
100
AcDb2dVertex
 10
167.9479810537816
 20
134.9635294347397
 30
0.0
 42
0.0713517487533345
 50
144.7356103171562
  0
VERTEX
  5
98C
330
987
100
AcDbEntity
  8
0
100
AcDbVertex
100
AcDb2dVertex
 10
167.1556740799118
 20
135.077172978479
 30
0.0
 42
0.0713517487533383
  0
VERTEX
  5
98D
330
987
100
AcDbEntity
  8
0
100
AcDbVertex
100
AcDb2dVertex
 10
166.3633671060422
 20
134.9635294347397
 30
0.0
 42
0.0828275296411759
  0
VERTEX
  5
98E
330
987
100
AcDbEntity
  8
0
100
AcDbVertex
100
AcDb2dVertex
 10
165.7414605175387
 20
134.6629594161044
 30
0.0
 42
0.1067562697215909
 70
     2
 50
215.2643896828442
  0
VERTEX
  5
98F
330
987
100
AcDbEntity
  8
0
100
AcDbVertex
100
AcDb2dVertex
 10
165.295041453116
 20
134.1766039928277
 30
0.0
 42
0.1332561510785051
 50
215.2643896828441
  0
VERTEX
  5
990
330
987
100
AcDbEntity
  8
0
100
AcDbVertex
100
AcDb2dVertex
 10
165.1556740799118
 20
133.6629594161011
 30
0.0
 42
0.1332561510785378
  0
SEQEND
  5
991
330
987
100
AcDbEntity
  8
0
  0
LINE
  5
992
330
BE8
100
AcDbEntity
  8
0
100
AcDbLine
 10
169.1556740799133
 20
133.2865433837779
 30
0.0
 11
169.1556740799133
 21
133.6629594161011
 31
0.0
  0
LINE
  5
993
330
BE8
100
AcDbEntity
  8
0
100
AcDbLine
 10
165.1556740799118
 20
133.2865433837779
 30
0.0
 11
165.1556740799118
 21
133.6629594161011
 31
0.0
  0
LINE
  5
994
330
BE8
100
AcDbEntity
  8
0
100
AcDbLine
 10
166.5783238111923
 20
132.3673045688105
 30
0.0
 11
166.0009735424724
 21
133.0744113494217
 31
0.0
  0
LINE
  5
995
330
BE8
100
AcDbEntity
  8
0
100
AcDbLine
 10
167.7330243486311
 20
132.3673045688105
 30
0.0
 11
166.5783238111923
 21
132.3673045688105
 31
0.0
  0
LINE
  5
996
330
BE8
100
AcDbEntity
  8
0
100
AcDbLine
 10
168.3103746173512
 20
133.0744113494217
 30
0.0
 11
167.7330243486311
 21
132.3673045688105
 31
0.0
  0
LINE
  5
997
330
BE8
100
AcDbEntity
  8
0
100
AcDbLine
 10
167.7330243486311
 20
133.7815181300326
 30
0.0
 11
168.3103746173512
 21
133.0744113494217
 31
0.0
  0
LINE
  5
998
330
BE8
100
AcDbEntity
  8
0
100
AcDbLine
 10
166.5783238111923
 20
133.7815181300326
 30
0.0
 11
167.7330243486311
 21
133.7815181300326
 31
0.0
  0
LINE
  5
999
330
BE8
100
AcDbEntity
  8
0
100
AcDbLine
 10
166.0009735424724
 20
133.0744113494217
 30
0.0
 11
166.5783238111923
 21
133.7815181300326
 31
0.0
  0
POLYLINE
  5
99A
330
BE8
100
AcDbEntity
  8
0
100
AcDb2dPolyline
 66
     1
 10
0.0
 20
0.0
 30
0.0
 70
     1
  0
VERTEX
  5
99B
330
99A
100
AcDbEntity
  8
0
100
AcDbVertex
100
AcDb2dVertex
 10
165.1556740799118
 20
133.2865433837779
 30
0.0
 42
0.1332561510785378
  0
VERTEX
  5
99C
330
99A
100
AcDbEntity
  8
0
100
AcDbVertex
100
AcDb2dVertex
 10
165.295041453116
 20
132.7728988070513
 30
0.0
 42
0.1067562697216182
  0
VERTEX
  5
99D
330
99A
100
AcDbEntity
  8
0
100
AcDbVertex
100
AcDb2dVertex
 10
165.7414605175387
 20
132.2865433837745
 30
0.0
 42
0.082827529641178
 70
     2
 50
324.7356103171563
  0
VERTEX
  5
99E
330
99A
100
AcDbEntity
  8
0
100
AcDbVertex
100
AcDb2dVertex
 10
166.4296385285549
 20
131.9539441133708
 30
0.0
 42
0.0867079104444153
 50
324.7356103171563
  0
VERTEX
  5
99F
330
99A
100
AcDbEntity
  8
0
100
AcDbVertex
100
AcDb2dVertex
 10
167.1556740799118
 20
131.8723298213999
 30
0.0
 42
0.0713517487533383
  0
VERTEX
  5
9A0
330
99A
100
AcDbEntity
  8
0
100
AcDbVertex
100
AcDb2dVertex
 10
167.9479810537815
 20
131.9859733651393
 30
0.0
 42
0.082827529641176
  0
VERTEX
  5
9A1
330
99A
100
AcDbEntity
  8
0
100
AcDbVertex
100
AcDb2dVertex
 10
168.5698876422849
 20
132.2865433837745
 30
0.0
 42
0.1067562697215934
 70
     2
 50
35.26438968284415
  0
VERTEX
  5
9A2
330
99A
100
AcDbEntity
  8
0
100
AcDbVertex
100
AcDb2dVertex
 10
169.0163067067075
 20
132.772898807051
 30
0.0
 42
0.1332561510785433
 50
35.26438968284415
  0
VERTEX
  5
9A3
330
99A
100
AcDbEntity
  8
0
100
AcDbVertex
100
AcDb2dVertex
 10
169.1556740799119
 20
133.2865433837779
 30
0.0
 42
0.1332561510785427
  0
VERTEX
  5
9A4
330
99A
100
AcDbEntity
  8
0
100
AcDbVertex
100
AcDb2dVertex
 10
169.0163067067075
 20
133.8001879605045
 30
0.0
 42
0.1067562697215899
  0
VERTEX
  5
9A5
330
99A
100
AcDbEntity
  8
0
100
AcDbVertex
100
AcDb2dVertex
 10
168.5698876422849
 20
134.286543383781
 30
0.0
 42
0.0828275296411588
 70
     2
 50
144.7356103171562
  0
VERTEX
  5
9A6
330
99A
100
AcDbEntity
  8
0
100
AcDbVertex
100
AcDb2dVertex
 10
167.9479810537815
 20
134.5871134024162
 30
0.0
 42
0.0713517487533345
 50
144.7356103171562
  0
VERTEX
  5
9A7
330
99A
100
AcDbEntity
  8
0
100
AcDbVertex
100
AcDb2dVertex
 10
167.1556740799118
 20
134.7007569461556
 30
0.0
 42
0.0713517487533383
  0
VERTEX
  5
9A8
330
99A
100
AcDbEntity
  8
0
100
AcDbVertex
100
AcDb2dVertex
 10
166.3633671060421
 20
134.5871134024162
 30
0.0
 42
0.0828275296411759
  0
VERTEX
  5
9A9
330
99A
100
AcDbEntity
  8
0
100
AcDbVertex
100
AcDb2dVertex
 10
165.7414605175387
 20
134.286543383781
 30
0.0
 42
0.1067562697215909
 70
     2
 50
215.2643896828442
  0
VERTEX
  5
9AA
330
99A
100
AcDbEntity
  8
0
100
AcDbVertex
100
AcDb2dVertex
 10
165.295041453116
 20
133.8001879605045
 30
0.0
 42
0.1332561510785051
 50
215.2643896828441
  0
SEQEND
  5
9AB
330
99A
100
AcDbEntity
  8
0
  0
POLYLINE
  5
9AC
330
BE8
100
AcDbEntity
  8
3
100
AcDb2dPolyline
 66
     1
 10
0.0
 20
0.0
 30
0.0
 70
     1
  0
VERTEX
  5
9AD
330
9AC
100
AcDbEntity
  8
3
100
AcDbVertex
100
AcDb2dVertex
 10
165.534674079912
 20
133.1318172816924
 30
0.0
 42
0.1332561510783856
  0
VERTEX
  5
9AE
330
9AC
100
AcDbEntity
  8
3
100
AcDbVertex
100
AcDb2dVertex
 10
165.6476313358942
 20
132.7155083522547
 30
0.0
 42
0.1067562697215594
  0
VERTEX
  5
9AF
330
9AC
100
AcDbEntity
  8
3
100
AcDbVertex
100
AcDb2dVertex
 10
166.0094539876086
 20
132.3213172816887
 30
0.0
 42
0.0828275296412491
 70
     2
 50
324.7356103171162
  0
VERTEX
  5
9B0
330
9AC
100
AcDbEntity
  8
3
100
AcDbVertex
100
AcDb2dVertex
 10
166.5672222655371
 20
132.0517455730263
 30
0.0
 42
0.0867079104445219
 50
324.7356103171162
  0
VERTEX
  5
9B1
330
9AC
100
AcDbEntity
  8
3
100
AcDbVertex
100
AcDb2dVertex
 10
167.1556740799118
 20
131.9855971893838
 30
0.0
 42
0.0713517487534402
  0
VERTEX
  5
9B2
330
9AC
100
AcDbEntity
  8
3
100
AcDbVertex
100
AcDb2dVertex
 10
167.7978388822331
 20
132.0777052815845
 30
0.0
 42
0.082827529641251
  0
VERTEX
  5
9B3
330
9AC
100
AcDbEntity
  8
3
100
AcDbVertex
100
AcDb2dVertex
 10
168.301894172215
 20
132.3213172816887
 30
0.0
 42
0.1067562697216031
 70
     2
 50
35.26438968288432
  0
VERTEX
  5
9B4
330
9AC
100
AcDbEntity
  8
3
100
AcDbVertex
100
AcDb2dVertex
 10
168.6637168239295
 20
132.715508352255
 30
0.0
 42
0.1332561510783838
 50
35.26438968288432
  0
VERTEX
  5
9B5
330
9AC
100
AcDbEntity
  8
3
100
AcDbVertex
100
AcDb2dVertex
 10
168.7766740799115
 20
133.1318172816924
 30
0.0
 42
0.1332561510783027
  0
VERTEX
  5
9B6
330
9AC
100
AcDbEntity
  8
3
100
AcDbVertex
100
AcDb2dVertex
 10
168.6637168239295
 20
133.5481262111301
 30
0.0
 42
0.1067562697215362
  0
VERTEX
  5
9B7
330
9AC
100
AcDbEntity
  8
3
100
AcDbVertex
100
AcDb2dVertex
 10
168.301894172215
 20
133.9423172816962
 30
0.0
 42
0.0828275296412412
 70
     2
 50
144.7356103171161
  0
VERTEX
  5
9B8
330
9AC
100
AcDbEntity
  8
3
100
AcDbVertex
100
AcDb2dVertex
 10
167.7978388822331
 20
134.1859292818003
 30
0.0
 42
0.071351748753442
 50
144.7356103171161
  0
VERTEX
  5
9B9
330
9AC
100
AcDbEntity
  8
3
100
AcDbVertex
100
AcDb2dVertex
 10
167.1556740799118
 20
134.2780373740013
 30
0.0
 42
0.0713517487534358
  0
VERTEX
  5
9BA
330
9AC
100
AcDbEntity
  8
3
100
AcDbVertex
100
AcDb2dVertex
 10
166.5135092775907
 20
134.1859292818003
 30
0.0
 42
0.0828275296412505
  0
VERTEX
  5
9BB
330
9AC
100
AcDbEntity
  8
3
100
AcDbVertex
100
AcDb2dVertex
 10
166.0094539876086
 20
133.9423172816962
 30
0.0
 42
0.1067562697215789
 70
     2
 50
215.2643896828843
  0
VERTEX
  5
9BC
330
9AC
100
AcDbEntity
  8
3
100
AcDbVertex
100
AcDb2dVertex
 10
165.6476313358941
 20
133.5481262111301
 30
0.0
 42
0.133256151078348
 50
215.2643896828843
  0
SEQEND
  5
9BD
330
9AC
100
AcDbEntity
  8
3
  0
LINE
  5
9BE
330
BE8
100
AcDbEntity
  8
1
100
AcDbLine
 10
123.5608995611882
 20
138.0241588177276
 30
0.0
 11
130.6319673730537
 21
130.9530910058621
 31
0.0
  0
POLYLINE
  5
9BF
330
BE8
100
AcDbEntity
  8
3
100
AcDb2dPolyline
 66
     1
 10
0.0
 20
0.0
 30
0.0
 70
     1
  0
VERTEX
  5
9C0
330
9BF
100
AcDbEntity
  8
3
100
AcDbVertex
100
AcDb2dVertex
 10
128.5574650234943
 20
160.8786195710016
 30
0.0
 42
0.2757322443321372
 50
144.7356103172451
  0
VERTEX
  5
9C1
330
9BF
100
AcDbEntity
  8
3
100
AcDbVertex
100
AcDb2dVertex
 10
113.7913633258728
 20
160.8786195710016
 30
0.0
 50
144.7356103172451
  0
VERTEX
  5
9C2
330
9BF
100
AcDbEntity
  8
3
100
AcDbVertex
100
AcDb2dVertex
 10
113.7913633258728
 20
155.9463893847931
 30
0.0
 42
0.2757322443321373
 50
360.0
  0
VERTEX
  5
9C3
330
9BF
100
AcDbEntity
  8
3
100
AcDbVertex
100
AcDb2dVertex
 10
128.5574650234943
 20
155.9463893847931
 30
0.0
 50
360.0
  0
SEQEND
  5
9C4
330
9BF
100
AcDbEntity
  8
3
  0
POLYLINE
  5
9C5
330
BE8
100
AcDbEntity
  8
3
100
AcDb2dPolyline
 66
     1
 10
0.0
 20
0.0
 30
0.0
 70
     1
  0
VERTEX
  5
9C6
330
9C5
100
AcDbEntity
  8
3
100
AcDbVertex
100
AcDb2dVertex
 10
128.332372009811
 20
160.7501611812845
 30
0.0
 42
0.2709027632264667
 50
144.7356103172451
  0
VERTEX
  5
9C7
330
9C5
100
AcDbEntity
  8
3
100
AcDbVertex
100
AcDb2dVertex
 10
114.0164563395561
 20
160.7501611812845
 30
0.0
 50
144.7356103172451
  0
VERTEX
  5
9C8
330
9C5
100
AcDbEntity
  8
3
100
AcDbVertex
100
AcDb2dVertex
 10
114.0164563395561
 20
156.0748477745099
 30
0.0
 42
0.2709027632264667
 50
360.0
  0
VERTEX
  5
9C9
330
9C5
100
AcDbEntity
  8
3
100
AcDbVertex
100
AcDb2dVertex
 10
128.332372009811
 20
156.0748477745102
 30
0.0
 50
360.0
  0
SEQEND
  5
9CA
330
9C5
100
AcDbEntity
  8
3
  0
LINE
  5
9CB
330
BE8
100
AcDbEntity
  8
3
100
AcDbLine
 10
114.6917353806058
 20
156.3660445749736
 30
0.0
 11
114.6917353806058
 21
157.4012800467415
 31
0.0
  0
LINE
  5
9CC
330
BE8
100
AcDbEntity
  8
3
100
AcDbLine
 10
118.3832608050112
 20
155.0105724148472
 30
0.0
 11
118.3832608050112
 21
161.8144365409475
 31
0.0
  0
LINE
  5
9CD
330
BE8
100
AcDbEntity
  8
3
100
AcDbLine
 10
120.6341909418438
 20
154.7317162052403
 30
0.0
 11
120.6341909418438
 21
162.0932927505544
 31
0.0
  0
LINE
  5
9CE
330
BE8
100
AcDbEntity
  8
3
100
AcDbLine
 10
124.3257163662491
 20
156.0371594026233
 30
0.0
 11
124.3257163662491
 21
160.7878495531716
 31
0.0
  0
LINE
  5
9CF
330
BE8
100
AcDbEntity
  8
3
100
AcDbLine
 10
117.3928515448048
 20
155.9972829686021
 30
0.0
 11
117.3928515448048
 21
158.5025416833707
 31
0.0
  0
LINE
  5
9D0
330
BE8
100
AcDbEntity
  8
3
100
AcDbLine
 10
115.5921074353388
 20
159.2228393271572
 30
0.0
 11
115.5921074353389
 21
159.797583903312
 31
0.0
  0
LINE
  5
9D1
330
BE8
100
AcDbEntity
  8
3
100
AcDbLine
 10
116.4924794900719
 20
156.7844512800372
 30
0.0
 11
116.4924794900719
 21
157.8722812450576
 31
0.0
  0
ARC
  5
9D2
330
BE8
100
AcDbEntity
  8
3
100
AcDbCircle
 10
121.1744141746835
 20
148.5084118758343
 30
0.0
 40
13.59561802646852
100
AcDbArc
 50
64.30589115139004
 51
72.5003904236959
  0
ARC
  5
9D3
330
BE8
100
AcDbEntity
  8
3
100
AcDbCircle
 10
121.1744141746835
 20
168.3165970799604
 30
0.0
 40
13.59561802646852
100
AcDbArc
 50
241.5220059637752
 51
250.6684235941317
  0
ARC
  5
9D4
330
BE8
100
AcDbEntity
  8
3
100
AcDbCircle
 10
121.1744141746835
 20
148.5084118758343
 30
0.0
 40
12.6952459717355
100
AcDbArc
 50
107.3298556838954
 51
115.5726159680066
  0
ARC
  5
9D5
330
BE8
100
AcDbEntity
  8
3
100
AcDbCircle
 10
121.1744141746835
 20
168.3165970799604
 30
0.0
 40
12.6952459717355
100
AcDbArc
 50
239.2936441998581
 51
247.1394738354502
  0
ARC
  5
9D6
330
BE8
100
AcDbEntity
  8
3
100
AcDbCircle
 10
121.1744141746835
 20
148.5084118758343
 30
0.0
 40
13.59561802646852
100
AcDbArc
 50
106.1495651407125
 51
117.0760281832611
  0
ARC
  5
9D7
330
BE8
100
AcDbEntity
  8
3
100
AcDbCircle
 10
121.1744141746835
 20
168.3165970799604
 30
0.0
 40
13.59561802646852
100
AcDbArc
 50
258.1530549875378
 51
262.9626374511518
  0
LINE
  5
9D8
330
BE8
100
AcDbEntity
  8
3
100
AcDbLine
 10
115.2319586134456
 20
158.0523556560041
 30
0.0
 11
116.3124050791252
 21
158.0523556560041
 31
0.0
  0
LINE
  5
9D9
330
BE8
100
AcDbEntity
  8
3
100
AcDbLine
 10
115.7721818462855
 20
159.0427649162106
 30
0.0
 11
116.8526283119651
 21
159.0427649162106
 31
0.0
  0
LINE
  5
9DA
330
BE8
100
AcDbEntity
  8
3
100
AcDbLine
 10
114.6917353806058
 20
158.592578888844
 30
0.0
 11
114.6917353806058
 21
160.1329787546567
 31
0.0
  0
LINE
  5
9DB
330
BE8
100
AcDbEntity
  8
3
100
AcDbLine
 10
117.3928515448049
 20
160.6273662184816
 30
0.0
 11
117.3928515448049
 21
161.5675318154757
 31
0.0
  0
LINE
  5
9DC
330
BE8
100
AcDbEntity
  8
3
100
AcDbLine
 10
119.5087258734275
 20
154.8234020541449
 30
0.0
 11
119.5087258734275
 21
162.0016069016498
 31
0.0
  0
ARC
  5
9DD
330
BE8
100
AcDbEntity
  8
3
100
AcDbCircle
 10
121.1744141746835
 20
148.5084118758343
 30
0.0
 40
13.59561802646852
100
AcDbArc
 50
97.03736254884818
 51
101.8469450124622
  0
ARC
  5
9DE
330
BE8
100
AcDbEntity
  8
3
100
AcDbCircle
 10
121.1744141746835
 20
168.3165970799604
 30
0.0
 40
13.59561802646852
100
AcDbArc
 50
267.7227469902971
 51
272.2772530097029
  0
LINE
  5
9DF
330
BE8
100
AcDbEntity
  8
3
100
AcDbLine
 10
121.7146374075234
 20
154.7317162052403
 30
0.0
 11
121.7146374075234
 21
157.9623184505309
 31
0.0
  0
LINE
  5
9E0
330
BE8
100
AcDbEntity
  8
3
100
AcDbLine
 10
122.8851210786763
 20
158.4125044778975
 30
0.0
 11
123.9655675443559
 21
161.8144365409475
 31
0.0
  0
LINE
  5
9E1
330
BE8
100
AcDbEntity
  8
3
100
AcDbLine
 10
121.8944701789584
 20
158.8626905052638
 30
0.0
 11
122.8894207572031
 21
161.9954271847729
 31
0.0
  0
LINE
  5
9E2
330
BE8
100
AcDbEntity
  8
3
100
AcDbLine
 10
122.8851210786763
 20
158.4125044778975
 30
0.0
 11
123.9655675443559
 21
155.0105724148472
 31
0.0
  0
LINE
  5
9E3
330
BE8
100
AcDbEntity
  8
3
100
AcDbLine
 10
121.8944701789584
 20
157.9623184505309
 30
0.0
 11
122.8894207572031
 21
154.8295817710218
 31
0.0
  0
LINE
  5
9E4
330
BE8
100
AcDbEntity
  8
3
100
AcDbLine
 10
127.4770185578147
 20
156.7143677069228
 30
0.0
 11
127.4770185578147
 21
160.1106412488716
 31
0.0
  0
LINE
  5
9E5
330
BE8
100
AcDbEntity
  8
3
100
AcDbLine
 10
125.4061628319287
 20
156.7010996320414
 30
0.0
 11
125.4061628319287
 21
160.1239093237533
 31
0.0
  0
LINE
  5
9E6
330
BE8
100
AcDbEntity
  8
3
100
AcDbLine
 10
126.3965720921351
 20
157.0781647784384
 30
0.0
 11
126.3965720921351
 21
159.7468441773563
 31
0.0
  0
ARC
  5
9E7
330
BE8
100
AcDbEntity
  8
3
100
AcDbCircle
 10
121.1744141746835
 20
148.5084118758343
 30
0.0
 40
12.60520876626221
100
AcDbArc
 50
66.60556037740611
 51
69.20211441840753
  0
ARC
  5
9E8
330
BE8
100
AcDbEntity
  8
3
100
AcDbCircle
 10
121.1744141746835
 20
168.3165970799604
 30
0.0
 40
12.60520876626221
100
AcDbArc
 50
290.7978855815923
 51
293.3944396225938
  0
ARC
  5
9E9
330
BE8
100
AcDbEntity
  8
3
100
AcDbCircle
 10
121.1744141746835
 20
168.3165970799604
 30
0.0
 40
13.59561802646852
100
AcDbArc
 50
277.2468291309767
 51
281.8469450124623
  0
ARC
  5
9EA
330
BE8
100
AcDbEntity
  8
3
100
AcDbCircle
 10
121.1744141746835
 20
148.5084118758343
 30
0.0
 40
13.59561802646852
100
AcDbArc
 50
87.72274699029713
 51
92.27725300970284
  0
ARC
  5
9EB
330
BE8
100
AcDbEntity
  8
3
100
AcDbCircle
 10
121.1744141746835
 20
168.3165970799604
 30
0.0
 40
13.59561802646852
100
AcDbArc
 50
287.4996095763041
 51
295.6941088486099
  0
ARC
  5
9EC
330
BE8
100
AcDbEntity
  8
3
100
AcDbCircle
 10
121.1744141746835
 20
148.5084118758343
 30
0.0
 40
13.59561802646852
100
AcDbArc
 50
78.15305498753777
 51
82.75317086902321
  0
LINE
  5
9ED
330
BE8
100
AcDbEntity
  8
3
100
AcDbLine
 10
121.7146374075234
 20
158.8626905052638
 30
0.0
 11
121.8944701789584
 21
158.8626905052638
 31
0.0
  0
LINE
  5
9EE
330
BE8
100
AcDbEntity
  8
3
100
AcDbLine
 10
121.7146374075234
 20
157.9623184505309
 30
0.0
 11
121.8944701789584
 21
157.9623184505309
 31
0.0
  0
LINE
  5
9EF
330
BE8
100
AcDbEntity
  8
3
100
AcDbLine
 10
121.7146374075234
 20
158.8626905052638
 30
0.0
 11
121.7146374075234
 21
162.0932927505544
 31
0.0
  0
ARC
  5
9F0
330
BE8
100
AcDbEntity
  8
3
100
AcDbCircle
 10
125.0460140100355
 20
160.7878495531716
 30
0.0
 40
0.7202976437864138
100
AcDbArc
 50
72.50039042369632
 51
180.0
  0
ARC
  5
9F1
330
BE8
100
AcDbEntity
  8
3
100
AcDbCircle
 10
125.0460140100355
 20
156.0371594026233
 30
0.0
 40
0.7202976437864138
100
AcDbArc
 50
180.0
 51
287.4996095763043
  0
ARC
  5
9F2
330
BE8
100
AcDbEntity
  8
3
100
AcDbCircle
 10
126.7567209140283
 20
156.7143677069228
 30
0.0
 40
0.7202976437864138
100
AcDbArc
 50
295.6941088486102
 51
0.0
  0
ARC
  5
9F3
330
BE8
100
AcDbEntity
  8
3
100
AcDbCircle
 10
126.7567209140283
 20
160.1106412488716
 30
0.0
 40
0.7202976437864138
100
AcDbArc
 50
0.0
 51
64.30589115138994
  0
ARC
  5
9F4
330
BE8
100
AcDbEntity
  8
3
100
AcDbCircle
 10
125.5862372428754
 20
160.1239093237533
 30
0.0
 40
0.1800744109466034
100
AcDbArc
 50
69.20211441840642
 51
180.0
  0
ARC
  5
9F5
330
BE8
100
AcDbEntity
  8
3
100
AcDbCircle
 10
125.5862372428754
 20
156.7010996320414
 30
0.0
 40
0.1800744109466034
100
AcDbArc
 50
180.0
 51
290.7978855815921
  0
ARC
  5
9F6
330
BE8
100
AcDbEntity
  8
3
100
AcDbCircle
 10
126.0364232702418
 20
157.0781647784384
 30
0.0
 40
0.3601488218932069
100
AcDbArc
 50
293.3944396225935
 51
0.0
  0
ARC
  5
9F7
330
BE8
100
AcDbEntity
  8
3
100
AcDbCircle
 10
126.0364232702418
 20
159.7468441773563
 30
0.0
 40
0.3601488218932069
100
AcDbArc
 50
0.0
 51
66.60556037740585
  0
ARC
  5
9F8
330
BE8
100
AcDbEntity
  8
3
100
AcDbCircle
 10
115.2319586134456
 20
160.1329787546567
 30
0.0
 40
0.54022323283981
100
AcDbArc
 50
117.0760281832605
 51
180.0000000000005
  0
ARC
  5
9F9
330
BE8
100
AcDbEntity
  8
3
100
AcDbCircle
 10
115.2319586134456
 20
158.592578888844
 30
0.0
 40
0.54022323283981
100
AcDbArc
 50
179.9999999999996
 51
270.0
  0
ARC
  5
9FA
330
BE8
100
AcDbEntity
  8
3
100
AcDbCircle
 10
116.8526283119651
 20
155.9972829686021
 30
0.0
 40
0.54022323283981
100
AcDbArc
 50
250.6684235941325
 51
0.0
  0
ARC
  5
9FB
330
BE8
100
AcDbEntity
  8
3
100
AcDbCircle
 10
116.8526283119651
 20
158.5025416833707
 30
0.0
 40
0.54022323283981
100
AcDbArc
 50
0.0
 51
89.99999999999998
  0
ARC
  5
9FC
330
BE8
100
AcDbEntity
  8
3
100
AcDbCircle
 10
116.3124050791252
 20
156.7844512800372
 30
0.0
 40
0.1800744109466034
100
AcDbArc
 50
247.1394738354506
 51
0.0
  0
ARC
  5
9FD
330
BE8
100
AcDbEntity
  8
3
100
AcDbCircle
 10
116.3124050791252
 20
157.8722812450576
 30
0.0
 40
0.1800744109466034
100
AcDbArc
 50
0.0
 51
89.99999999999978
  0
ARC
  5
9FE
330
BE8
100
AcDbEntity
  8
3
100
AcDbCircle
 10
115.7721818462855
 20
159.2228393271572
 30
0.0
 40
0.1800744109466034
100
AcDbArc
 50
179.9999999999993
 51
270.0
  0
ARC
  5
9FF
330
BE8
100
AcDbEntity
  8
3
100
AcDbCircle
 10
115.7721818462855
 20
159.797583903312
 30
0.0
 40
0.1800744109466034
100
AcDbArc
 50
115.5726159680052
 51
180.0
  0
LINE
  5
A01
330
BE8
100
AcDbEntity
  8
0
100
AcDbLine
 10
173.7139229679768
 20
221.0426463955448
 30
0.0
 11
180.2917713134788
 21
221.0426463955448
 31
0.0
  0
ARC
  5
A02
330
BE8
100
AcDbEntity
  8
0
100
AcDbCircle
 10
173.1556740799118
 20
202.0426463955451
 30
0.0
 40
2.0
100
AcDbArc
 50
180.0
 51
269.9999999999999
  0
ARC
  5
A03
330
BE8
100
AcDbEntity
  8
0
100
AcDbCircle
 10
173.1556740799118
 20
231.0426463955451
 30
0.0
 40
2.0
100
AcDbArc
 50
90.0
 51
179.9999999999999
  0
POLYLINE
  5
A04
330
BE8
100
AcDbEntity
  8
0
100
AcDb2dPolyline
 66
     1
 10
0.0
 20
0.0
 30
0.0
  0
VERTEX
  5
A05
330
A04
100
AcDbEntity
  8
0
100
AcDbVertex
100
AcDb2dVertex
 10
171.1556740799118
 20
128.3178255058343
 30
0.0
 42
0.1338100391356221
  0
VERTEX
  5
A06
330
A04
100
AcDbEntity
  8
0
100
AcDbVertex
100
AcDb2dVertex
 10
171.2948224806365
 20
127.8071876946507
 30
0.0
 42
0.1067995667766738
  0
VERTEX
  5
A07
330
A04
100
AcDbEntity
  8
0
100
AcDbVertex
100
AcDb2dVertex
 10
171.7414605175386
 20
127.3227980651126
 30
0.0
 42
0.0825742869876633
 70
     2
 50
324.8701393424911
  0
VERTEX
  5
A08
330
A04
100
AcDbEntity
  8
0
100
AcDbVertex
100
AcDb2dVertex
 10
172.363062320718
 20
127.0237887789492
 30
0.0
 42
0.0710145776751746
 50
324.8701393424911
  0
VERTEX
  5
A09
330
A04
100
AcDbEntity
  8
0
100
AcDbVertex
100
AcDb2dVertex
 10
173.1556740799118
 20
126.9106442042323
 30
0.0
 42
0.0710145776751752
  0
SEQEND
  5
A0A
330
A04
100
AcDbEntity
  8
0
  0
LINE
  5
A0B
330
BE8
100
AcDbEntity
  8
0
100
AcDbLine
 10
173.1556740799118
 20
126.9106442042323
 30
0.0
 11
194.6556740799117
 21
126.9106442042323
 31
0.0
  0
ARC
  5
A0C
330
BE8
100
AcDbEntity
  8
0
100
AcDbCircle
 10
165.0193085709007
 20
216.5426463955452
 30
0.0
 40
20.63636550901103
100
AcDbArc
 50
306.9119513864207
 51
53.08804861357923
  0
LINE
  5
A0D
330
BE8
100
AcDbEntity
  8
0
100
AcDbLine
 10
177.413241821548
 20
167.9106442042323
 30
0.0
 11
194.6556740799117
 21
167.9106442042323
 31
0.0
  0
POLYLINE
  5
A0E
330
BE8
100
AcDbEntity
  8
0
100
AcDb2dPolyline
 66
     1
 10
0.0
 20
0.0
 30
0.0
  0
VERTEX
  5
A0F
330
A0E
100
AcDbEntity
  8
0
100
AcDbVertex
100
AcDb2dVertex
 10
104.6744141746835
 20
164.2326607309528
 30
0.0
 42
-0.1343469449396857
  0
VERTEX
  5
A10
330
A0E
100
AcDbEntity
  8
0
100
AcDbVertex
100
AcDb2dVertex
 10
104.8133499610162
 20
164.7404062560503
 30
0.0
 42
-0.1068392138072506
  0
VERTEX
  5
A11
330
A0E
100
AcDbEntity
  8
0
100
AcDbVertex
100
AcDb2dVertex
 10
105.2602006123103
 20
165.2229037279651
 30
0.0
 42
-0.0823290349390688
 70
     2
 50
34.99999999999978
  0
VERTEX
  5
A12
330
A0E
100
AcDbEntity
  8
0
100
AcDbVertex
100
AcDb2dVertex
 10
105.9480623269254
 20
165.5522802077999
 30
0.0
 42
-0.0859662015761262
  0
VERTEX
  5
A13
330
A0E
100
AcDbEntity
  8
0
100
AcDbVertex
100
AcDb2dVertex
 10
106.6744141746835
 20
165.6330758073722
 30
0.0
 42
-0.0706899280621838
  0
SEQEND
  5
A14
330
A0E
100
AcDbEntity
  8
0
  0
POLYLINE
  5
A15
330
BE8
100
AcDbEntity
  8
0
100
AcDb2dPolyline
 66
     1
 10
0.0
 20
0.0
 30
0.0
  0
VERTEX
  5
A16
330
A15
100
AcDbEntity
  8
0
100
AcDbVertex
100
AcDb2dVertex
 10
137.6744141746836
 20
164.2326607309528
 30
0.0
 42
0.1343469449396857
  0
VERTEX
  5
A17
330
A15
100
AcDbEntity
  8
0
100
AcDbVertex
100
AcDb2dVertex
 10
137.5354783883508
 20
164.7404062560503
 30
0.0
 42
0.1068392138072506
  0
VERTEX
  5
A18
330
A15
100
AcDbEntity
  8
0
100
AcDbVertex
100
AcDb2dVertex
 10
137.0886277370567
 20
165.2229037279651
 30
0.0
 42
0.0823290349390688
 70
     2
 50
145.0000000000002
  0
VERTEX
  5
A19
330
A15
100
AcDbEntity
  8
0
100
AcDbVertex
100
AcDb2dVertex
 10
136.4007660224416
 20
165.5522802077999
 30
0.0
 42
0.0859662015761262
 50
145.0000000000002
  0
VERTEX
  5
A1A
330
A15
100
AcDbEntity
  8
0
100
AcDbVertex
100
AcDb2dVertex
 10
135.6744141746835
 20
165.6330758073722
 30
0.0
 42
0.0706899280621838
  0
SEQEND
  5
A1B
330
A15
100
AcDbEntity
  8
0
  0
ARC
  5
A1C
330
BE8
100
AcDbEntity
  8
0
100
AcDbCircle
 10
173.1556740799118
 20
125.9106442042324
 30
0.0
 40
2.0
100
AcDbArc
 50
179.9999999999999
 51
269.9999999999999
  0
ARC
  5
A1D
330
BE8
100
AcDbEntity
  8
0
100
AcDbCircle
 10
135.6744141746835
 20
128.3178255058343
 30
0.0
 40
2.0
100
AcDbArc
 50
288.8517011060364
 51
0.0
  0
ARC
  5
A1E
330
BE8
100
AcDbEntity
  8
0
100
AcDbCircle
 10
106.6744141746835
 20
128.3178255058343
 30
0.0
 40
2.0
100
AcDbArc
 50
180.0000000000002
 51
251.1482988939637
  0
ARC
  5
A1F
330
BE8
100
AcDbEntity
  8
0
100
AcDbCircle
 10
106.6744141746835
 20
166.5034629026303
 30
0.0
 40
2.0
100
AcDbArc
 50
108.8517011060356
 51
180.0
  0
ARC
  5
A20
330
BE8
100
AcDbEntity
  8
0
100
AcDbCircle
 10
135.6744141746835
 20
166.5034629026303
 30
0.0
 40
2.0
100
AcDbArc
 50
0.0
 51
71.14829889396424
  0
ARC
  5
A21
330
BE8
100
AcDbEntity
  8
0
100
AcDbCircle
 10
121.1744141746835
 20
124.0356442042324
 30
0.0
 40
46.87500000000002
100
AcDbArc
 50
71.1482986181751
 51
108.8517011060358
  0
ARC
  5
A22
330
BE8
100
AcDbEntity
  8
0
100
AcDbCircle
 10
121.1744141746835
 20
170.7856442042322
 30
0.0
 40
46.87500000000002
100
AcDbArc
 50
251.1482988939641
 51
288.8517011060359
  0
LINE
  5
A23
330
BE8
100
AcDbEntity
  8
0
100
AcDbLine
 10
135.6744141746835
 20
165.6330758073725
 30
0.0
 11
106.6744141746835
 21
165.6330758073722
 31
0.0
  0
LINE
  5
A24
330
BE8
100
AcDbEntity
  8
1
100
AcDbLine
 10
99.6744141746835
 20
140.4106442042323
 30
0.0
 11
142.6744141746836
 21
140.4106442042323
 31
0.0
  0
LINE
  5
A25
330
BE8
100
AcDbEntity
  8
1
100
AcDbLine
 10
121.1744141746835
 20
175.9106442042324
 30
0.0
 11
121.1744141746835
 21
118.9106442042322
 31
0.0
  0
ARC
  5
A26
330
BE8
100
AcDbEntity
  8
0
100
AcDbCircle
 10
173.1556740799118
 20
164.2326607309528
 30
0.0
 40
2.0
100
AcDbArc
 50
110.0
 51
179.9999999999999
  0
LINE
  5
A27
330
BE8
100
AcDbEntity
  8
0
100
AcDbLine
 10
199.1556740799117
 20
219.542646395545
 30
0.0
 11
194.6556740799117
 21
219.542646395545
 31
0.0
  0
LINE
  5
A28
330
BE8
100
AcDbEntity
  8
0
100
AcDbLine
 10
199.1556740799117
 20
213.5426463955451
 30
0.0
 11
194.6556740799117
 21
213.5426463955451
 31
0.0
  0
LINE
  5
A29
330
BE8
100
AcDbEntity
  8
0
100
AcDbLine
 10
199.6556740799117
 20
219.0426463955452
 30
0.0
 11
199.6556740799117
 21
214.0426463955452
 31
0.0
  0
LINE
  5
A2A
330
BE8
100
AcDbEntity
  8
0
100
AcDbLine
 10
199.1556740799117
 20
219.542646395545
 30
0.0
 11
199.1556740799117
 21
213.5426463955451
 31
0.0
  0
LINE
  5
A2B
330
BE8
100
AcDbEntity
  8
0
100
AcDbLine
 10
199.1556740799117
 20
219.542646395545
 30
0.0
 11
199.6556740799117
 21
219.0426463955452
 31
0.0
  0
LINE
  5
A2C
330
BE8
100
AcDbEntity
  8
0
100
AcDbLine
 10
199.6556740799117
 20
214.0426463955452
 30
0.0
 11
199.1556740799117
 21
213.5426463955451
 31
0.0
  0
LINE
  5
A2D
330
BE8
100
AcDbEntity
  8
0
100
AcDbLine
 10
194.6556740799117
 20
233.042646395545
 30
0.0
 11
173.1556740799118
 21
233.042646395545
 31
0.0
  0
LINE
  5
A2E
330
BE8
100
AcDbEntity
  8
0
100
AcDbLine
 10
170.6556740799118
 20
203.042646395545
 30
0.0
 11
170.6556740799118
 21
230.0426463955452
 31
0.0
  0
LINE
  5
A2F
330
BE8
100
AcDbEntity
  8
0
100
AcDbLine
 10
194.6556740799117
 20
233.042646395545
 30
0.0
 11
194.6556740799117
 21
200.0426463955451
 31
0.0
  0
LINE
  5
A30
330
BE8
100
AcDbEntity
  8
0
100
AcDbLine
 10
194.6556740799117
 20
200.0426463955451
 30
0.0
 11
173.1556740799118
 21
200.0426463955449
 31
0.0
  0
LINE
  5
A31
330
BE8
100
AcDbEntity
  8
0
100
AcDbLine
 10
191.6556740799117
 20
233.042646395545
 30
0.0
 11
191.6556740799117
 21
200.0426463955451
 31
0.0
  0
LINE
  5
A32
330
BE8
100
AcDbEntity
  8
1
100
AcDbLine
 10
204.6556740799117
 20
216.5426463955452
 30
0.0
 11
158.6556740799118
 21
216.5426463955452
 31
0.0
  0
LINE
  5
A33
330
BE8
100
AcDbEntity
  8
0
100
AcDbLine
 10
171.1556740799118
 20
202.0426463955451
 30
0.0
 11
171.1556740799118
 21
231.0426463955451
 31
0.0
  0
LINE
  5
A34
330
BE8
100
AcDbEntity
  8
0
100
AcDbLine
 10
170.6556740799118
 20
203.042646395545
 30
0.0
 11
171.1556740799118
 21
203.042646395545
 31
0.0
  0
LINE
  5
A35
330
BE8
100
AcDbEntity
  8
0
100
AcDbLine
 10
170.6556740799118
 20
230.0426463955452
 30
0.0
 11
171.1556740799118
 21
230.0426463955452
 31
0.0
  0
LINE
  5
A36
330
BE8
100
AcDbEntity
  8
0
100
AcDbLine
 10
163.6556740799118
 20
226.442646395545
 30
0.0
 11
170.6556740799118
 21
226.442646395545
 31
0.0
  0
LINE
  5
A37
330
BE8
100
AcDbEntity
  8
0
100
AcDbLine
 10
163.6556740799118
 20
206.6426463955451
 30
0.0
 11
170.6556740799118
 21
206.6426463955451
 31
0.0
  0
LINE
  5
A38
330
BE8
100
AcDbEntity
  8
0
100
AcDbLine
 10
163.6556740799118
 20
206.6426463955451
 30
0.0
 11
163.6556740799118
 21
226.442646395545
 31
0.0
  0
LINE
  5
A39
330
BE8
100
AcDbEntity
  8
2
100
AcDbLine
 10
164.6556740799117
 20
147.4106442042321
 30
0.0
 11
163.6556740799118
 21
148.4106442042324
 31
0.0
  0
LINE
  5
A3A
330
BE8
100
AcDbEntity
  8
2
100
AcDbLine
 10
164.6556740799117
 20
133.4106442042324
 30
0.0
 11
163.6556740799118
 21
132.4106442042322
 31
0.0
  0
LINE
  5
A3B
330
BE8
100
AcDbEntity
  8
2
100
AcDbLine
 10
164.6556740799117
 20
133.4106442042324
 30
0.0
 11
164.6556740799117
 21
147.4106442042321
 31
0.0
  0
LINE
  5
A3C
330
BE8
100
AcDbEntity
  8
2
100
AcDbLine
 10
126.507885400438
 20
132.2487458537225
 30
0.0
 11
124.5036171025571
 21
134.2530141516034
 31
0.0
  0
LINE
  5
A3D
330
BE8
100
AcDbEntity
  8
2
100
AcDbLine
 10
126.8265342842173
 20
132.466083910081
 30
0.0
 11
124.8433970375975
 21
134.4492211567007
 31
0.0
  0
LINE
  5
A3E
330
BE8
100
AcDbEntity
  8
2
100
AcDbLine
 10
129.336312525193
 20
135.0771729784779
 30
0.0
 11
127.3320442273124
 21
137.0814412763585
 31
0.0
  0
LINE
  5
A3F
330
BE8
100
AcDbEntity
  8
2
100
AcDbLine
 10
129.118974468835
 20
134.7585240946984
 30
0.0
 11
127.1358372222152
 21
136.7416613413181
 31
0.0
  0
LINE
  5
A40
330
BE8
100
AcDbEntity
  8
0
100
AcDbLine
 10
125.275633505561
 20
134.0013171507936
 30
0.0
 11
125.275633505561
 21
134.612368598498
 31
0.0
  0
LINE
  5
A41
330
BE8
100
AcDbEntity
  8
3
100
AcDbLine
 10
125.285338775839
 20
134.0072794184592
 30
0.0
 11
125.275633505561
 21
134.0169846887374
 31
0.0
  0
LINE
  5
A42
330
BE8
100
AcDbEntity
  8
2
100
AcDbLine
 10
127.5837412281223
 20
136.3094248733548
 30
0.0
 11
128.1040606303161
 21
136.3094248733548
 31
0.0
  0
LINE
  5
A43
330
BE8
100
AcDbEntity
  8
3
100
AcDbLine
 10
127.5777789604567
 20
136.2997196030766
 30
0.0
 11
127.5680736901784
 21
136.3094248733551
 31
0.0
  0
LINE
  5
A44
330
BE8
100
AcDbEntity
  8
3
100
AcDbLine
 10
127.3070210049145
 20
131.9855971893836
 30
0.0
 11
126.8265342842173
 21
132.466083910081
 31
0.0
  0
LINE
  5
A45
330
BE8
100
AcDbEntity
  8
3
100
AcDbLine
 10
129.5994611895321
 20
134.2780373740013
 30
0.0
 11
129.1189744688344
 21
134.7585240946989
 31
0.0
  0
LINE
  5
A46
330
BE8
100
AcDbEntity
  8
0
100
AcDbLine
 10
126.8843014327605
 20
131.8723298214002
 30
0.0
 11
127.4638569285339
 21
132.0276212484617
 31
0.0
  0
LINE
  5
A47
330
BE8
100
AcDbEntity
  8
0
100
AcDbLine
 10
129.7127285575157
 20
134.7007569461553
 30
0.0
 11
129.5574371304542
 21
134.1212014503819
 31
0.0
  0
LINE
  5
A48
330
BE8
100
AcDbEntity
  8
0
100
AcDbLine
 10
126.8843014327605
 20
131.8723298214002
 30
0.0
 11
129.7127285575156
 21
134.7007569461553
 31
0.0
  0
LINE
  5
A49
330
BE8
100
AcDbEntity
  8
2
100
AcDbLine
 10
125.275633505561
 20
133.4809977485997
 30
0.0
 11
125.275633505561
 21
134.0013171507933
 31
0.0
  0
LINE
  5
A4A
330
BE8
100
AcDbEntity
  8
0
100
AcDbLine
 10
126.9726897804176
 20
136.3094248733548
 30
0.0
 11
127.5837412281223
 21
136.3094248733548
 31
0.0
  0
LINE
  5
A4B
330
BE8
100
AcDbEntity
  8
2
100
AcDbLine
 10
125.275633505561
 20
133.4809977485997
 30
0.0
 11
128.1040606303162
 21
136.3094248733548
 31
0.0
  0
LINE
  5
A4C
330
BE8
100
AcDbEntity
  8
0
100
AcDbLine
 10
125.275633505561
 20
134.612368598498
 30
0.0
 11
126.9726897804176
 21
136.3094248733548
 31
0.0
  0
LINE
  5
A4D
330
BE8
100
AcDbEntity
  8
0
100
AcDbLine
 10
126.8843014327605
 20
131.8723298214002
 30
0.0
 11
126.5078854004377
 21
132.2487458537228
 31
0.0
  0
LINE
  5
A4E
330
BE8
100
AcDbEntity
  8
0
100
AcDbLine
 10
129.7127285575156
 20
134.7007569461553
 30
0.0
 11
129.3363125251929
 21
135.0771729784779
 31
0.0
  0
LINE
  5
A4F
330
BE8
100
AcDbEntity
  8
0
100
AcDbLine
 10
127.463856928534
 20
132.0276212484617
 30
0.0
 11
129.5574371304542
 21
134.1212014503819
 31
0.0
  0
LINE
  5
A50
330
BE8
100
AcDbEntity
  8
0
100
AcDbLine
 10
185.6556740799118
 20
170.9106442042324
 30
0.0
 11
172.4716337932605
 21
166.1120459725245
 31
0.0
  0
LINE
  5
A51
330
BE8
100
AcDbEntity
  8
0
100
AcDbLine
 10
199.6556740799117
 20
159.9106442042321
 30
0.0
 11
199.1556740799117
 21
159.4106442042323
 31
0.0
  0
LINE
  5
A52
330
BE8
100
AcDbEntity
  8
0
100
AcDbLine
 10
199.1556740799117
 20
165.4106442042323
 30
0.0
 11
199.6556740799117
 21
164.9106442042322
 31
0.0
  0
LINE
  5
A53
330
BE8
100
AcDbEntity
  8
0
100
AcDbLine
 10
199.1556740799117
 20
165.4106442042323
 30
0.0
 11
199.1556740799117
 21
159.4106442042323
 31
0.0
  0
LINE
  5
A54
330
BE8
100
AcDbEntity
  8
1
100
AcDbLine
 10
204.6556740799117
 20
162.4106442042322
 30
0.0
 11
189.6556740799117
 21
162.4106442042322
 31
0.0
  0
LINE
  5
A55
330
BE8
100
AcDbEntity
  8
0
100
AcDbLine
 10
163.6556740799118
 20
130.5606442042321
 30
0.0
 11
163.6556740799118
 21
150.3106442042324
 31
0.0
  0
LINE
  5
A56
330
BE8
100
AcDbEntity
  8
2
100
AcDbLine
 10
164.6556740799117
 20
147.4106442042321
 30
0.0
 11
194.6556740799117
 21
147.4106442042321
 31
0.0
  0
LINE
  5
A57
330
BE8
100
AcDbEntity
  8
2
100
AcDbLine
 10
164.6556740799117
 20
133.4106442042324
 30
0.0
 11
194.6556740799117
 21
133.4106442042324
 31
0.0
  0
LINE
  5
A58
330
BE8
100
AcDbEntity
  8
0
100
AcDbLine
 10
170.6556740799118
 20
153.9106442042322
 30
0.0
 11
171.1556740799118
 21
153.9106442042322
 31
0.0
  0
LINE
  5
A59
330
BE8
100
AcDbEntity
  8
0
100
AcDbLine
 10
170.6556740799118
 20
126.9106442042323
 30
0.0
 11
171.1556740799118
 21
126.9106442042323
 31
0.0
  0
LINE
  5
A5A
330
BE8
100
AcDbEntity
  8
0
100
AcDbLine
 10
171.1556740799118
 20
125.9106442042324
 30
0.0
 11
171.1556740799118
 21
164.2326607309528
 31
0.0
  0
LINE
  5
A5B
330
BE8
100
AcDbEntity
  8
1
100
AcDbLine
 10
199.6556740799117
 20
140.4106442042323
 30
0.0
 11
158.6556740799118
 21
140.4106442042323
 31
0.0
  0
LINE
  5
A5C
330
BE8
100
AcDbEntity
  8
0
100
AcDbLine
 10
199.6556740799117
 20
164.9106442042322
 30
0.0
 11
199.6556740799117
 21
159.9106442042321
 31
0.0
  0
LINE
  5
A5D
330
BE8
100
AcDbEntity
  8
0
100
AcDbLine
 10
199.1556740799117
 20
159.4106442042323
 30
0.0
 11
194.6556740799117
 21
159.4106442042323
 31
0.0
  0
LINE
  5
A5E
330
BE8
100
AcDbEntity
  8
0
100
AcDbLine
 10
199.1556740799117
 20
165.4106442042323
 30
0.0
 11
194.6556740799117
 21
165.4106442042323
 31
0.0
  0
ARC
  5
A5F
330
BE8
100
AcDbEntity
  8
0
100
AcDbCircle
 10
132.1744141746836
 20
162.4106442042322
 30
0.0
 40
0.5
100
AcDbArc
 50
0.0
 51
89.99999999999992
  0
ARC
  5
A60
330
BE8
100
AcDbEntity
  8
0
100
AcDbCircle
 10
132.1744141746836
 20
154.4106442042323
 30
0.0
 40
0.5
100
AcDbArc
 50
269.9999999999999
 51
0.0
  0
ARC
  5
A61
330
BE8
100
AcDbEntity
  8
0
100
AcDbCircle
 10
110.1744141746836
 20
154.4106442042323
 30
0.0
 40
0.5
100
AcDbArc
 50
180.0000000000001
 51
269.9999999999998
  0
ARC
  5
A62
330
BE8
100
AcDbEntity
  8
0
100
AcDbCircle
 10
110.1744141746836
 20
162.4106442042322
 30
0.0
 40
0.5
100
AcDbArc
 50
89.99999999999991
 51
180.0
  0
LINE
  5
A63
330
BE8
100
AcDbEntity
  8
0
100
AcDbLine
 10
109.6744141746836
 20
154.4106442042323
 30
0.0
 11
109.6744141746835
 21
162.4106442042322
 31
0.0
  0
LINE
  5
A64
330
BE8
100
AcDbEntity
  8
0
100
AcDbLine
 10
132.6744141746836
 20
154.4106442042323
 30
0.0
 11
132.6744141746836
 21
162.4106442042322
 31
0.0
  0
LINE
  5
A65
330
BE8
100
AcDbEntity
  8
0
100
AcDbLine
 10
110.1744141746836
 20
162.9106442042323
 30
0.0
 11
132.1744141746836
 21
162.9106442042323
 31
0.0
  0
LINE
  5
A66
330
BE8
100
AcDbEntity
  8
0
100
AcDbLine
 10
110.1744141746836
 20
153.9106442042322
 30
0.0
 11
132.1744141746836
 21
153.9106442042322
 31
0.0
  0
LINE
  5
A67
330
BE8
100
AcDbEntity
  8
0
100
AcDbLine
 10
191.6556740799117
 20
170.9106442042324
 30
0.0
 11
191.6556740799117
 21
123.9106442042322
 31
0.0
  0
CIRCLE
  5
A68
330
BE8
100
AcDbEntity
  8
0
100
AcDbCircle
 10
121.1744141746835
 20
140.4106442042323
 30
0.0
 40
7.0
  0
LINE
  5
A69
330
BE8
100
AcDbEntity
  8
0
100
AcDbLine
 10
104.6744141746836
 20
128.3178255058343
 30
0.0
 11
104.6744141746836
 21
166.5034629026303
 31
0.0
  0
LINE
  5
A6A
330
BE8
100
AcDbEntity
  8
0
100
AcDbLine
 10
137.6744141746836
 20
166.5034638563046
 30
0.0
 11
137.6744141746836
 21
128.3178255058343
 31
0.0
  0
LINE
  5
A6B
330
BE8
100
AcDbEntity
  8
0
100
AcDbLine
 10
194.6556740799117
 20
123.9106442042322
 30
0.0
 11
173.1556740799118
 21
123.9106442042322
 31
0.0
  0
LINE
  5
A6C
330
BE8
100
AcDbEntity
  8
0
100
AcDbLine
 10
194.6556740799117
 20
170.9106442042324
 30
0.0
 11
194.6556740799117
 21
123.9106442042322
 31
0.0
  0
LINE
  5
A6D
330
BE8
100
AcDbEntity
  8
0
100
AcDbLine
 10
185.6556740799118
 20
170.9106442042324
 30
0.0
 11
194.6556740799117
 21
170.9106442042324
 31
0.0
  0
LINE
  5
A6E
330
BE8
100
AcDbEntity
  8
0
100
AcDbLine
 10
170.6556740799118
 20
126.9106442042323
 30
0.0
 11
170.6556740799118
 21
153.9106442042322
 31
0.0
  0
LINE
  5
A6F
330
BE8
100
AcDbEntity
  8
0
100
AcDbLine
 10
268.6631778239793
 20
166.5034629026303
 30
0.0
 11
268.6631778239793
 21
128.3178255058343
 31
0.0
  0
LINE
  5
A70
330
BE8
100
AcDbEntity
  8
0
100
AcDbLine
 10
235.6631778239794
 20
128.3178255058343
 30
0.0
 11
235.6631778239794
 21
166.5034629026303
 31
0.0
  0
LINE
  5
A71
330
BE8
100
AcDbEntity
  8
1
100
AcDbLine
 10
252.1631778239793
 20
173.9106442042322
 30
0.0
 11
252.1631778239793
 21
118.9106442042322
 31
0.0
  0
LINE
  5
A72
330
BE8
100
AcDbEntity
  8
1
100
AcDbLine
 10
230.6631778239793
 20
140.4106442042323
 30
0.0
 11
273.6631778239793
 21
140.4106442042323
 31
0.0
  0
ARC
  5
A73
330
BE8
100
AcDbEntity
  8
0
100
AcDbCircle
 10
252.1631778239793
 20
170.7856442042322
 30
0.0
 40
46.87500000000002
100
AcDbArc
 50
251.1482988939641
 51
288.8517011060359
  0
ARC
  5
A74
330
BE8
100
AcDbEntity
  8
0
100
AcDbCircle
 10
252.1631778239793
 20
124.0356442042324
 30
0.0
 40
46.87500000000002
100
AcDbArc
 50
71.1482986181751
 51
108.8517011060358
  0
ARC
  5
A75
330
BE8
100
AcDbEntity
  8
0
100
AcDbCircle
 10
266.6631778239793
 20
166.5034629026303
 30
0.0
 40
2.0
100
AcDbArc
 50
0.0
 51
71.14829889396424
  0
ARC
  5
A76
330
BE8
100
AcDbEntity
  8
0
100
AcDbCircle
 10
237.6631778239794
 20
166.5034629026303
 30
0.0
 40
2.0
100
AcDbArc
 50
108.8517011060356
 51
180.0
  0
ARC
  5
A77
330
BE8
100
AcDbEntity
  8
0
100
AcDbCircle
 10
237.6631778239794
 20
128.3178255058343
 30
0.0
 40
2.0
100
AcDbArc
 50
180.0000000000002
 51
251.1482988939637
  0
ARC
  5
A78
330
BE8
100
AcDbEntity
  8
0
100
AcDbCircle
 10
266.6631778239793
 20
128.3178255058343
 30
0.0
 40
2.0
100
AcDbArc
 50
288.8517011060364
 51
0.0
  0
LINE
  5
A79
330
BE8
100
AcDbEntity
  8
0
100
AcDbLine
 10
163.6556740799118
 20
75.92725920416421
 30
0.0
 11
163.6556740799118
 21
95.72725920416411
 31
0.0
  0
LINE
  5
A7A
330
BE8
100
AcDbEntity
  8
0
100
AcDbLine
 10
163.6556740799118
 20
75.92725920416421
 30
0.0
 11
170.6556740799118
 21
75.92725920416421
 31
0.0
  0
LINE
  5
A7B
330
BE8
100
AcDbEntity
  8
0
100
AcDbLine
 10
163.6556740799118
 20
95.72725920416411
 30
0.0
 11
170.6556740799118
 21
95.72725920416411
 31
0.0
  0
LINE
  5
A7C
330
BE8
100
AcDbEntity
  8
0
100
AcDbLine
 10
170.6556740799118
 20
99.32725920416425
 30
0.0
 11
171.1556740799118
 21
99.32725920416425
 31
0.0
  0
LINE
  5
A7D
330
BE8
100
AcDbEntity
  8
0
100
AcDbLine
 10
170.6556740799118
 20
72.32725920416408
 30
0.0
 11
171.1556740799118
 21
72.32725920416408
 31
0.0
  0
LINE
  5
A7E
330
BE8
100
AcDbEntity
  8
0
100
AcDbLine
 10
171.1556740799118
 20
71.32725920416413
 30
0.0
 11
171.1556740799118
 21
100.3272592041641
 31
0.0
  0
LINE
  5
A7F
330
BE8
100
AcDbEntity
  8
1
100
AcDbLine
 10
201.6556740799118
 20
85.82725920416402
 30
0.0
 11
158.6556740799118
 21
85.82725920416402
 31
0.0
  0
LINE
  5
A80
330
BE8
100
AcDbEntity
  8
0
100
AcDbLine
 10
191.6556740799117
 20
102.327259204164
 30
0.0
 11
191.6556740799117
 21
69.32725920416425
 31
0.0
  0
LINE
  5
A81
330
BE8
100
AcDbEntity
  8
0
100
AcDbLine
 10
194.6556740799117
 20
69.32725920416425
 30
0.0
 11
173.1556740799118
 21
69.32725920416396
 31
0.0
  0
LINE
  5
A82
330
BE8
100
AcDbEntity
  8
0
100
AcDbLine
 10
194.6556740799117
 20
102.327259204164
 30
0.0
 11
194.6556740799117
 21
69.32725920416425
 31
0.0
  0
LINE
  5
A83
330
BE8
100
AcDbEntity
  8
0
100
AcDbLine
 10
170.6556740799118
 20
72.32725920416408
 30
0.0
 11
170.6556740799118
 21
99.32725920416425
 31
0.0
  0
LINE
  5
A84
330
BE8
100
AcDbEntity
  8
0
100
AcDbLine
 10
194.6556740799117
 20
102.327259204164
 30
0.0
 11
173.1556740799118
 21
102.327259204164
 31
0.0
  0
ARC
  5
A85
330
BE8
100
AcDbEntity
  8
0
100
AcDbCircle
 10
173.1556740799118
 20
100.3272592041641
 30
0.0
 40
2.0
100
AcDbArc
 50
90.0
 51
179.9999999999999
  0
ARC
  5
A86
330
BE8
100
AcDbEntity
  8
0
100
AcDbCircle
 10
173.1556740799118
 20
71.32725920416413
 30
0.0
 40
2.0
100
AcDbArc
 50
180.0
 51
269.9999999999999
  0
CIRCLE
  5
A87
330
BE8
100
AcDbEntity
  8
0
100
AcDbCircle
 10
252.1631778239793
 20
162.4106442042322
 30
0.0
 40
3.0
  0
CIRCLE
  5
A88
330
BE8
100
AcDbEntity
  8
0
100
AcDbCircle
 10
252.1631778239793
 20
162.4106442042322
 30
0.0
 40
1.500000000000028
  0
CIRCLE
  5
A89
330
BE8
100
AcDbEntity
  8
0
100
AcDbCircle
 10
252.1631778239793
 20
162.4106442042322
 30
0.0
 40
2.499999999999971
  0
CIRCLE
  5
A8A
330
BE8
100
AcDbEntity
  8
0
100
AcDbCircle
 10
252.1631778239793
 20
140.4106442042323
 30
0.0
 40
7.000000000000015
  0
LINE
  5
A8B
330
BE8
100
AcDbEntity
  8
1
100
AcDbLine
 10
244.1631778239794
 20
162.4106442042322
 30
0.0
 11
260.1631778239792
 21
162.4106442042322
 31
0.0
  0
LINE
  5
A8C
330
BE8
100
AcDbEntity
  8
5
  6
PHA-05
100
AcDbLine
 10
196.6556740799117
 20
233.042646395545
 30
0.0
 11
196.6556740799117
 21
200.0426463955451
 31
0.0
  0
LINE
  5
A8D
330
BE8
100
AcDbEntity
  8
5
  6
PHA-05
100
AcDbLine
 10
194.6556740799117
 20
233.042646395545
 30
0.0
 11
196.6556740799117
 21
233.042646395545
 31
0.0
  0
LINE
  5
A8E
330
BE8
100
AcDbEntity
  8
5
  6
PHA-05
100
AcDbLine
 10
194.6556740799117
 20
200.0426463955451
 30
0.0
 11
196.6556740799117
 21
200.0426463955451
 31
0.0
  0
LINE
  5
A8F
330
BE8
100
AcDbEntity
  8
5
  6
PHA-05
100
AcDbLine
 10
194.6556740799117
 20
102.327259204164
 30
0.0
 11
196.6556740799117
 21
102.327259204164
 31
0.0
  0
LINE
  5
A90
330
BE8
100
AcDbEntity
  8
5
  6
PHA-05
100
AcDbLine
 10
196.6556740799117
 20
102.327259204164
 30
0.0
 11
196.6556740799117
 21
69.32725920416425
 31
0.0
  0
LINE
  5
A91
330
BE8
100
AcDbEntity
  8
5
  6
PHA-05
100
AcDbLine
 10
194.6556740799117
 20
69.32725920416425
 30
0.0
 11
196.6556740799117
 21
69.32725920416425
 31
0.0
  0
POLYLINE
  5
A92
330
BE8
100
AcDbEntity
  8
3
100
AcDb2dPolyline
 66
     1
 10
0.0
 20
0.0
 30
0.0
 70
     3
  0
VERTEX
  5
A93
330
A92
100
AcDbEntity
  8
3
100
AcDbVertex
100
AcDb2dVertex
 10
167.1556740799116
 20
91.9598660343953
 30
0.0
 42
0.0373148062972218
  0
VERTEX
  5
A94
330
A92
100
AcDbEntity
  8
3
100
AcDbVertex
100
AcDb2dVertex
 10
167.4811576712106
 20
91.98419061814286
 30
0.0
 42
0.0377933998216735
 70
     1
  0
VERTEX
  5
A95
330
A92
100
AcDbEntity
  8
3
100
AcDbVertex
100
AcDb2dVertex
 10
167.7953227988807
 20
92.05600960222421
 30
0.0
 42
0.0420865432184959
  0
VERTEX
  5
A96
330
A92
100
AcDbEntity
  8
3
100
AcDbVertex
100
AcDb2dVertex
 10
168.060917252762
 20
92.16345352275277
 30
0.0
 42
0.0425653189133304
 70
     1
  0
VERTEX
  5
A97
330
A92
100
AcDbEntity
  8
3
100
AcDbVertex
100
AcDb2dVertex
 10
168.301894172215
 20
92.31239993498201
 30
0.0
 42
0.052955760440357
 70
     2
 50
36.59465022882245
  0
VERTEX
  5
A98
330
A92
100
AcDbEntity
  8
3
100
AcDbVertex
100
AcDb2dVertex
 10
168.5089129637387
 20
92.50314572180878
 30
0.0
 42
0.0557248161469618
 70
     1
 50
36.59465022882245
  0
VERTEX
  5
A99
330
A92
100
AcDbEntity
  8
3
100
AcDbVertex
100
AcDb2dVertex
 10
168.6620174758059
 20
92.72260680679773
 30
0.0
 42
0.0609203524848806
 50
36.59465022882245
  0
VERTEX
  5
A9A
330
A92
100
AcDbEntity
  8
3
100
AcDbVertex
100
AcDb2dVertex
 10
168.7481940327511
 20
92.94082261195734
 30
0.0
 42
0.0636919735929359
 70
     1
 50
36.59465022882245
  0
VERTEX
  5
A9B
330
A92
100
AcDbEntity
  8
3
100
AcDbVertex
100
AcDb2dVertex
 10
168.7766740799115
 20
93.16349205897461
 30
0.0
 42
0.0636919735929868
  0
VERTEX
  5
A9C
330
A92
100
AcDbEntity
  8
3
100
AcDbVertex
100
AcDb2dVertex
 10
168.7481940327511
 20
93.38616150599188
 30
0.0
 42
0.0609203524849037
 70
     1
  0
VERTEX
  5
A9D
330
A92
100
AcDbEntity
  8
3
100
AcDbVertex
100
AcDb2dVertex
 10
168.6620174758059
 20
93.60437731115149
 30
0.0
 42
0.055724816146916
  0
VERTEX
  5
A9E
330
A92
100
AcDbEntity
  8
3
100
AcDbVertex
100
AcDb2dVertex
 10
168.5089129637387
 20
93.82383839614073
 30
0.0
 42
0.0529557604403008
 70
     1
  0
VERTEX
  5
A9F
330
A92
100
AcDbEntity
  8
3
100
AcDbVertex
100
AcDb2dVertex
 10
168.301894172215
 20
94.01458418296749
 30
0.0
 42
0.0425653189134075
 70
     2
 50
143.4053497711774
  0
VERTEX
  5
AA0
330
A92
100
AcDbEntity
  8
3
100
AcDbVertex
100
AcDb2dVertex
 10
168.060917252762
 20
94.16353059519645
 30
0.0
 42
0.0420865432185627
 70
     1
 50
143.4053497711774
  0
VERTEX
  5
AA1
330
A92
100
AcDbEntity
  8
3
100
AcDbVertex
100
AcDb2dVertex
 10
167.7953227988807
 20
94.2709745157253
 30
0.0
 42
0.0377933998216512
 50
143.4053497711774
  0
VERTEX
  5
AA2
330
A92
100
AcDbEntity
  8
3
100
AcDbVertex
100
AcDb2dVertex
 10
167.4811576712106
 20
94.34279349980664
 30
0.0
 42
0.0373148062971968
 70
     1
 50
143.4053497711774
  0
VERTEX
  5
AA3
330
A92
100
AcDbEntity
  8
3
100
AcDbVertex
100
AcDb2dVertex
 10
167.1556740799116
 20
94.3671180835542
 30
0.0
 42
0.0373148062972256
  0
VERTEX
  5
AA4
330
A92
100
AcDbEntity
  8
3
100
AcDbVertex
100
AcDb2dVertex
 10
166.8301904886125
 20
94.34279349980664
 30
0.0
 42
0.0377933998216743
 70
     1
  0
VERTEX
  5
AA5
330
A92
100
AcDbEntity
  8
3
100
AcDbVertex
100
AcDb2dVertex
 10
166.5160253609424
 20
94.2709745157253
 30
0.0
 42
0.0420865432185111
  0
VERTEX
  5
AA6
330
A92
100
AcDbEntity
  8
3
100
AcDbVertex
100
AcDb2dVertex
 10
166.2504309070611
 20
94.16353059519645
 30
0.0
 42
0.0425653189133355
 70
     1
  0
VERTEX
  5
AA7
330
A92
100
AcDbEntity
  8
3
100
AcDbVertex
100
AcDb2dVertex
 10
166.0094539876083
 20
94.01458418296749
 30
0.0
 42
0.0529557604403212
 70
     2
 50
216.5946502288224
  0
VERTEX
  5
AA8
330
A92
100
AcDbEntity
  8
3
100
AcDbVertex
100
AcDb2dVertex
 10
165.8024351960844
 20
93.82383839614044
 30
0.0
 42
0.0557248161469175
 70
     1
 50
216.5946502288224
  0
VERTEX
  5
AA9
330
A92
100
AcDbEntity
  8
3
100
AcDbVertex
100
AcDb2dVertex
 10
165.6493306840173
 20
93.60437731115149
 30
0.0
 42
0.0609203524849108
 50
216.5946502288224
  0
VERTEX
  5
AAA
330
A92
100
AcDbEntity
  8
3
100
AcDbVertex
100
AcDb2dVertex
 10
165.5631541270721
 20
93.38616150599188
 30
0.0
 42
0.0636919735929914
 70
     1
 50
216.5946502288224
  0
VERTEX
  5
AAB
330
A92
100
AcDbEntity
  8
3
100
AcDbVertex
100
AcDb2dVertex
 10
165.5346740799116
 20
93.16349205897461
 30
0.0
 42
0.0636919735930097
  0
VERTEX
  5
AAC
330
A92
100
AcDbEntity
  8
3
100
AcDbVertex
100
AcDb2dVertex
 10
165.5631541270721
 20
92.94082261195734
 30
0.0
 42
0.06092035248494
 70
     1
  0
VERTEX
  5
AAD
330
A92
100
AcDbEntity
  8
3
100
AcDbVertex
100
AcDb2dVertex
 10
165.6493306840174
 20
92.72260680679773
 30
0.0
 42
0.0557248161470117
  0
VERTEX
  5
AAE
330
A92
100
AcDbEntity
  8
3
100
AcDbVertex
100
AcDb2dVertex
 10
165.8024351960846
 20
92.50314572180878
 30
0.0
 42
0.0529557604404254
 70
     1
  0
VERTEX
  5
AAF
330
A92
100
AcDbEntity
  8
3
100
AcDbVertex
100
AcDb2dVertex
 10
166.0094539876083
 20
92.31239993498201
 30
0.0
 42
0.042565318913386
 70
     2
 50
323.4053497711775
  0
VERTEX
  5
AB0
330
A92
100
AcDbEntity
  8
3
100
AcDbVertex
100
AcDb2dVertex
 10
166.2504309070611
 20
92.16345352275277
 30
0.0
 42
0.0420865432185345
 70
     1
 50
323.4053497711775
  0
VERTEX
  5
AB1
330
A92
100
AcDbEntity
  8
3
100
AcDbVertex
100
AcDb2dVertex
 10
166.5160253609424
 20
92.05600960222421
 30
0.0
 42
0.037793399821669
 50
323.4053497711775
  0
VERTEX
  5
AB2
330
A92
100
AcDbEntity
  8
3
100
AcDbVertex
100
AcDb2dVertex
 10
166.8301904886125
 20
91.98419061814286
 30
0.0
 42
0.0373148062972299
 70
     1
 50
323.4053497711775
  0
SEQEND
  5
AB3
330
A92
100
AcDbEntity
  8
3
  0
POLYLINE
  5
AB4
330
BE8
100
AcDbEntity
  8
0
100
AcDb2dPolyline
 66
     1
 10
0.0
 20
0.0
 30
0.0
 70
     3
  0
VERTEX
  5
AB5
330
AB4
100
AcDbEntity
  8
0
100
AcDbVertex
100
AcDb2dVertex
 10
167.1556740799116
 20
91.53714646224097
 30
0.0
 42
0.0406338080844187
  0
VERTEX
  5
AB6
330
AB4
100
AcDbEntity
  8
0
100
AcDbVertex
100
AcDb2dVertex
 10
167.5547092335459
 20
91.56962872962276
 30
0.0
 42
0.0411248513730434
 70
     1
  0
VERTEX
  5
AB7
330
AB4
100
AcDbEntity
  8
0
100
AcDbVertex
100
AcDb2dVertex
 10
167.9385199997847
 20
91.66544709706466
 30
0.0
 42
0.0442674013096862
  0
VERTEX
  5
AB8
330
AB4
100
AcDbEntity
  8
0
100
AcDbVertex
100
AcDb2dVertex
 10
168.2714753121303
 20
91.81227454413397
 30
0.0
 42
0.0447585967086941
 70
     1
  0
VERTEX
  5
AB9
330
AB4
100
AcDbEntity
  8
0
100
AcDbVertex
100
AcDb2dVertex
 10
168.5698876422849
 20
92.01349205897139
 30
0.0
 42
0.0521661944945309
 70
     2
 50
39.1170710482602
  0
VERTEX
  5
ABA
330
AB4
100
AcDbEntity
  8
0
100
AcDbVertex
100
AcDb2dVertex
 10
168.8225327494045
 20
92.26692737235504
 30
0.0
 42
0.0537676003291167
 70
     1
 50
39.1170710482602
  0
VERTEX
  5
ABB
330
AB4
100
AcDbEntity
  8
0
100
AcDbVertex
100
AcDb2dVertex
 10
169.0105551560138
 20
92.55887393160515
 30
0.0
 42
0.0573562253947843
 50
39.1170710482602
  0
VERTEX
  5
ABC
330
AB4
100
AcDbEntity
  8
0
100
AcDbVertex
100
AcDb2dVertex
 10
169.1193965925558
 20
92.8569090327195
 30
0.0
 42
0.0589585523189861
 70
     1
 50
39.1170710482602
  0
VERTEX
  5
ABD
330
AB4
100
AcDbEntity
  8
0
100
AcDbVertex
100
AcDb2dVertex
 10
169.1556740799119
 20
93.16349205897461
 30
0.0
 42
0.0589585523190104
  0
VERTEX
  5
ABE
330
AB4
100
AcDbEntity
  8
0
100
AcDbVertex
100
AcDb2dVertex
 10
169.1193965925558
 20
93.47007508523001
 30
0.0
 42
0.0573562253947993
 70
     1
  0
VERTEX
  5
ABF
330
AB4
100
AcDbEntity
  8
0
100
AcDbVertex
100
AcDb2dVertex
 10
169.0105551560138
 20
93.76811018634436
 30
0.0
 42
0.0537676003291976
  0
VERTEX
  5
AC0
330
AB4
100
AcDbEntity
  8
0
100
AcDbVertex
100
AcDb2dVertex
 10
168.8225327494045
 20
94.06005674559446
 30
0.0
 42
0.0521661944945677
 70
     1
  0
VERTEX
  5
AC1
330
AB4
100
AcDbEntity
  8
0
100
AcDbVertex
100
AcDb2dVertex
 10
168.5698876422849
 20
94.31349205897783
 30
0.0
 42
0.0447585967087224
 70
     2
 50
140.8829289517407
  0
VERTEX
  5
AC2
330
AB4
100
AcDbEntity
  8
0
100
AcDbVertex
100
AcDb2dVertex
 10
168.2714753121301
 20
94.51470957381554
 30
0.0
 42
0.0442674013096812
 70
     1
 50
140.8829289517407
  0
VERTEX
  5
AC3
330
AB4
100
AcDbEntity
  8
0
100
AcDbVertex
100
AcDb2dVertex
 10
167.9385199997847
 20
94.66153702088456
 30
0.0
 42
0.0411248513730362
 50
140.8829289517407
  0
VERTEX
  5
AC4
330
AB4
100
AcDbEntity
  8
0
100
AcDbVertex
100
AcDb2dVertex
 10
167.5547092335459
 20
94.75735538832674
 30
0.0
 42
0.0406338080844276
 70
     1
 50
140.8829289517407
  0
VERTEX
  5
AC5
330
AB4
100
AcDbEntity
  8
0
100
AcDbVertex
100
AcDb2dVertex
 10
167.1556740799116
 20
94.78983765570825
 30
0.0
 42
0.0406338080844449
  0
VERTEX
  5
AC6
330
AB4
100
AcDbEntity
  8
0
100
AcDbVertex
100
AcDb2dVertex
 10
166.7566389262772
 20
94.75735538832674
 30
0.0
 42
0.0411248513730652
 70
     1
  0
VERTEX
  5
AC7
330
AB4
100
AcDbEntity
  8
0
100
AcDbVertex
100
AcDb2dVertex
 10
166.3728281600384
 20
94.66153702088456
 30
0.0
 42
0.0442674013096709
  0
VERTEX
  5
AC8
330
AB4
100
AcDbEntity
  8
0
100
AcDbVertex
100
AcDb2dVertex
 10
166.039872847693
 20
94.51470957381554
 30
0.0
 42
0.0447585967086949
 70
     1
  0
VERTEX
  5
AC9
330
AB4
100
AcDbEntity
  8
0
100
AcDbVertex
100
AcDb2dVertex
 10
165.7414605175383
 20
94.31349205897783
 30
0.0
 42
0.0521661944945169
 70
     2
 50
219.1170710482602
  0
VERTEX
  5
ACA
330
AB4
100
AcDbEntity
  8
0
100
AcDbVertex
100
AcDb2dVertex
 10
165.4888154104186
 20
94.06005674559446
 30
0.0
 42
0.0537676003291321
 70
     1
 50
219.1170710482602
  0
VERTEX
  5
ACB
330
AB4
100
AcDbEntity
  8
0
100
AcDbVertex
100
AcDb2dVertex
 10
165.3007930038093
 20
93.76811018634436
 30
0.0
 42
0.0573562253948128
 50
219.1170710482602
  0
VERTEX
  5
ACC
330
AB4
100
AcDbEntity
  8
0
100
AcDbVertex
100
AcDb2dVertex
 10
165.1919515672675
 20
93.47007508523001
 30
0.0
 42
0.0589585523190536
 70
     1
 50
219.1170710482602
  0
VERTEX
  5
ACD
330
AB4
100
AcDbEntity
  8
0
100
AcDbVertex
100
AcDb2dVertex
 10
165.1556740799114
 20
93.16349205897461
 30
0.0
 42
0.0589585523190708
  0
VERTEX
  5
ACE
330
AB4
100
AcDbEntity
  8
0
100
AcDbVertex
100
AcDb2dVertex
 10
165.1919515672675
 20
92.8569090327195
 30
0.0
 42
0.0573562253948245
 70
     1
  0
VERTEX
  5
ACF
330
AB4
100
AcDbEntity
  8
0
100
AcDbVertex
100
AcDb2dVertex
 10
165.3007930038093
 20
92.55887393160515
 30
0.0
 42
0.0537676003291127
  0
VERTEX
  5
AD0
330
AB4
100
AcDbEntity
  8
0
100
AcDbVertex
100
AcDb2dVertex
 10
165.4888154104186
 20
92.26692737235476
 30
0.0
 42
0.0521661944944973
 70
     1
  0
VERTEX
  5
AD1
330
AB4
100
AcDbEntity
  8
0
100
AcDbVertex
100
AcDb2dVertex
 10
165.7414605175383
 20
92.01349205897139
 30
0.0
 42
0.0447585967086944
 70
     2
 50
320.8829289517407
  0
VERTEX
  5
AD2
330
AB4
100
AcDbEntity
  8
0
100
AcDbVertex
100
AcDb2dVertex
 10
166.039872847693
 20
91.81227454413397
 30
0.0
 42
0.0442674013096755
 70
     1
 50
320.8829289517407
  0
VERTEX
  5
AD3
330
AB4
100
AcDbEntity
  8
0
100
AcDbVertex
100
AcDb2dVertex
 10
166.3728281600386
 20
91.66544709706466
 30
0.0
 42
0.0411248513730527
 50
320.8829289517407
  0
VERTEX
  5
AD4
330
AB4
100
AcDbEntity
  8
0
100
AcDbVertex
100
AcDb2dVertex
 10
166.7566389262772
 20
91.56962872962276
 30
0.0
 42
0.0406338080844375
 70
     1
 50
320.8829289517407
  0
SEQEND
  5
AD5
330
AB4
100
AcDbEntity
  8
0
  0
POLYLINE
  5
AD6
330
BE8
100
AcDbEntity
  8
0
100
AcDb2dPolyline
 66
     1
 10
0.0
 20
0.0
 30
0.0
  0
VERTEX
  5
AD7
330
AD6
100
AcDbEntity
  8
0
100
AcDbVertex
100
AcDb2dVertex
 10
167.1556740799117
 20
91.16073042991866
 30
0.0
 42
0.0406338080844187
  0
VERTEX
  5
AD8
330
AD6
100
AcDbEntity
  8
0
100
AcDbVertex
100
AcDb2dVertex
 10
167.5547092335459
 20
91.19321269730017
 30
0.0
 42
0.0411248513730434
  0
VERTEX
  5
AD9
330
AD6
100
AcDbEntity
  8
0
100
AcDbVertex
100
AcDb2dVertex
 10
167.9385199997847
 20
91.28903106474234
 30
0.0
 42
0.0442674013096862
  0
VERTEX
  5
ADA
330
AD6
100
AcDbEntity
  8
0
100
AcDbVertex
100
AcDb2dVertex
 10
168.2714753121303
 20
91.43585851181137
 30
0.0
 42
0.0447585967086941
  0
VERTEX
  5
ADB
330
AD6
100
AcDbEntity
  8
0
100
AcDbVertex
100
AcDb2dVertex
 10
168.5698876422849
 20
91.63707602664908
 30
0.0
 42
0.0521661944945309
 70
     2
 50
39.1170710482602
  0
VERTEX
  5
ADC
330
AD6
100
AcDbEntity
  8
0
100
AcDbVertex
100
AcDb2dVertex
 10
168.8225327494045
 20
91.89051134003245
 30
0.0
 42
0.0537676003291167
 50
39.1170710482602
  0
VERTEX
  5
ADD
330
AD6
100
AcDbEntity
  8
0
100
AcDbVertex
100
AcDb2dVertex
 10
169.0105551560138
 20
92.18245789928255
 30
0.0
 42
0.0573562253947843
 50
39.1170710482602
  0
VERTEX
  5
ADE
330
AD6
100
AcDbEntity
  8
0
100
AcDbVertex
100
AcDb2dVertex
 10
169.1193965925558
 20
92.48049300039719
 30
0.0
 42
0.0589585523189859
 50
39.1170710482602
  0
VERTEX
  5
ADF
330
AD6
100
AcDbEntity
  8
0
100
AcDbVertex
100
AcDb2dVertex
 10
169.1556740799119
 20
92.7870760266523
 30
0.0
 42
0.0589585523190104
  0
SEQEND
  5
AE0
330
AD6
100
AcDbEntity
  8
0
  0
POLYLINE
  5
AE1
330
BE8
100
AcDbEntity
  8
0
100
AcDb2dPolyline
 66
     1
 10
0.0
 20
0.0
 30
0.0
  0
VERTEX
  5
AE2
330
AE1
100
AcDbEntity
  8
0
100
AcDbVertex
100
AcDb2dVertex
 10
165.1556740799114
 20
92.7870760266523
 30
0.0
 42
0.0589585523190708
  0
VERTEX
  5
AE3
330
AE1
100
AcDbEntity
  8
0
100
AcDbVertex
100
AcDb2dVertex
 10
165.1919515672675
 20
92.4804930003969
 30
0.0
 42
0.0573562253948245
  0
VERTEX
  5
AE4
330
AE1
100
AcDbEntity
  8
0
100
AcDbVertex
100
AcDb2dVertex
 10
165.3007930038093
 20
92.18245789928255
 30
0.0
 42
0.0537676003291127
  0
VERTEX
  5
AE5
330
AE1
100
AcDbEntity
  8
0
100
AcDbVertex
100
AcDb2dVertex
 10
165.4888154104186
 20
91.89051134003245
 30
0.0
 42
0.0521661944944973
  0
VERTEX
  5
AE6
330
AE1
100
AcDbEntity
  8
0
100
AcDbVertex
100
AcDb2dVertex
 10
165.7414605175384
 20
91.63707602664908
 30
0.0
 42
0.0447585967086944
 70
     2
 50
320.8829289517407
  0
VERTEX
  5
AE7
330
AE1
100
AcDbEntity
  8
0
100
AcDbVertex
100
AcDb2dVertex
 10
166.039872847693
 20
91.43585851181137
 30
0.0
 42
0.0442674013096755
 50
320.8829289517407
  0
VERTEX
  5
AE8
330
AE1
100
AcDbEntity
  8
0
100
AcDbVertex
100
AcDb2dVertex
 10
166.3728281600386
 20
91.28903106474206
 30
0.0
 42
0.0411248513730527
 50
320.8829289517407
  0
VERTEX
  5
AE9
330
AE1
100
AcDbEntity
  8
0
100
AcDbVertex
100
AcDb2dVertex
 10
166.7566389262772
 20
91.19321269730017
 30
0.0
 42
0.0406338080844375
 50
320.8829289517407
  0
VERTEX
  5
AEA
330
AE1
100
AcDbEntity
  8
0
100
AcDbVertex
100
AcDb2dVertex
 10
167.1556740799117
 20
91.16073042991866
 30
0.0
 42
0.0406338080844187
  0
SEQEND
  5
AEB
330
AE1
100
AcDbEntity
  8
0
  0
LINE
  5
AEC
330
BE8
100
AcDbEntity
  8
0
100
AcDbLine
 10
165.1556740799108
 20
93.16349205897461
 30
0.0
 11
165.1556740799114
 21
92.7870760266523
 31
0.0
  0
LINE
  5
AED
330
BE8
100
AcDbEntity
  8
0
100
AcDbLine
 10
169.155674079912
 20
93.16349205897461
 30
0.0
 11
169.1556740799119
 21
92.7870760266523
 31
0.0
  0
LINE
  5
AEE
330
BE8
100
AcDbEntity
  8
0
100
AcDbLine
 10
168.3103746173512
 20
93.16349205897461
 30
0.0
 11
167.7330243486311
 21
93.87059883958551
 31
0.0
  0
LINE
  5
AEF
330
BE8
100
AcDbEntity
  8
0
100
AcDbLine
 10
167.7330243486311
 20
93.87059883958551
 30
0.0
 11
166.5783238111923
 21
93.87059883958551
 31
0.0
  0
LINE
  5
AF0
330
BE8
100
AcDbEntity
  8
0
100
AcDbLine
 10
166.0009735424721
 20
93.16349205897461
 30
0.0
 11
166.578323811192
 21
93.87059883958551
 31
0.0
  0
LINE
  5
AF1
330
BE8
100
AcDbEntity
  8
0
100
AcDbLine
 10
167.7330243486311
 20
92.45638527836399
 30
0.0
 11
166.5783238111923
 21
92.45638527836399
 31
0.0
  0
LINE
  5
AF2
330
BE8
100
AcDbEntity
  8
0
100
AcDbLine
 10
166.0009735424721
 20
93.16349205897461
 30
0.0
 11
166.578323811192
 21
92.45638527836399
 31
0.0
  0
LINE
  5
AF3
330
BE8
100
AcDbEntity
  8
0
100
AcDbLine
 10
168.3103746173512
 20
93.16349205897461
 30
0.0
 11
167.7330243486311
 21
92.45638527836399
 31
0.0
  0
LINE
  5
AF4
330
BE8
100
AcDbEntity
  8
1
100
AcDbLine
 10
167.1556740799118
 20
98.16625368803181
 30
0.0
 11
167.1556740799116
 21
88.961410530953
 31
0.0
  0
LINE
  5
AF5
330
BE8
100
AcDbEntity
  8
5
  6
PHA-05
100
AcDbLine
 10
196.6556740799117
 20
170.9106442042324
 30
0.0
 11
196.6556740799117
 21
123.9106442042322
 31
0.0
  0
LINE
  5
AF6
330
BE8
100
AcDbEntity
  8
5
  6
PHA-05
100
AcDbLine
 10
194.6556740799117
 20
170.9106442042324
 30
0.0
 11
196.6556740799117
 21
170.9106442042324
 31
0.0
  0
LINE
  5
AF7
330
BE8
100
AcDbEntity
  8
5
  6
PHA-05
100
AcDbLine
 10
194.6556740799117
 20
123.9106442042322
 30
0.0
 11
196.6556740799117
 21
123.9106442042322
 31
0.0
  0
LINE
  5
AF8
330
BE8
100
AcDbEntity
  8
2
100
AcDbLine
 10
170.6556740799118
 20
150.3106442042324
 30
0.0
 11
194.6556740799117
 21
150.3106442042324
 31
0.0
  0
LINE
  5
AF9
330
BE8
100
AcDbEntity
  8
2
100
AcDbLine
 10
170.6556740799118
 20
130.5106442042322
 30
0.0
 11
194.6556740799117
 21
130.5106442042322
 31
0.0
  0
CIRCLE
  5
AFA
330
BE8
100
AcDbEntity
  8
0
100
AcDbCircle
 10
121.1744141746835
 20
140.4106442042323
 30
0.0
 40
13.49999999999997
  0
CIRCLE
  5
AFB
330
BE8
100
AcDbEntity
  8
0
100
AcDbCircle
 10
121.1744141746835
 20
140.4106442042323
 30
0.0
 40
9.9
  0
ARC
  5
AFC
330
BE8
100
AcDbEntity
  8
0
100
AcDbCircle
 10
179.8758163446644
 20
159.8678547415085
 30
0.0
 40
9.100000000002511
100
AcDbArc
 50
87.38013505196454
 51
132.619864948036
  0
LINE
  5
AFD
330
BE8
100
AcDbEntity
  8
0
100
AcDbLine
 10
132.6744141746836
 20
166.222182111147
 30
0.0
 11
109.6744141746835
 21
166.222182111147
 31
0.0
  0
LINE
  5
AFE
330
BE8
100
AcDbEntity
  8
0
100
AcDbLine
 10
132.6744141746836
 20
169.3003634010779
 30
0.0
 11
109.6744141746835
 21
169.3003634010779
 31
0.0
  0
LINE
  5
AFF
330
BE8
100
AcDbEntity
  8
0
100
AcDbLine
 10
109.6744141746835
 20
166.222182111147
 30
0.0
 11
109.6744141746835
 21
169.3003634010779
 31
0.0
  0
LINE
  5
B00
330
BE8
100
AcDbEntity
  8
0
100
AcDbLine
 10
132.6744141746836
 20
166.222182111147
 30
0.0
 11
132.6744141746836
 21
169.3003634010779
 31
0.0
  0
LINE
  5
B01
330
BE8
100
AcDbEntity
  8
0
100
AcDbLine
 10
132.6744141746836
 20
168.9583432577521
 30
0.0
 11
109.6744141746835
 21
168.9583432577521
 31
0.0
  0
LINE
  5
B02
330
BE8
100
AcDbEntity
  8
0
100
AcDbLine
 10
132.6744141746836
 20
166.5642022544725
 30
0.0
 11
109.6744141746835
 21
166.5642022544725
 31
0.0
  0
LINE
  5
B03
330
BE8
100
AcDbEntity
  8
0
100
AcDbLine
 10
181.2314639342641
 20
205.0426463955452
 30
0.0
 11
181.2314639342641
 21
228.042646395545
 31
0.0
  0
LINE
  5
B04
330
BE8
100
AcDbEntity
  8
0
100
AcDbLine
 10
172.7742303471909
 20
205.0426463955452
 30
0.0
 11
172.7742303471909
 21
228.042646395545
 31
0.0
  0
LINE
  5
B05
330
BE8
100
AcDbEntity
  8
0
100
AcDbLine
 10
172.7742303471909
 20
228.042646395545
 30
0.0
 11
181.2314639342641
 21
228.042646395545
 31
0.0
  0
LINE
  5
B06
330
BE8
100
AcDbEntity
  8
0
100
AcDbLine
 10
172.7742303471909
 20
205.0426463955452
 30
0.0
 11
181.2314639342641
 21
205.0426463955452
 31
0.0
  0
LINE
  5
B07
330
BE8
100
AcDbEntity
  8
0
100
AcDbLine
 10
173.7139229679768
 20
205.0426463955449
 30
0.0
 11
173.7139229679768
 21
228.042646395545
 31
0.0
  0
LINE
  5
B08
330
BE8
100
AcDbEntity
  8
0
100
AcDbLine
 10
180.2917713134788
 20
205.0426463955449
 30
0.0
 11
180.2917713134788
 21
228.042646395545
 31
0.0
  0
TEXT
  5
B09
330
BE8
100
AcDbEntity
  8
0
100
AcDbText
 10
180.0200544090946
 20
207.2343316376184
 30
0.0
 40
6.0
  1
0
 50
90.0
 41
0.65
  7
SIM065
 72
     4
 11
177.0200544090946
 21
208.5343316376184
 31
0.0
100
AcDbText
  0
TEXT
  5
B0A
330
BE8
100
AcDbEntity
  8
0
100
AcDbText
 10
180.0200544090946
 20
212.2343316376184
 30
0.0
 40
6.0
  1
0
 50
90.0
 41
0.65
  7
SIM065
 72
     4
 11
177.0200544090946
 21
213.5343316376185
 31
0.0
100
AcDbText
  0
TEXT
  5
B0B
330
BE8
100
AcDbEntity
  8
0
100
AcDbText
 10
180.0200544090946
 20
217.2343316376184
 30
0.0
 40
6.0
  1
0
 50
90.0
 41
0.65
  7
SIM065
 72
     4
 11
177.0200544090946
 21
218.5343316376184
 31
0.0
100
AcDbText
  0
LINE
  5
B0C
330
BE8
100
AcDbEntity
  8
0
100
AcDbLine
 10
177.0958763188643
 20
227.5426463955449
 30
0.0
 11
177.0958763188643
 21
226.5426463955447
 31
0.0
  0
LINE
  5
B0D
330
BE8
100
AcDbEntity
  8
0
100
AcDbLine
 10
176.0958763188642
 20
227.5426463955449
 30
0.0
 11
176.0958763188642
 21
227.0426463955448
 31
0.0
  0
LINE
  5
B0E
330
BE8
100
AcDbEntity
  8
0
100
AcDbLine
 10
175.2958763188643
 20
227.5426463955449
 30
0.0
 11
175.2958763188643
 21
227.0426463955448
 31
0.0
  0
LINE
  5
B0F
330
BE8
100
AcDbEntity
  8
0
100
AcDbLine
 10
174.6958763188643
 20
227.5426463955449
 30
0.0
 11
174.6958763188643
 21
227.0426463955448
 31
0.0
  0
LINE
  5
B10
330
BE8
100
AcDbEntity
  8
0
100
AcDbLine
 10
174.2958763188643
 20
227.5426463955449
 30
0.0
 11
174.2958763188643
 21
227.0426463955448
 31
0.0
  0
LINE
  5
B11
330
BE8
100
AcDbEntity
  8
0
100
AcDbLine
 10
174.0958763188642
 20
227.5426463955449
 30
0.0
 11
174.0958763188642
 21
226.540756016019
 31
0.0
  0
LINE
  5
B12
330
BE8
100
AcDbEntity
  8
0
100
AcDbLine
 10
180.0958763188643
 20
227.5426463955449
 30
0.0
 11
180.0958763188643
 21
226.540756016019
 31
0.0
  0
LINE
  5
B13
330
BE8
100
AcDbEntity
  8
0
100
AcDbLine
 10
179.8958763188643
 20
227.5426463955449
 30
0.0
 11
179.8958763188643
 21
227.0426463955448
 31
0.0
  0
LINE
  5
B14
330
BE8
100
AcDbEntity
  8
0
100
AcDbLine
 10
179.4958763188643
 20
227.5426463955449
 30
0.0
 11
179.4958763188643
 21
227.0426463955448
 31
0.0
  0
LINE
  5
B15
330
BE8
100
AcDbEntity
  8
0
100
AcDbLine
 10
178.8958763188643
 20
227.5426463955449
 30
0.0
 11
178.8958763188643
 21
227.0426463955448
 31
0.0
  0
LINE
  5
B16
330
BE8
100
AcDbEntity
  8
0
100
AcDbLine
 10
178.0958763188643
 20
227.5426463955449
 30
0.0
 11
178.0958763188643
 21
227.0426463955448
 31
0.0
  0
LINE
  5
B17
330
BE8
100
AcDbEntity
  8
0
100
AcDbLine
 10
163.6556740799118
 20
150.3106442042324
 30
0.0
 11
170.6556740799118
 21
150.3106442042324
 31
0.0
  0
LINE
  5
B18
330
BE8
100
AcDbEntity
  8
0
100
AcDbLine
 10
163.6556740799118
 20
130.5106442042322
 30
0.0
 11
170.6556740799118
 21
130.5106442042322
 31
0.0
  0
CIRCLE
  5
B19
330
BE8
100
AcDbEntity
  8
0
100
AcDbCircle
 10
252.1631778239793
 20
140.4106442042323
 30
0.0
 40
9.899999999999977
  0
INSERT
  5
BB4
330
BE8
100
AcDbEntity
  8
0
100
AcDbBlockReference
  2
STDGX5
 10
0.0
 20
0.0
 30
0.0
  0
INSERT
  5
BB5
330
BE8
100
AcDbEntity
  8
0
100
AcDbBlockReference
  2
STDGX5
 10
0.0
 20
0.0
 30
0.0
  0
INSERT
  5
BB6
330
BE8
100
AcDbEntity
  8
0
100
AcDbBlockReference
  2
STDGX5
 10
275.0
 20
0.0
 30
0.0
  0
INSERT
  5
BB7
330
BE8
100
AcDbEntity
  8
0
100
AcDbBlockReference
  2
STDGX5
 10
275.0
 20
0.0
 30
0.0
  0
TEXT
  5
D28
330
BE8
100
AcDbEntity
  8
0
100
AcDbText
 10
180.1269848347691
 20
221.9149978341252
 30
0.0
 40
6.0
  1
3
 50
90.0
 41
0.7
100
AcDbText
  0
ENDSEC
  0
SECTION
  2
OBJECTS
  0
DICTIONARY
  5
BD6
330
0
100
AcDbDictionary
281
     1
  3
ACAD_GROUP
350
BD7
  3
ACAD_LAYOUT
350
BE3
  3
ACAD_MLINESTYLE
350
BE0
  3
ACAD_PLOTSETTINGS
350
BE2
  3
ACAD_PLOTSTYLENAME
350
BD8
  3
AcDbVariableDictionary
350
C0F
  3
AcmDictionary
350
CD8
  3
AMG
350
C1E
  3
AMGSNAPSETTINGS
350
D16
  3
DWGPROPS
350
CDB
  3
MAPISURF_MODULE
350
CAA
  3
Simple$CDFRecord
350
C03
  3
Simple$Histroy
350
C01
  3
Simple$System
350
C02
  0
DICTIONARY
  5
D1E
330
BE8
100
AcDbDictionary
280
     1
281
     1
  3
ACAD_INDEX
360
D1F
  0
DICTIONARY
  5
BD7
102
{ACAD_REACTORS
330
BD6
102
}
330
BD6
100
AcDbDictionary
281
     1
  0
DICTIONARY
  5
BE3
102
{ACAD_REACTORS
330
BD6
102
}
330
BD6
100
AcDbDictionary
281
     1
  3
Model
350
BEB
  3
ﾚｲｱｳﾄ1
350
BE7
  0
DICTIONARY
  5
BE0
102
{ACAD_REACTORS
330
BD6
102
}
330
BD6
100
AcDbDictionary
281
     1
  3
Standard
350
BE1
  0
DICTIONARY
  5
BE2
102
{ACAD_REACTORS
330
BD6
102
}
330
BD6
100
AcDbDictionary
281
     1
  0
ACDBDICTIONARYWDFLT
  5
BD8
102
{ACAD_REACTORS
330
BD6
102
}
330
BD6
100
AcDbDictionary
281
     1
  3
Normal
350
BD9
100
AcDbDictionaryWithDefault
340
BD9
  0
DICTIONARY
  5
C0F
102
{ACAD_REACTORS
330
BD6
102
}
330
BD6
100
AcDbDictionary
281
     1
  3
DIMASSOC
350
C10
  3
INDEXCTL
350
D27
  0
DICTIONARY
  5
CD8
102
{ACAD_REACTORS
330
BD6
102
}
330
BD6
100
AcDbDictionary
281
     1
  3
AcmBOMDATA
350
CD9
  3
AcmStdDictionary
350
CE7
  0
DICTIONARY
  5
C1E
102
{ACAD_REACTORS
330
BD6
102
}
330
BD6
100
AcDbDictionary
281
     1
  3
AcMgSettings
350
C1F
  3
AMGLAYCFG
350
CE9
  0
DICTIONARY
  5
D16
102
{ACAD_REACTORS
330
BD6
102
}
330
BD6
100
AcDbDictionary
281
     1
  3
DIMENSION
350
D1B
  3
FEA
350
D1A
  3
HATCH (1)
350
D17
  3
HATCH (2)
350
D18
  3
SIMPLE WELD
350
D1C
  3
SYMBOLS
350
D19
  0
XRECORD
  5
CDB
102
{ACAD_REACTORS
330
BD6
102
}
330
BD6
100
AcDbXrecord
280
     1
  1
DWGPROPS COOKIE
  2

  3

  4

  6

  7

  8

  9

300
AmdtFileType=84
301
=
302
=
303
=
304
=
305
=
306
=
307
=
308
=
309
=
 40
0.1107361921296296
 41
2449954.602013888
 42
2453220.794333044
  1

 90
        1
  0
XRECORD
  5
C03
102
{ACAD_REACTORS
330
BD6
102
}
330
BD6
100
AcDbXrecord
280
     1
  1

  0
XRECORD
  5
C01
102
{ACAD_REACTORS
330
BD6
102
}
330
BD6
100
AcDbXrecord
280
     1
  1
2003年01月09日　20:47^J^J^J
  0
XRECORD
  5
C02
102
{ACAD_REACTORS
330
BD6
102
}
330
BD6
100
AcDbXrecord
280
     1
  1
"14Q1FY",0,0,"1.25","0",0,0,0,1,"","",0,0,0,0,"",20,0,0,0,"\x81\x41\x81\x42\x81\x43\x81\x44\x81\x48\x81\x49\x81\x6A\x81\x6C\x81\x6E\x81\x70\x81\x72\x81\x74\x81\x76\x81\x78\x81\x7A\x29\x5D\x7D\xA3\xA4\xA1","\x81\x69\x81\x6B\x81\x6D\x81\x6F\x81\x71\x81\x73\x81\x75\x81\x77\x81\x79\x28\x5B\xA2\x7B","\x81\x69\x28\x81\x6A\x29\x81\x6D\x5B\x81\x6E\x5D\x81\x6F\x7B\x81\x70\x7D\x81\x75\xA2\x81\x76\xA3\x81\x41\xA4\x81\x42\xA1\x81\x43\x2C\x81\x44\x2E\x81\x45\xA5"
  2
50,"0",0,1,0
  3
|><@~^ %$~
  4
0,"0","0"
  6
0,0,0,0,0,"0",0
  8
0,""
 38
1.0
  0
DICTIONARY
  5
D1F
102
{ACAD_REACTORS
330
D1E
102
}
330
D1E
100
AcDbDictionary
281
     1
  3
*A1
350
D20
  0
LAYOUT
  5
BEB
102
{ACAD_REACTORS
330
BE3
102
}
330
BE3
100
AcDbPlotSettings
  1

  2
Canon LASER SHOT LBP-1510
  4

  6

 40
0.0
 41
0.0
 42
0.0
 43
0.0
 44
0.0
 45
0.0
 46
0.0
 47
0.0
 48
0.0
 49
0.0
140
0.0
141
0.0
142
1.0
143
1.0
 70
  1712
 72
     0
 73
     0
 74
     0
  7

 75
     0
147
1.0
148
0.0
149
0.0
100
AcDbLayout
  1
Model
 70
     1
 71
     0
 10
0.0
 20
0.0
 11
12.0
 21
9.0
 12
0.0
 22
0.0
 32
0.0
 14
0.0
 24
0.0
 34
0.0
 15
0.0
 25
0.0
 35
0.0
146
0.0
 13
0.0
 23
0.0
 33
0.0
 16
1.0
 26
0.0
 36
0.0
 17
0.0
 27
1.0
 37
0.0
 76
     0
330
BE8
  0
LAYOUT
  5
BE7
102
{ACAD_REACTORS
330
BE3
102
}
330
BE3
100
AcDbPlotSettings
  1

  2
Canon LASER SHOT LBP-1510
  4

  6

 40
0.0
 41
0.0
 42
0.0
 43
0.0
 44
0.0
 45
0.0
 46
0.0
 47
0.0
 48
0.0
 49
0.0
140
0.0
141
0.0
142
1.0
143
1.0
 70
   688
 72
     0
 73
     0
 74
     5
  7

 75
    16
147
1.0
148
0.0
149
0.0
100
AcDbLayout
  1
ﾚｲｱｳﾄ1
 70
     0
 71
     1
 10
0.0
 20
0.0
 11
12.0
 21
9.0
 12
0.0
 22
0.0
 32
0.0
 14
1.000000000000000E+20
 24
1.000000000000000E+20
 34
1.000000000000000E+20
 15
-1.000000000000000E+20
 25
-1.000000000000000E+20
 35
-1.000000000000000E+20
146
0.0
 13
0.0
 23
0.0
 33
0.0
 16
1.0
 26
0.0
 36
0.0
 17
0.0
 27
1.0
 37
0.0
 76
     0
330
BE4
  0
MLINESTYLE
  5
BE1
102
{ACAD_REACTORS
330
BE0
102
}
330
BE0
100
AcDbMlineStyle
  2
STANDARD
 70
     0
  3

 62
   256
 51
90.0
 52
90.0
 71
     2
 49
0.5
 62
   256
  6
BYLAYER
 49
-0.5
 62
   256
  6
BYLAYER
  0
ACDBPLACEHOLDER
  5
BD9
102
{ACAD_REACTORS
330
BD8
102
}
330
BD8
  0
DICTIONARYVAR
  5
C10
102
{ACAD_REACTORS
330
C0F
102
}
330
C0F
100
DictionaryVariables
280
     0
  1
0
  0
DICTIONARYVAR
  5
D27
102
{ACAD_REACTORS
330
C0F
102
}
330
C0F
100
DictionaryVariables
280
     0
  1
1
  0
ACMDATADICTIONARY
  5
CD9
102
{ACAD_REACTORS
330
CD8
102
}
330
CD8
100
AcDbDictionary
281
     1
  3
*A1
350
CDA
100
AcmDataDictionary
  0
DICTIONARY
  5
CE7
102
{ACAD_REACTORS
330
CD8
102
}
330
CD8
100
AcDbDictionary
281
     1
  3
ANSI
350
CE8
  0
DICTIONARY
  5
C1F
102
{ACAD_REACTORS
330
C1E
102
}
330
C1E
100
AcDbDictionary
281
     1
  3
DWGSETTINGS
350
C20
  3
TRANSSETTINGS
350
C24
  0
ACAMGFILTERDAT
  5
D1B
102
{ACAD_REACTORS
330
D16
102
}
330
D16
100
AcAmgFilterDat
 70
    15
  1
DIMENSION,AMDT_*_DIM
  2
*
  3
*
  4
*
  5
*
290
     1
  0
ACAMGFILTERDAT
  5
D1A
102
{ACAD_REACTORS
330
D16
102
}
330
D16
100
AcAmgFilterDat
 70
    15
  1
*
  2
AM_FEA-AM_*
  3
*
  4
*
  5
*
290
     1
  0
ACAMGFILTERDAT
  5
D17
102
{ACAD_REACTORS
330
D16
102
}
330
D16
100
AcAmgFilterDat
 70
    15
  1
HATCH
  2
*
  3
*
  4
*
  5
*
290
     1
  0
ACAMGFILTERDAT
  5
D18
102
{ACAD_REACTORS
330
D16
102
}
330
D16
100
AcAmgFilterDat
 70
    15
  1
LINE
  2
8,8N,*-8,*-8N,AM_8,AM_8N,*-AM_8,*-AM_8N
  3
*
  4
*
  5
INSERT,STDPART2D
290
     1
  0
ACAMGFILTERDAT
  5
D1C
102
{ACAD_REACTORS
330
D16
102
}
330
D16
100
AcAmgFilterDat
 70
    15
  1
ARC
  2
AM_5
  3
*
  4
2
  5
INSERT
290
     0
  0
ACAMGFILTERDAT
  5
D19
102
{ACAD_REACTORS
330
D16
102
}
330
D16
100
AcAmgFilterDat
 70
    15
  1
ACMFCFRAME,ACMDATUMTARGET,ACMDATUMID,ACMWELDSYM,ACMSURFSYM,ACMFEATID,ACMPARTREF,ACMBALLOON,AMDTEDGESYM,AMGSCREWCALCTABLE
  2
*
  3
*
  4
*
  5
*
290
     1
  0
LAYER_INDEX
  5
D20
102
{ACAD_REACTORS
330
D1F
102
}
330
D1F
100
AcDbIndex
 40
2454537.365569108
100
AcDbLayerIndex
  8
0
360
D21
 90
      166
  8
1
360
D22
 90
       12
  8
3
360
D23
 90
       61
  8
2
360
D24
 90
       16
  8
5
360
D25
 90
        9
  0
ACMDATAENTRYBLOCK
  5
CDA
102
{ACAD_REACTORS
330
CD9
102
}
330
CD9
100
AcmDataEntry
100
AcmDataEntryBlock
  0
IDBUFFER
  5
D21
330
0
100
AcDbIdBuffer
330
A84
330
A85
330
A86
330
A87
330
A88
330
A89
330
A8A
330
AB4
330
AD6
330
AE1
330
AEC
330
AED
330
AEE
330
AEF
330
AF0
330
AF1
330
AF2
330
AF3
330
AFA
330
AFB
330
AFC
330
AFD
330
AFE
330
AFF
330
B00
330
B01
330
B02
330
B03
330
B04
330
B05
330
B06
330
B07
330
B08
330
B09
330
B0A
330
B0B
330
B0C
330
B0D
330
B0E
330
B0F
330
B10
330
B11
330
B12
330
B13
330
B14
330
B15
330
B16
330
B17
330
B18
330
B19
330
BB4
330
BB5
330
BB6
330
BB7
330
D28
330
38A
330
38B
330
38C
330
38D
330
452
330
453
330
454
330
455
330
7B1
330
7B2
330
7B3
330
7B4
330
987
330
992
330
993
330
994
330
995
330
996
330
997
330
998
330
999
330
99A
330
A2D
330
A01
330
A02
330
A03
330
A04
330
A0B
330
A0C
330
A0D
330
A0E
330
A15
330
A1C
330
A1D
330
A1E
330
A1F
330
A20
330
A21
330
A22
330
A23
330
A26
330
A27
330
A28
330
A29
330
A2A
330
A2B
330
A2C
330
A2E
330
A2F
330
A30
330
A31
330
A33
330
A34
330
A35
330
A36
330
A37
330
A38
330
A40
330
A46
330
A47
330
A48
330
A4A
330
A4C
330
A4D
330
A4E
330
A4F
330
A50
330
A51
330
A52
330
A53
330
A55
330
A58
330
A59
330
A5A
330
A5C
330
A5D
330
A5E
330
A5F
330
A60
330
A61
330
A62
330
A63
330
A64
330
A65
330
A66
330
A67
330
A68
330
A69
330
A6A
330
A6B
330
A6C
330
A6D
330
A6E
330
A6F
330
A70
330
A73
330
A74
330
A75
330
A76
330
A77
330
A78
330
A79
330
A7A
330
A7B
330
A7C
330
A7D
330
A7E
330
A80
330
A81
330
A82
330
A83
  0
IDBUFFER
  5
D22
330
0
100
AcDbIdBuffer
330
986
330
9BE
330
A24
330
A25
330
A32
330
A54
330
A5B
330
A71
330
A72
330
A7F
330
A8B
330
AF4
  0
IDBUFFER
  5
D23
330
0
100
AcDbIdBuffer
330
9F8
330
9F9
330
9FA
330
9FB
330
9FC
330
9FD
330
9FE
330
9FF
330
A41
330
A43
330
A44
330
A45
330
A92
330
9AC
330
9BF
330
9C5
330
9CB
330
9CC
330
9CD
330
9CE
330
9CF
330
9D0
330
9D1
330
9D2
330
9D3
330
9D4
330
9D5
330
9D6
330
9D7
330
9D8
330
9D9
330
9DA
330
9DB
330
9DC
330
9DD
330
9DE
330
9DF
330
9E0
330
9E1
330
9E2
330
9E3
330
9E4
330
9E5
330
9E6
330
9E7
330
9E8
330
9E9
330
9EA
330
9EB
330
9EC
330
9ED
330
9EE
330
9EF
330
9F0
330
9F1
330
9F2
330
9F3
330
9F4
330
9F5
330
9F6
330
9F7
  0
IDBUFFER
  5
D24
330
0
100
AcDbIdBuffer
330
984
330
985
330
A39
330
A3A
330
A3B
330
A3C
330
A3D
330
A3E
330
A3F
330
A42
330
A49
330
A4B
330
A56
330
A57
330
AF8
330
AF9
  0
IDBUFFER
  5
D25
330
0
100
AcDbIdBuffer
330
A8C
330
A8D
330
A8E
330
A8F
330
A90
330
A91
330
AF5
330
AF6
330
AF7
  0
ENDSEC
  0
EOF
