  0
SECTION
  2
HEADER
  9
$ACADVER
  1
AC1015
  9
$ACADMAINTVER
 70
    13
  9
$DWGCODEPAGE
  3
ANSI_932
  9
$INSBASE
 10
0.0
 20
0.0
 30
0.0
  9
$EXTMIN
 10
103.789557174504
 20
59.27163913765152
 30
0.0
  9
$EXTMAX
 10
277.0395434987184
 20
221.4407113546523
 30
0.0
  9
$LIMMIN
 10
0.0
 20
0.0
  9
$LIMMAX
 10
375.0
 20
270.0
  9
$ORTHOMODE
 70
     1
  9
$REGENMODE
 70
     1
  9
$FILLMODE
 70
     1
  9
$QTEXTMODE
 70
     0
  9
$MIRRTEXT
 70
     0
  9
$LTSCALE
 40
10.0
  9
$ATTMODE
 70
     1
  9
$TEXTSIZE
 40
6.0
  9
$TRACEWID
 40
0.05
  9
$TEXTSTYLE
  7
STANDARD
  9
$CLAYER
  8
0
  9
$CELTYPE
  6
ByLayer
  9
$CECOLOR
 62
   256
  9
$CELTSCALE
 40
1.0
  9
$DISPSILH
 70
     0
  9
$DIMSCALE
 40
1.0
  9
$DIMASZ
 40
3.0
  9
$DIMEXO
 40
2.0
  9
$DIMDLI
 40
0.38
  9
$DIMRND
 40
0.0
  9
$DIMDLE
 40
0.0
  9
$DIMEXE
 40
2.0
  9
$DIMTP
 40
0.0
  9
$DIMTM
 40
0.0
  9
$DIMTXT
 40
3.2
  9
$DIMCEN
 40
0.0
  9
$DIMTSZ
 40
0.0
  9
$DIMTOL
 70
     0
  9
$DIMLIM
 70
     0
  9
$DIMTIH
 70
     0
  9
$DIMTOH
 70
     0
  9
$DIMSE1
 70
     0
  9
$DIMSE2
 70
     0
  9
$DIMTAD
 70
     1
  9
$DIMZIN
 70
     0
  9
$DIMBLK
  1

  9
$DIMASO
 70
     0
  9
$DIMSHO
 70
     0
  9
$DIMPOST
  1

  9
$DIMAPOST
  1

  9
$DIMALT
 70
     0
  9
$DIMALTD
 70
     2
  9
$DIMALTF
 40
25.4
  9
$DIMLFAC
 40
1.0
  9
$DIMTOFL
 70
     0
  9
$DIMTVP
 40
1.6
  9
$DIMTIX
 70
     1
  9
$DIMSOXD
 70
     0
  9
$DIMSAH
 70
     0
  9
$DIMBLK1
  1

  9
$DIMBLK2
  1

  9
$DIMSTYLE
  2
STANDARD
  9
$DIMCLRD
 70
     4
  9
$DIMCLRE
 70
     4
  9
$DIMCLRT
 70
     4
  9
$DIMTFAC
 40
1.0
  9
$DIMGAP
 40
0.09
  9
$DIMJUST
 70
     0
  9
$DIMSD1
 70
     0
  9
$DIMSD2
 70
     0
  9
$DIMTOLJ
 70
     1
  9
$DIMTZIN
 70
     0
  9
$DIMALTZ
 70
     0
  9
$DIMALTTZ
 70
     0
  9
$DIMUPT
 70
     0
  9
$DIMDEC
 70
     1
  9
$DIMTDEC
 70
     1
  9
$DIMALTU
 70
     2
  9
$DIMALTTD
 70
     2
  9
$DIMTXSTY
  7
STANDARD
  9
$DIMAUNIT
 70
     0
  9
$DIMADEC
 70
     0
  9
$DIMALTRND
 40
0.0
  9
$DIMAZIN
 70
     0
  9
$DIMDSEP
 70
    46
  9
$DIMATFIT
 70
     3
  9
$DIMFRAC
 70
     0
  9
$DIMLDRBLK
  1

  9
$DIMLUNIT
 70
     2
  9
$DIMLWD
 70
    -2
  9
$DIMLWE
 70
    -2
  9
$DIMTMOVE
 70
     2
  9
$LUNITS
 70
     2
  9
$LUPREC
 70
     1
  9
$SKETCHINC
 40
0.1
  9
$FILLETRAD
 40
22.0
  9
$AUNITS
 70
     0
  9
$AUPREC
 70
     0
  9
$MENU
  1
E:\r13\win\SUPPORT\ACAD
  9
$ELEVATION
 40
0.0
  9
$PELEVATION
 40
0.0
  9
$THICKNESS
 40
0.0
  9
$LIMCHECK
 70
     0
  9
$CHAMFERA
 40
1.199999999999999
  9
$CHAMFERB
 40
1.199999999999999
  9
$CHAMFERC
 40
0.0
  9
$CHAMFERD
 40
0.0
  9
$SKPOLY
 70
     0
  9
$TDCREATE
 40
2449954.602013888
  9
$TDUCREATE
 40
2449954.227013888
  9
$TDUPDATE
 40
2454537.359980821
  9
$TDUUPDATE
 40
2454536.984980821
  9
$TDINDWG
 40
0.1137224421
  9
$TDUSRTIMER
 40
0.1137224421
  9
$USRTIMER
 70
     1
  9
$ANGBASE
 50
0.0
  9
$ANGDIR
 70
     0
  9
$PDMODE
 70
     0
  9
$PDSIZE
 40
0.0
  9
$PLINEWID
 40
0.0
  9
$SPLFRAME
 70
     0
  9
$SPLINETYPE
 70
     6
  9
$SPLINESEGS
 70
     8
  9
$HANDSEED
  5
92B
  9
$SURFTAB1
 70
     6
  9
$SURFTAB2
 70
     6
  9
$SURFTYPE
 70
     6
  9
$SURFU
 70
     6
  9
$SURFV
 70
     6
  9
$UCSBASE
  2

  9
$UCSNAME
  2

  9
$UCSORG
 10
0.0
 20
0.0
 30
0.0
  9
$UCSXDIR
 10
1.0
 20
0.0
 30
0.0
  9
$UCSYDIR
 10
0.0
 20
1.0
 30
0.0
  9
$UCSORTHOREF
  2

  9
$UCSORTHOVIEW
 70
     0
  9
$UCSORGTOP
 10
0.0
 20
0.0
 30
0.0
  9
$UCSORGBOTTOM
 10
0.0
 20
0.0
 30
0.0
  9
$UCSORGLEFT
 10
0.0
 20
0.0
 30
0.0
  9
$UCSORGRIGHT
 10
0.0
 20
0.0
 30
0.0
  9
$UCSORGFRONT
 10
0.0
 20
0.0
 30
0.0
  9
$UCSORGBACK
 10
0.0
 20
0.0
 30
0.0
  9
$PUCSBASE
  2

  9
$PUCSNAME
  2

  9
$PUCSORG
 10
0.0
 20
0.0
 30
0.0
  9
$PUCSXDIR
 10
1.0
 20
0.0
 30
0.0
  9
$PUCSYDIR
 10
0.0
 20
1.0
 30
0.0
  9
$PUCSORTHOREF
  2

  9
$PUCSORTHOVIEW
 70
     0
  9
$PUCSORGTOP
 10
0.0
 20
0.0
 30
0.0
  9
$PUCSORGBOTTOM
 10
0.0
 20
0.0
 30
0.0
  9
$PUCSORGLEFT
 10
0.0
 20
0.0
 30
0.0
  9
$PUCSORGRIGHT
 10
0.0
 20
0.0
 30
0.0
  9
$PUCSORGFRONT
 10
0.0
 20
0.0
 30
0.0
  9
$PUCSORGBACK
 10
0.0
 20
0.0
 30
0.0
  9
$USERI1
 70
     0
  9
$USERI2
 70
     1
  9
$USERI3
 70
     0
  9
$USERI4
 70
     0
  9
$USERI5
 70
     0
  9
$USERR1
 40
0.0
  9
$USERR2
 40
0.0
  9
$USERR3
 40
0.0
  9
$USERR4
 40
0.0
  9
$USERR5
 40
0.0
  9
$WORLDVIEW
 70
     1
  9
$SHADEDGE
 70
     3
  9
$SHADEDIF
 70
    70
  9
$TILEMODE
 70
     1
  9
$MAXACTVP
 70
    16
  9
$PINSBASE
 10
0.0
 20
0.0
 30
0.0
  9
$PLIMCHECK
 70
     0
  9
$PEXTMIN
 10
1.000000000000000E+20
 20
1.000000000000000E+20
 30
1.000000000000000E+20
  9
$PEXTMAX
 10
-1.000000000000000E+20
 20
-1.000000000000000E+20
 30
-1.000000000000000E+20
  9
$PLIMMIN
 10
0.0
 20
0.0
  9
$PLIMMAX
 10
12.0
 20
9.0
  9
$UNITMODE
 70
     0
  9
$VISRETAIN
 70
     0
  9
$PLINEGEN
 70
     0
  9
$PSLTSCALE
 70
     0
  9
$TREEDEPTH
 70
  3020
  9
$CMLSTYLE
  2
Standard
  9
$CMLJUST
 70
     0
  9
$CMLSCALE
 40
1.0
  9
$PROXYGRAPHICS
 70
     1
  9
$MEASUREMENT
 70
     0
  9
$CELWEIGHT
370
    -1
  9
$ENDCAPS
280
     0
  9
$JOINSTYLE
280
     0
  9
$LWDISPLAY
290
     0
  9
$INSUNITS
 70
     0
  9
$HYPERLINKBASE
  1

  9
$STYLESHEET
  1

  9
$XEDIT
290
     1
  9
$CEPSNTYPE
380
     0
  9
$PSTYLEMODE
290
     1
  9
$FINGERPRINTGUID
  2
{600FE879-98BC-4077-83A0-1A917F992B0D}
  9
$VERSIONGUID
  2
{ACA50935-0499-4570-B0A9-18DEFDA3D70C}
  9
$EXTNAMES
290
     1
  9
$PSVPSCALE
 40
0.0
  9
$OLESTARTUP
290
     0
  0
ENDSEC
  0
SECTION
  2
CLASSES
  0
CLASS
  1
ACDBDICTIONARYWDFLT
  2
AcDbDictionaryWithDefault
  3
AutoCAD 2000
 90
        0
280
     0
281
     0
  0
CLASS
  1
ACDBPLACEHOLDER
  2
AcDbPlaceHolder
  3
AutoCAD 2000
 90
        0
280
     0
281
     0
  0
CLASS
  1
LAYOUT
  2
AcDbLayout
  3
AutoCAD 2000
 90
        0
280
     0
281
     0
  0
CLASS
  1
DICTIONARYVAR
  2
AcDbDictionaryVar
  3
AutoCAD 2000
 90
        0
280
     0
281
     0
  0
CLASS
  1
ACME_DOCUMENT
  2
AcMeDbDoc
  3
AcMeServices
 90
        0
280
     0
281
     0
  0
CLASS
  1
AMGSETTINGSOBJ
  2
AmgSettingsObj
  3
"AcadM|Product Description: AutoCAD Mechanical 2000|Company: Autodesk"
 90
        0
280
     0
281
     0
  0
CLASS
  1
ACMESCOPE
  2
AcMeScope
  3
AcMeServices
 90
        0
280
     0
281
     0
  0
CLASS
  1
ACMECOMMANDHISTORY
  2
AcMeCommandHistory
  3
AcMeServices
 90
        0
280
     0
281
     0
  0
CLASS
  1
ACIMSYSVARMAN
  2
AcImSysVarManager
  3
AcMeServices
 90
        0
280
     0
281
     0
  0
CLASS
  1
ACIMREALSYSVAR
  2
AcImRealSysVar
  3
AcMeServices
 90
        0
280
     0
281
     0
  0
CLASS
  1
ACIMINTSYSVAR
  2
AcImIntSysVar
  3
AcMeServices
 90
        0
280
     0
281
     0
  0
CLASS
  1
ACMEDRAWINGMAN
  2
AcMeDrawingMan
  3
AcMeServices
 90
        0
280
     0
281
     0
  0
CLASS
  1
ACMEVIEW
  2
AcMeView
  3
AcMeServices
 90
        0
280
     0
281
     0
  0
CLASS
  1
ACDBENTITYCACHE
  2
AcMeEntityCache
  3
AcMeServices
 90
        0
280
     0
281
     0
  0
CLASS
  1
GSMANAGER
  2
AcMeGSManager
  3
AcMeServices
 90
        0
280
     0
281
     0
  0
CLASS
  1
AMDTINTERNALREACTOR
  2
AmdtInternalReactor
  3
AcMeServices
 90
        0
280
     0
281
     0
  0
CLASS
  1
ACMESTATEMGR
  2
AcMeStateMgr
  3
AcMeServices
 90
        0
280
     0
281
     0
  0
CLASS
  1
ACGREFMASTER
  2
AcGrefMaster
  3
AcAttribServices
 90
        0
280
     0
281
     0
  0
CLASS
  1
AM_DRAWING_MGR
  2
AcDmDwgMgr
  3
AcMechDwgViewMgmt
 90
        0
280
     0
281
     0
  0
CLASS
  1
AM_DWG_DOCUMENT
  2
AcDmDwgDocument
  3
AcMechDwgViewMgmt
 90
        0
280
     0
281
     0
  0
CLASS
  1
AM_DWG_SHEET
  2
AcDmSheet
  3
AcMechDwgViewMgmt
 90
        0
280
     0
281
     0
  0
CLASS
  1
AM_VIEWDIMPARMAP
  2
AcDmViewDimParMap
  3
AcMechDwgViewMgmt
 90
        0
280
     0
281
     0
  0
CLASS
  1
AM_DWGMGR_NAME
  2
AcDmDwgMgrName
  3
AcMechDwgViewMgmt
 90
        0
280
     0
281
     0
  0
CLASS
  1
ACME_DATABASE
  2
AcMeDbDatabase
  3
AcMeServices
 90
        0
280
     0
281
     0
  0
CLASS
  1
ACRFINSADJUSTERMGR
  2
AcRfInsAdjusterMgr
  3
AcMeServices
 90
        0
280
     0
281
     0
  0
CLASS
  1
ACGREFACADMASTER
  2
AcGrefacadMaster
  3
AcGrefServices
 90
        0
280
     0
281
     0
  0
CLASS
  1
AMDTMENUSTATEMGR
  2
AmdtMenuStateMgr
  3
McadcomServices
 90
        0
280
     0
281
     0
  0
CLASS
  1
AMDTMCOMMENUSTATE
  2
AmdtMcomMenuState
  3
McadcomServices
 90
        0
280
     0
281
     0
  0
CLASS
  1
AMIMASTER
  2
AmiMaster
  3
AmiServices
 90
        0
280
     0
281
     0
  0
CLASS
  1
ASAPP
  2
AcAsAppObject
  3
AutoSurfServices
 90
        0
280
     0
281
     0
  0
CLASS
  1
IM_STATIC_MAN
  2
AcImStaticVarManager
  3
AcMeServices
 90
        0
280
     0
281
     0
  0
CLASS
  1
ACIMSTRSYSVAR
  2
AcImStrSysVar
  3
AcMeServices
 90
        0
280
     0
281
     0
  0
CLASS
  1
ACIMDBLSTATICVAR
  2
AcImDblStaticVar
  3
AcMeServices
 90
        0
280
     0
281
     0
  0
CLASS
  1
ACIMSTRSTATICVAR
  2
AcImStrStaticVar
  3
AcMeServices
 90
        0
280
     0
281
     0
  0
CLASS
  1
ACIMINTSTATICVAR
  2
AcImIntStaticVar
  3
AcMeServices
 90
        0
280
     0
281
     0
  0
CLASS
  1
ACASGREFMASTER
  2
AcAsGrefMaster
  3
AutoSurfResolverServices
 90
        0
280
     0
281
     0
  0
CLASS
  1
ACADGREFMODULE
  2
AcAdGrefModule
  3
AdGrefServices
 90
        0
280
     0
281
     0
  0
CLASS
  1
AMDTMAPISURFMOUDULE
  2
AmdtMApiSurfModule
  3
MApiSurfServices
 90
        0
280
     0
281
     0
  0
CLASS
  1
MAPIAMMOUDLE
  2
MApiAmModule
  3
MApiAmServices
 90
        0
280
     0
281
     0
  0
CLASS
  1
AMDTADMENUSTATE
  2
AmdtAdMenuState
  3
DesignerServices
 90
        0
280
     0
281
     0
  0
CLASS
  1
ADAPPL
  2
AcAdAppl
  3
DesignerServices
 90
        0
280
     0
281
     0
  0
CLASS
  1
DEPMGR
  2
AcAdDepMgr
  3
DesignerServices
 90
        0
280
     0
281
     0
  0
CLASS
  1
PARAMMGR
  2
AcAdParamMgr
  3
DesignerServices
 90
        0
280
     0
281
     0
  0
CLASS
  1
PARAMSCOPE
  2
AcAdParamScope
  3
DesignerServices
 90
        0
280
     0
281
     0
  0
CLASS
  1
NAMEDAPPL
  2
AcAdNamedAppl
  3
DesignerServices
 90
        0
280
     0
281
     0
  0
CLASS
  1
AMDTDMMENUSTATE
  2
AmdtDmMenuState
  3
AcMechDwgViewMgmt
 90
        0
280
     0
281
     0
  0
CLASS
  1
MAPIADMODULE
  2
MApiAdModule
  3
MApiAdServices
 90
        0
280
     0
281
     0
  0
CLASS
  1
AMDTAMMENUSTATE
  2
AmdtAmMenuState
  3
DesignerAssemblies
 90
        0
280
     0
281
     0
  0
CLASS
  1
ACAMPROJECT
  2
AcAmProject
  3
DesignerAssemblies
 90
        0
280
     0
281
     0
  0
CLASS
  1
ACAMGRCOMPDEF
  2
AcAmGrCompDef
  3
DesignerAssemblies
 90
        0
280
     0
281
     0
  0
CLASS
  1
ACCMCONTEXT
  2
AcCmContext
  3
DesignerAssemblies
 90
        0
280
     0
281
     0
  0
CLASS
  1
ACAMCOMPDEF
  2
AcAmCompDef
  3
DesignerAssemblies
 90
        0
280
     0
281
     0
  0
CLASS
  1
ACAMCOMPDEFMGR
  2
AcAmCompDefMgr
  3
DesignerAssemblies
 90
        0
280
     0
281
     0
  0
CLASS
  1
AMCONTEXTMGR
  2
AcAmContextMgr
  3
DesignerAssemblies
 90
        0
280
     0
281
     0
  0
CLASS
  1
ACAMCONTEXTMODELER
  2
AcAmContextModeler
  3
DesignerAssemblies
 90
        0
280
     0
281
     0
  0
CLASS
  1
ACMDATADICTIONARY
  2
AcmDataDictionary
  3
"AcmSymBB|Product Description: AutoCAD Mechanical 2000|Company: Autodesk"
 90
        0
280
     0
281
     0
  0
CLASS
  1
ACMDATAENTRYBLOCK
  2
AcmDataEntryBlock
  3
"AcmSymBB|Product Description: AutoCAD Mechanical 2000|Company: Autodesk"
 90
        0
280
     0
281
     0
  0
CLASS
  1
CATALOGSTATE
  2
AcAmCatalogState
  3
DesignerAssemblies
 90
        0
280
     0
281
     0
  0
CLASS
  1
ACAMGRCOMPDEFSET
  2
AcAmGrCompDefSet
  3
DesignerAssemblies
 90
        0
280
     0
281
     0
  0
CLASS
  1
AMDTBROWSERDBTAB
  2
AmdtBrowserDbTab
  3
McadcomServices
 90
        0
280
     0
281
     0
  0
CLASS
  1
CBROWSERAPPOBJECT
  2
CBrowserAppObject
  3
McadcomServices
 90
        0
280
     0
281
     0
  0
CLASS
  1
DM_PLACEHOLDER
  2
AcDmSelsetPlaceholder
  3
AcMechDwgViewMgmt
 90
        0
280
     0
281
     0
  0
CLASS
  1
ACMSTANDARDANSI
  2
AcmStandardANSI
  3
"Amdt_StdImp|Product Description: AutoCAD Mechanical 2000|Company: Autodesk"
 90
        0
280
     0
281
     0
  0
CLASS
  1
AMGOBJPROPCFG
  2
AmgObjPropCfg
  3
"AmgLay|Product Description: AutoCAD Mechanical 2000|Company: Autodesk"
 90
        1
280
     0
281
     0
  0
CLASS
  1
ACMSURFSTANDARDANSI
  2
AcmSurfTextStdANSI
  3
"Amdt_StdImp|Product Description: AutoCAD Mechanical 2000|Company: Autodesk"
 90
        0
280
     0
281
     0
  0
CLASS
  1
ACMFCFSTANDARDANSI
  2
AcmFCFStdANSI
  3
"Amdt_StdImp|Product Description: AutoCAD Mechanical 2000|Company: Autodesk"
 90
        0
280
     0
281
     0
  0
CLASS
  1
ACMWELDSTANDARDANSI
  2
AcmWeldingStdANSI
  3
"Amdt_StdImp|Product Description: AutoCAD Mechanical 2000|Company: Autodesk"
 90
        0
280
     0
281
     0
  0
CLASS
  1
ACMIDSTANDARDANSI
  2
AcmIdStdANSI
  3
"Amdt_StdImp|Product Description: AutoCAD Mechanical 2000|Company: Autodesk"
 90
        0
280
     0
281
     0
  0
CLASS
  1
ACMDATUMSTANDARDANSI
  2
AcmDatumStdANSI
  3
"Amdt_StdImp|Product Description: AutoCAD Mechanical 2000|Company: Autodesk"
 90
        0
280
     0
281
     0
  0
CLASS
  1
ACMBOMSTANDARDANSI
  2
AcmBOMStdANSI
  3
"Amdt_StdImp|Product Description: AutoCAD Mechanical 2000|Company: Autodesk"
 90
        0
280
     0
281
     0
  0
CLASS
  1
ACMDETAILSTANDARDANSI
  2
AmdtDetailSymStdANSI
  3
"Amdt_StdImp|Product Description: AutoCAD Mechanical 2000|Company: Autodesk"
 90
        0
280
     0
281
     0
  0
CLASS
  1
ACMSECTIONSTANDARDANSI
  2
AmdtSectionSymStdANSI
  3
"Amdt_StdImp|Product Description: AutoCAD Mechanical 2000|Company: Autodesk"
 90
        0
280
     0
281
     0
  0
CLASS
  1
ACMCENTERLINESTANDARDANSI
  2
AmdtCenterLineStdANSI
  3
"Amdt_StdImp|Product Description: AutoCAD Mechanical 2000|Company: Autodesk"
 90
        0
280
     0
281
     0
  0
CLASS
  1
ACMTHREADLINESTANDARDANSI
  2
AmdtThreadLineStdANSI
  3
"Amdt_StdImp|Product Description: AutoCAD Mechanical 2000|Company: Autodesk"
 90
        0
280
     0
281
     0
  0
CLASS
  1
ACMNOTESTANDARDANSI
  2
AmdtNoteStdANSI
  3
"Amdt_StdImp|Product Description: AutoCAD Mechanical 2000|Company: Autodesk"
 90
        0
280
     0
281
     0
  0
CLASS
  1
ACAMGLAYSTD
  2
AcAmgLayStd
  3
"AcAmgLayStd|Product Description: AutoCAD Mechanical 2000|Company: Autodesk"
 90
        0
280
     0
281
     0
  0
CLASS
  1
ACAMGDIMSTD
  2
AcAmgDimStd
  3
"AcAmgDimStd|Product Description: AutoCAD Mechanical 2000|Company: Autodesk"
 90
        0
280
     0
281
     0
  0
CLASS
  1
ACAMGHOLECHARTSTDANSI
  2
AcAmgHoleChartStdANSI
  3
ACMSYMBB_MODULE_NAME
 90
        0
280
     0
281
     0
  0
CLASS
  1
ACAMGTITLESTD
  2
AcAmgTitleStd
  3
"TITLEAPP"
 90
        0
280
     0
281
     0
  0
CLASS
  1
ACAMGFILTERDAT
  2
AcAmgFilterDat
  3
"AcadM|Product Description: AutoCAD Mechanical 2000|Company: Autodesk"
 90
        0
280
     0
281
     0
  0
CLASS
  1
LAYER_INDEX
  2
AcDbLayerIndex
  3
AutoCAD 2000
 90
        0
280
     0
281
     0
  0
CLASS
  1
IDBUFFER
  2
AcDbIdBuffer
  3
AutoCAD 2000
 90
        0
280
     0
281
     0
  0
ENDSEC
  0
SECTION
  2
TABLES
  0
TABLE
  2
VPORT
  5
7CF
330
0
100
AcDbSymbolTable
 70
     5
  0
VPORT
  5
92A
330
7CF
100
AcDbSymbolTableRecord
100
AcDbViewportTableRecord
  2
*Active
 70
     0
 10
0.0
 20
0.0
 11
1.0
 21
1.0
 12
-133.9031463242306
 22
-33.74739117678297
 13
0.0
 23
0.0
 14
10.0
 24
10.0
 15
10.0
 25
10.0
 16
0.0
 26
0.0
 36
1.0
 17
321.4031463242306
 27
168.7473911767829
 37
0.0
 40
272.0478789506958
 41
1.515723270440251
 42
50.0
 43
0.0
 44
0.0
 50
0.0
 51
0.0
 71
     0
 72
   500
 73
     1
 74
     0
 75
     0
 76
     0
 77
     0
 78
     2
281
     0
 65
     0
110
0.0
120
0.0
130
0.0
111
1.0
121
0.0
131
0.0
112
0.0
122
1.0
132
0.0
 79
     0
146
0.0
  0
ENDTAB
  0
TABLE
  2
LTYPE
  5
7CC
330
0
100
AcDbSymbolTable
 70
    20
  0
LTYPE
  5
7DA
330
7CC
100
AcDbSymbolTableRecord
100
AcDbLinetypeTableRecord
  2
ByBlock
 70
     0
  3

 72
    65
 73
     0
 40
0.0
  0
LTYPE
  5
7DB
330
7CC
100
AcDbSymbolTableRecord
100
AcDbLinetypeTableRecord
  2
ByLayer
 70
     0
  3

 72
    65
 73
     0
 40
0.0
  0
LTYPE
  5
7DC
330
7CC
100
AcDbSymbolTableRecord
100
AcDbLinetypeTableRecord
  2
CONTINUOUS
 70
     0
  3
Solid Line
 72
    65
 73
     0
 40
0.0
  0
LTYPE
  5
7EB
330
7CC
100
AcDbSymbolTableRecord
100
AcDbLinetypeTableRecord
  2
CENTER
 70
     0
  3
____ _ ____ _ ____ _ ____ _ ____ _ ____ _ ____
 72
    65
 73
     4
 40
2.0
 49
1.25
 74
     0
 49
-0.25
 74
     0
 49
0.25
 74
     0
 49
-0.25
 74
     0
  0
LTYPE
  5
7EC
330
7CC
100
AcDbSymbolTableRecord
100
AcDbLinetypeTableRecord
  2
HIDDEN
 70
     0
  3
_ _ _ _ _ _ _ _ _ _ _ _ _ _ _ _ _ _ _ _ _ _ _
 72
    65
 73
     2
 40
0.375
 49
0.25
 74
     0
 49
-0.125
 74
     0
  0
LTYPE
  5
7ED
330
7CC
100
AcDbSymbolTableRecord
100
AcDbLinetypeTableRecord
  2
PHANTOM
 70
     0
  3
_____ _ _ _____ _ _ _____ _ _ _____ _ _ ____
 72
    65
 73
     6
 40
2.5
 49
1.25
 74
     0
 49
-0.25
 74
     0
 49
0.25
 74
     0
 49
-0.25
 74
     0
 49
0.25
 74
     0
 49
-0.25
 74
     0
  0
LTYPE
  5
7EE
330
7CC
100
AcDbSymbolTableRecord
100
AcDbLinetypeTableRecord
  2
PHA-05
 70
     0
  3
_____ _ _ _____ _ _ _____ _ _ _____ _ _ ____
 72
    65
 73
     6
 40
1.25
 49
0.625
 74
     0
 49
-0.125
 74
     0
 49
0.125
 74
     0
 49
-0.125
 74
     0
 49
0.125
 74
     0
 49
-0.125
 74
     0
  0
LTYPE
  5
840
330
7CC
100
AcDbSymbolTableRecord
100
AcDbLinetypeTableRecord
  2
PHANTOM2
 70
     0
  3
Phantom (.5x) ___ _ _ ___ _ _ ___ _ _ ___ _ _
 72
    65
 73
     6
 40
1.25
 49
0.625
 74
     0
 49
-0.125
 74
     0
 49
0.125
 74
     0
 49
-0.125
 74
     0
 49
0.125
 74
     0
 49
-0.125
 74
     0
  0
LTYPE
  5
8A2
330
7CC
100
AcDbSymbolTableRecord
100
AcDbLinetypeTableRecord
  2
ASULTYPE
 70
     0
  3
実線
 72
    65
 73
     2
 40
3.0
 49
2.5
 74
     0
 49
0.5
 74
     0
  0
LTYPE
  5
8A3
330
7CC
100
AcDbSymbolTableRecord
100
AcDbLinetypeTableRecord
  2
ASVLTYPE
 70
     0
  3
__ __ __ __ __ __ __ __ __ __ __ __ __ __ __ __ __ __ __ __ __
 72
    65
 73
     2
 40
0.75
 49
0.5
 74
     0
 49
-0.25
 74
     0
  0
LTYPE
  5
8E7
330
7CC
100
AcDbSymbolTableRecord
100
AcDbLinetypeTableRecord
  2
AM_ISO02W050
 70
     0
  3
__ __ __ __ __ __ __ __ __ __ __ __ __ __ __
 72
    65
 73
     2
 40
7.5
 49
6.0
 74
     0
 49
-1.5
 74
     0
  0
LTYPE
  5
8E8
330
7CC
100
AcDbSymbolTableRecord
100
AcDbLinetypeTableRecord
  2
AM_ISO08W050
 70
     0
  3
____ . ____ . ____ . ____ . ____ . ____ . ____
 72
    65
 73
     4
 40
18.0
 49
12.0
 74
     0
 49
-1.5
 74
     0
 49
3.0
 74
     0
 49
-1.5
 74
     0
  0
LTYPE
  5
8E9
330
7CC
100
AcDbSymbolTableRecord
100
AcDbLinetypeTableRecord
  2
AM_ISO09W050
 70
     0
  3
_____ . . _____ . . _____ . . ____ .. ____
 72
    65
 73
     6
 40
22.5
 49
12.0
 74
     0
 49
-1.5
 74
     0
 49
3.0
 74
     0
 49
-1.5
 74
     0
 49
3.0
 74
     0
 49
-1.5
 74
     0
  0
LTYPE
  5
8EA
330
7CC
100
AcDbSymbolTableRecord
100
AcDbLinetypeTableRecord
  2
Amconstr
 70
     0
  3
_______________________
 72
    65
 73
     2
 40
9999.0
 49
9999.0
 74
     0
 49
0.0
 74
     0
  0
LTYPE
  5
8EB
330
7CC
100
AcDbSymbolTableRecord
100
AcDbLinetypeTableRecord
  2
AM_ISO08W050x2
 70
     0
  3
__ . __ . __ . __ . __ . __
 72
    65
 73
     4
 40
9.0
 49
6.0
 74
     0
 49
-0.75
 74
     0
 49
1.5
 74
     0
 49
-0.75
 74
     0
  0
LTYPE
  5
8EC
330
7CC
100
AcDbSymbolTableRecord
100
AcDbLinetypeTableRecord
  2
AM_ISO02W050x2
 70
     0
  3
 _ _ _ _ _ _ _ _ _ _ _ _
 72
    65
 73
     2
 40
3.75
 49
3.0
 74
     0
 49
-0.75
 74
     0
  0
LTYPE
  5
8EF
330
7CC
100
AcDbSymbolTableRecord
100
AcDbLinetypeTableRecord
  2
Amzigzag
 70
     0
  3
/\/-/\/-/\/-/\/-/\/-/\/
 72
    65
 73
     2
 40
11.00009999999999
 49
0.0001
 74
     4
 75
   135
340
8EE
 46
0.04
 50
0.0
 44
0.0
 45
0.0
 49
-11.0
 74
     0
  0
LTYPE
  5
8F0
330
7CC
100
AcDbSymbolTableRecord
100
AcDbLinetypeTableRecord
  2
CENTER2
 70
     0
  3
Center (.5x) ___ _ ___ _ ___ _ ___ _ ___ _ ___
 72
    65
 73
     4
 40
1.125
 49
0.75
 74
     0
 49
-0.125
 74
     0
 49
0.125
 74
     0
 49
-0.125
 74
     0
  0
LTYPE
  5
8F1
330
7CC
100
AcDbSymbolTableRecord
100
AcDbLinetypeTableRecord
  2
HIDDEN2
 70
     0
  3
Hidden (.5x) _ _ _ _ _ _ _ _ _ _ _ _ _ _ _ _ _
 72
    65
 73
     2
 40
0.1875
 49
0.125
 74
     0
 49
-0.0625
 74
     0
  0
LTYPE
  5
8F2
330
7CC
100
AcDbSymbolTableRecord
100
AcDbLinetypeTableRecord
  2
Amzigzag2
 70
     0
  3
/\/-/\/-/\/-/\/-/\/-/\/
 72
    65
 73
     2
 40
0.4401
 49
0.0001
 74
     4
 75
   135
340
8EE
 46
0.0016
 50
0.0
 44
0.0
 45
0.0
 49
-0.4400000000000001
 74
     0
  0
LTYPE
  5
900
330
7CC
100
AcDbSymbolTableRecord
100
AcDbLinetypeTableRecord
  2
ACANSTGB
 70
     0
  3
__ . . __ . .
 72
    65
 73
     6
 40
0.35433070866
 49
0.15748031496
 74
     0
 49
-0.03937007874
 74
     0
 49
0.03937007874
 74
     0
 49
-0.03937007874
 74
     0
 49
0.03937007874
 74
     0
 49
-0.03937007874
 74
     0
  0
LTYPE
  5
901
330
7CC
100
AcDbSymbolTableRecord
100
AcDbLinetypeTableRecord
  2
ACANSTGL
 70
     0
  3
_ _ _ _ _
 72
    65
 73
     2
 40
0.11811023622
 49
0.07874015748
 74
     0
 49
-0.03937007874
 74
     0
  0
ENDTAB
  0
TABLE
  2
LAYER
  5
7C9
330
0
100
AcDbSymbolTable
 70
     5
  0
LAYER
  5
7D7
330
7C9
100
AcDbSymbolTableRecord
100
AcDbLayerTableRecord
  2
0
 70
     0
 62
     7
  6
CONTINUOUS
370
    -3
390
7D6
  0
LAYER
  5
7F2
330
7C9
100
AcDbSymbolTableRecord
100
AcDbLayerTableRecord
  2
1
 70
     0
 62
     1
  6
CENTER
370
    -3
390
7D6
  0
LAYER
  5
7F3
330
7C9
100
AcDbSymbolTableRecord
100
AcDbLayerTableRecord
  2
3
 70
     0
 62
     7
  6
CONTINUOUS
370
    -3
390
7D6
  0
LAYER
  5
7F6
330
7C9
100
AcDbSymbolTableRecord
100
AcDbLayerTableRecord
  2
2
 70
     0
 62
     3
  6
HIDDEN
370
    -3
390
7D6
  0
LAYER
  5
7F7
330
7C9
100
AcDbSymbolTableRecord
100
AcDbLayerTableRecord
  2
5
 70
     0
 62
     7
  6
PHANTOM
370
    -3
390
7D6
  0
ENDTAB
  0
TABLE
  2
STYLE
  5
7CA
330
0
100
AcDbSymbolTable
 70
     5
  0
STYLE
  5
7D8
330
7CA
100
AcDbSymbolTableRecord
100
AcDbTextStyleTableRecord
  2
STANDARD
 70
     0
 40
0.0
 41
0.7
 50
0.0
 71
     0
 42
6.0
  3
SIMPLEX.shx
  4
BIGFONT.shx
  0
STYLE
  5
7EA
330
7CA
100
AcDbSymbolTableRecord
100
AcDbTextStyleTableRecord
  2
SIM065
 70
     0
 40
0.0
 41
0.65
 50
0.0
 71
     0
 42
3.2
  3
SIMPLEX
  4

  0
STYLE
  5
8EE
330
7CA
100
AcDbSymbolTableRecord
100
AcDbTextStyleTableRecord
  2

 70
     1
 40
0.0
 41
1.0
 50
0.0
 71
     0
 42
4.000000000000048
  3
ltypeshp.shx
  4

  0
STYLE
  5
8F3
330
7CA
100
AcDbSymbolTableRecord
100
AcDbTextStyleTableRecord
  2
ACANSTS
 70
     0
 40
1.0
 41
1.0
 50
0.0
 71
     0
 42
4.000000000000048
  3
romans.shx
  4
extfont.shx
  0
STYLE
  5
8FF
330
7CA
100
AcDbSymbolTableRecord
100
AcDbTextStyleTableRecord
  2
ACANSGDT
 70
     0
 40
0.0
 41
1.0
 50
0.0
 71
     0
 42
4.000000000000048
  3
amgdtans.shx
  4

  0
ENDTAB
  0
TABLE
  2
VIEW
  5
7CD
330
0
100
AcDbSymbolTable
 70
     1
  0
VIEW
  5
7EF
330
7CD
100
AcDbSymbolTableRecord
100
AcDbViewTableRecord
  2
ALL
 70
     0
 40
270.0
 10
220.7859531772575
 20
135.0
 41
441.571906354515
 11
0.0
 21
0.0
 31
1.0
 12
0.0
 22
0.0
 32
0.0
 42
50.0
 43
0.0
 44
0.0
 50
0.0
 71
     0
281
     0
 72
     0
  0
ENDTAB
  0
TABLE
  2
UCS
  5
7CE
330
0
100
AcDbSymbolTable
 70
     0
  0
ENDTAB
  0
TABLE
  2
APPID
  5
7D0
330
0
100
AcDbSymbolTable
 70
    13
  0
APPID
  5
7D9
330
7D0
100
AcDbSymbolTableRecord
100
AcDbRegAppTableRecord
  2
ACAD
 70
     0
  0
APPID
  5
81E
330
7D0
100
AcDbSymbolTableRecord
100
AcDbRegAppTableRecord
  2
GENIUS_GENDIM_13
 70
     0
  0
APPID
  5
81F
330
7D0
100
AcDbSymbolTableRecord
100
AcDbRegAppTableRecord
  2
GENIUS_GENDTOL_13
 70
     0
  0
APPID
  5
820
330
7D0
100
AcDbSymbolTableRecord
100
AcDbRegAppTableRecord
  2
GENIUS_GE3DTOL_13
 70
     0
  0
APPID
  5
823
330
7D0
100
AcDbSymbolTableRecord
100
AcDbRegAppTableRecord
  2
MCAD_NO_VIS
 70
     0
  0
APPID
  5
824
330
7D0
100
AcDbSymbolTableRecord
100
AcDbRegAppTableRecord
  2
ACAD_TEMP_GRAPHIC
 70
     0
  0
APPID
  5
855
330
7D0
100
AcDbSymbolTableRecord
100
AcDbRegAppTableRecord
  2
AD_DRAW
 70
     0
  0
APPID
  5
858
330
7D0
100
AcDbSymbolTableRecord
100
AcDbRegAppTableRecord
  2
ACATTRIBSERVICES
 70
     0
  0
APPID
  5
8A4
330
7D0
100
AcDbSymbolTableRecord
100
AcDbRegAppTableRecord
  2
ASURF_PCURVE_APPNAME
 70
     0
  0
APPID
  5
8A9
330
7D0
100
AcDbSymbolTableRecord
100
AcDbRegAppTableRecord
  2
AMG_3D2D_5.0
 70
     0
  0
APPID
  5
8D4
330
7D0
100
AcDbSymbolTableRecord
100
AcDbRegAppTableRecord
  2
DESIGNERASSEMBLIES
 70
     0
  0
APPID
  5
8DC
330
7D0
100
AcDbSymbolTableRecord
100
AcDbRegAppTableRecord
  2
ACADM_DIM_EDIT
 70
     0
  0
APPID
  5
8DD
330
7D0
100
AcDbSymbolTableRecord
100
AcDbRegAppTableRecord
  2
AMDT_DM_ADJ
 70
     0
  0
ENDTAB
  0
TABLE
  2
DIMSTYLE
  5
7D1
330
0
100
AcDbSymbolTable
 70
     7
100
AcDbDimStyleTable
 71
     1
340
7F1
  0
DIMSTYLE
105
7F1
330
7D1
100
AcDbSymbolTableRecord
100
AcDbDimStyleTableRecord
  2
STANDARD
 70
     0
271
     1
272
     1
279
     2
340
7D8
  0
DIMSTYLE
105
906
330
7D1
100
AcDbSymbolTableRecord
100
AcDbDimStyleTableRecord
  2
AM_ANSI
 70
     0
  4
mm
 41
0.1
 42
0.05
 43
0.5
 44
0.1
 47
0.1
 48
0.1
 78
     7
 79
     2
140
0.12
141
0.0
146
0.71
147
0.06
176
   256
177
   256
178
     2
274
     4
284
     7
340
7D8
371
    -1
372
    -1
  0
DIMSTYLE
105
907
330
7D1
100
AcDbSymbolTableRecord
100
AcDbDimStyleTableRecord
  2
AM_ANSI$3
 70
     0
  4
mm
 41
0.1
 42
0.05
 43
0.5
 44
0.1
 47
0.1
 48
0.1
 78
     7
 79
     2
140
0.12
141
0.0
146
0.71
147
0.06
176
   256
177
   256
178
     2
274
     4
284
     7
288
     1
289
     0
340
7D8
371
    -1
372
    -1
  0
DIMSTYLE
105
908
330
7D1
100
AcDbSymbolTableRecord
100
AcDbDimStyleTableRecord
  2
AM_ANSI$4
 70
     0
  4
mm
 41
0.1
 42
0.05
 43
0.5
 44
0.1
 47
0.1
 48
0.1
 78
     7
 79
     2
140
0.12
141
0.0
146
0.71
147
0.06
176
   256
177
   256
178
     2
274
     4
284
     7
288
     1
289
     0
340
7D8
371
    -1
372
    -1
  0
DIMSTYLE
105
909
330
7D1
100
AcDbSymbolTableRecord
100
AcDbDimStyleTableRecord
  2
AM_ANSI$7
 70
     0
  4
mm
 41
0.1
 42
0.05
 43
0.5
 44
0.1
 47
0.1
 48
0.1
 78
     7
 79
     2
140
0.24
141
0.0
146
0.71
147
0.06
176
   256
177
   256
178
     2
274
     4
284
     7
340
7D8
371
    -1
372
    -1
  0
DIMSTYLE
105
90A
330
7D1
100
AcDbSymbolTableRecord
100
AcDbDimStyleTableRecord
  2
AM_ANSI$SF
 70
     0
  4
mm
 41
0.1
 42
0.05
 43
0.5
 44
0.1
 47
0.1
 48
0.1
 75
     1
 76
     1
 78
     7
 79
     2
140
0.12
141
0.0
146
0.71
147
0.06
176
   256
177
   256
178
     2
274
     4
284
     7
340
7D8
371
    -1
372
    -1
  0
DIMSTYLE
105
90F
330
7D1
100
AcDbSymbolTableRecord
100
AcDbDimStyleTableRecord
  2
AM_ANSI$SH
 70
     0
  4
mm
 41
0.1
 42
0.05
 43
0.5
 44
0.1
 47
0.1
 48
0.1
 75
     1
 76
     1
 78
     7
 79
     2
140
0.12
141
0.0
146
0.71
147
0.06
173
     1
176
   256
177
   256
178
     2
274
     4
284
     7
340
7D8
343
90B
371
    -1
372
    -1
  0
ENDTAB
  0
TABLE
  2
BLOCK_RECORD
  5
7C8
330
0
100
AcDbSymbolTable
 70
     3
  0
BLOCK_RECORD
  5
7E5
102
{ACAD_XDICTIONARY
360
91F
102
}
330
7C8
100
AcDbSymbolTableRecord
100
AcDbBlockTableRecord
  2
*Model_Space
340
7E8
  0
BLOCK_RECORD
  5
7E1
330
7C8
100
AcDbSymbolTableRecord
100
AcDbBlockTableRecord
  2
*Paper_Space
340
7E4
  0
BLOCK_RECORD
  5
7E9
330
7C8
100
AcDbSymbolTableRecord
100
AcDbBlockTableRecord
  2
STDGX5
340
0
102
{BLKREFS
331
38A
331
38B
331
38C
331
38D
331
452
331
453
331
454
331
455
331
7B1
331
7B2
331
7B3
331
7B4
102
}
  0
BLOCK_RECORD
  5
8CB
330
7C8
100
AcDbSymbolTableRecord
100
AcDbBlockTableRecord
  2
*U1
340
0
  0
BLOCK_RECORD
  5
90B
330
7C8
100
AcDbSymbolTableRecord
100
AcDbBlockTableRecord
  2
GENAXEH
340
0
  0
ENDTAB
  0
ENDSEC
  0
SECTION
  2
BLOCKS
  0
BLOCK
  5
7FA
330
7E5
100
AcDbEntity
  8
0
100
AcDbBlockBegin
  2
*Model_Space
 70
     0
 10
0.0
 20
0.0
 30
0.0
  3
*Model_Space
  1

  0
ENDBLK
  5
7FB
330
7E5
100
AcDbEntity
  8
0
100
AcDbBlockEnd
  0
BLOCK
  5
7F8
330
7E1
100
AcDbEntity
 67
     1
  8
0
100
AcDbBlockBegin
  2
*Paper_Space
 70
     0
 10
0.0
 20
0.0
 30
0.0
  3
*Paper_Space
  1

  0
ENDBLK
  5
7F9
330
7E1
100
AcDbEntity
 67
     1
  8
0
100
AcDbBlockEnd
  0
BLOCK
  5
2ED
330
7E9
100
AcDbEntity
  8
0
100
AcDbBlockBegin
  2
STDGX5
 70
     0
 10
0.0
 20
0.0
 30
0.0
  3
STDGX5
  1

  0
ENDBLK
  5
2EE
330
7E9
100
AcDbEntity
  8
0
100
AcDbBlockEnd
  0
BLOCK
  5
8CC
330
8CB
100
AcDbEntity
  8
0
100
AcDbBlockBegin
  2
*U1
 70
     1
 10
0.0
 20
0.0
 30
0.0
  3
*U1
  1

  0
ENDBLK
  5
8CD
330
8CB
100
AcDbEntity
  8
0
100
AcDbBlockEnd
  0
BLOCK
  5
90D
330
90B
100
AcDbEntity
  8
0
100
AcDbBlockBegin
  2
GENAXEH
 70
     0
 10
0.0
 20
0.0
 30
0.0
  3
GENAXEH
  1

  0
LINE
  5
90C
330
90B
100
AcDbEntity
  8
0
100
AcDbLine
 10
-1.0
 20
0.0
 30
0.0
 11
1.0
 21
0.0
 31
0.0
  0
ENDBLK
  5
90E
330
90B
100
AcDbEntity
  8
0
100
AcDbBlockEnd
  0
ENDSEC
  0
SECTION
  2
ENTITIES
  0
INSERT
  5
38A
330
7E5
100
AcDbEntity
  8
0
100
AcDbBlockReference
  2
STDGX5
 10
0.0
 20
0.0
 30
0.0
  0
INSERT
  5
38B
330
7E5
100
AcDbEntity
  8
0
100
AcDbBlockReference
  2
STDGX5
 10
0.0
 20
0.0
 30
0.0
  0
INSERT
  5
38C
330
7E5
100
AcDbEntity
  8
0
100
AcDbBlockReference
  2
STDGX5
 10
275.0
 20
0.0
 30
0.0
  0
INSERT
  5
38D
330
7E5
100
AcDbEntity
  8
0
100
AcDbBlockReference
  2
STDGX5
 10
275.0
 20
0.0
 30
0.0
  0
INSERT
  5
452
330
7E5
100
AcDbEntity
  8
0
100
AcDbBlockReference
  2
STDGX5
 10
0.0
 20
0.0
 30
0.0
 41
2.0
 42
2.0
 43
2.0
  0
INSERT
  5
453
330
7E5
100
AcDbEntity
  8
0
100
AcDbBlockReference
  2
STDGX5
 10
0.0
 20
0.0
 30
0.0
 41
2.0
 42
2.0
 43
2.0
  0
INSERT
  5
454
330
7E5
100
AcDbEntity
  8
0
100
AcDbBlockReference
  2
STDGX5
 10
550.0
 20
0.0
 30
0.0
 41
2.0
 42
2.0
 43
2.0
  0
INSERT
  5
455
330
7E5
100
AcDbEntity
  8
0
100
AcDbBlockReference
  2
STDGX5
 10
550.0
 20
0.0
 30
0.0
 41
2.0
 42
2.0
 43
2.0
  0
LINE
  5
61B
330
7E5
100
AcDbEntity
  8
2
100
AcDbLine
 10
210.1877744830071
 20
157.2882696681304
 30
0.0
 11
205.1877744830071
 21
157.2882696681304
 31
0.0
  0
LINE
  5
61C
330
7E5
100
AcDbEntity
  8
2
100
AcDbLine
 10
210.1877744830071
 20
154.2882696681304
 30
0.0
 11
205.1877744830071
 21
154.2882696681304
 31
0.0
  0
LINE
  5
61D
330
7E5
100
AcDbEntity
  8
1
100
AcDbLine
 10
177.6877744830072
 20
131.4547984423771
 30
0.0
 11
177.6877744830069
 21
122.2499552852982
 31
0.0
  0
POLYLINE
  5
61E
330
7E5
100
AcDbEntity
  8
0
100
AcDb2dPolyline
 66
     1
 10
0.0
 20
0.0
 30
0.0
  0
VERTEX
  5
61F
330
61E
100
AcDbEntity
  8
0
100
AcDbVertex
100
AcDb2dVertex
 10
179.6877744830072
 20
127.0405848799994
 30
0.0
 42
0.1332561510785427
  0
VERTEX
  5
620
330
61E
100
AcDbEntity
  8
0
100
AcDbVertex
100
AcDb2dVertex
 10
179.5484071098029
 20
127.5542294567261
 30
0.0
 42
0.1067562697215899
  0
VERTEX
  5
621
330
61E
100
AcDbEntity
  8
0
100
AcDbVertex
100
AcDb2dVertex
 10
179.1019880453803
 20
128.0405848800027
 30
0.0
 42
0.0828275296411588
 70
     2
 50
144.7356103171562
  0
VERTEX
  5
622
330
61E
100
AcDbEntity
  8
0
100
AcDbVertex
100
AcDb2dVertex
 10
178.4800814568769
 20
128.3411548986378
 30
0.0
 42
0.0713517487533345
 50
144.7356103171562
  0
VERTEX
  5
623
330
61E
100
AcDbEntity
  8
0
100
AcDbVertex
100
AcDb2dVertex
 10
177.6877744830072
 20
128.4547984423771
 30
0.0
 42
0.0713517487533383
  0
VERTEX
  5
624
330
61E
100
AcDbEntity
  8
0
100
AcDbVertex
100
AcDb2dVertex
 10
176.8954675091375
 20
128.3411548986378
 30
0.0
 42
0.0828275296411759
  0
VERTEX
  5
625
330
61E
100
AcDbEntity
  8
0
100
AcDbVertex
100
AcDb2dVertex
 10
176.2735609206341
 20
128.0405848800027
 30
0.0
 42
0.1067562697215909
 70
     2
 50
215.2643896828442
  0
VERTEX
  5
626
330
61E
100
AcDbEntity
  8
0
100
AcDbVertex
100
AcDb2dVertex
 10
175.8271418562114
 20
127.554229456726
 30
0.0
 42
0.1332561510785051
 50
215.2643896828441
  0
VERTEX
  5
627
330
61E
100
AcDbEntity
  8
0
100
AcDbVertex
100
AcDb2dVertex
 10
175.6877744830072
 20
127.0405848799993
 30
0.0
 42
0.1332561510785378
  0
SEQEND
  5
628
330
61E
100
AcDbEntity
  8
0
  0
LINE
  5
629
330
7E5
100
AcDbEntity
  8
0
100
AcDbLine
 10
179.6877744830086
 20
126.664168847676
 30
0.0
 11
179.6877744830086
 21
127.0405848799993
 31
0.0
  0
LINE
  5
62A
330
7E5
100
AcDbEntity
  8
0
100
AcDbLine
 10
175.6877744830071
 20
126.664168847676
 30
0.0
 11
175.6877744830071
 21
127.0405848799993
 31
0.0
  0
LINE
  5
62B
330
7E5
100
AcDbEntity
  8
0
100
AcDbLine
 10
177.1104242142876
 20
125.7449300327087
 30
0.0
 11
176.5330739455678
 21
126.4520368133199
 31
0.0
  0
LINE
  5
62C
330
7E5
100
AcDbEntity
  8
0
100
AcDbLine
 10
178.2651247517265
 20
125.7449300327087
 30
0.0
 11
177.1104242142876
 21
125.7449300327087
 31
0.0
  0
LINE
  5
62D
330
7E5
100
AcDbEntity
  8
0
100
AcDbLine
 10
178.8424750204465
 20
126.4520368133199
 30
0.0
 11
178.2651247517265
 21
125.7449300327087
 31
0.0
  0
LINE
  5
62E
330
7E5
100
AcDbEntity
  8
0
100
AcDbLine
 10
178.2651247517265
 20
127.1591435939307
 30
0.0
 11
178.8424750204465
 21
126.4520368133199
 31
0.0
  0
LINE
  5
62F
330
7E5
100
AcDbEntity
  8
0
100
AcDbLine
 10
177.1104242142876
 20
127.1591435939307
 30
0.0
 11
178.2651247517265
 21
127.1591435939307
 31
0.0
  0
LINE
  5
630
330
7E5
100
AcDbEntity
  8
0
100
AcDbLine
 10
176.5330739455678
 20
126.4520368133199
 30
0.0
 11
177.1104242142876
 21
127.1591435939307
 31
0.0
  0
POLYLINE
  5
631
330
7E5
100
AcDbEntity
  8
0
100
AcDb2dPolyline
 66
     1
 10
0.0
 20
0.0
 30
0.0
 70
     1
  0
VERTEX
  5
632
330
631
100
AcDbEntity
  8
0
100
AcDbVertex
100
AcDb2dVertex
 10
175.6877744830071
 20
126.664168847676
 30
0.0
 42
0.1332561510785378
  0
VERTEX
  5
633
330
631
100
AcDbEntity
  8
0
100
AcDbVertex
100
AcDb2dVertex
 10
175.8271418562114
 20
126.1505242709494
 30
0.0
 42
0.1067562697216182
  0
VERTEX
  5
634
330
631
100
AcDbEntity
  8
0
100
AcDbVertex
100
AcDb2dVertex
 10
176.2735609206341
 20
125.6641688476727
 30
0.0
 42
0.082827529641178
 70
     2
 50
324.7356103171563
  0
VERTEX
  5
635
330
631
100
AcDbEntity
  8
0
100
AcDbVertex
100
AcDb2dVertex
 10
176.9617389316502
 20
125.3315695772691
 30
0.0
 42
0.0867079104444153
 50
324.7356103171563
  0
VERTEX
  5
636
330
631
100
AcDbEntity
  8
0
100
AcDbVertex
100
AcDb2dVertex
 10
177.6877744830072
 20
125.2499552852982
 30
0.0
 42
0.0713517487533383
  0
VERTEX
  5
637
330
631
100
AcDbEntity
  8
0
100
AcDbVertex
100
AcDb2dVertex
 10
178.4800814568768
 20
125.3635988290375
 30
0.0
 42
0.082827529641176
  0
VERTEX
  5
638
330
631
100
AcDbEntity
  8
0
100
AcDbVertex
100
AcDb2dVertex
 10
179.1019880453803
 20
125.6641688476727
 30
0.0
 42
0.1067562697215934
 70
     2
 50
35.26438968284415
  0
VERTEX
  5
639
330
631
100
AcDbEntity
  8
0
100
AcDbVertex
100
AcDb2dVertex
 10
179.5484071098029
 20
126.1505242709493
 30
0.0
 42
0.1332561510785433
 50
35.26438968284415
  0
VERTEX
  5
63A
330
631
100
AcDbEntity
  8
0
100
AcDbVertex
100
AcDb2dVertex
 10
179.6877744830072
 20
126.664168847676
 30
0.0
 42
0.1332561510785427
  0
VERTEX
  5
63B
330
631
100
AcDbEntity
  8
0
100
AcDbVertex
100
AcDb2dVertex
 10
179.5484071098029
 20
127.1778134244027
 30
0.0
 42
0.1067562697215899
  0
VERTEX
  5
63C
330
631
100
AcDbEntity
  8
0
100
AcDbVertex
100
AcDb2dVertex
 10
179.1019880453803
 20
127.6641688476793
 30
0.0
 42
0.0828275296411588
 70
     2
 50
144.7356103171562
  0
VERTEX
  5
63D
330
631
100
AcDbEntity
  8
0
100
AcDbVertex
100
AcDb2dVertex
 10
178.4800814568769
 20
127.9647388663144
 30
0.0
 42
0.0713517487533345
 50
144.7356103171562
  0
VERTEX
  5
63E
330
631
100
AcDbEntity
  8
0
100
AcDbVertex
100
AcDb2dVertex
 10
177.6877744830072
 20
128.0783824100538
 30
0.0
 42
0.0713517487533383
  0
VERTEX
  5
63F
330
631
100
AcDbEntity
  8
0
100
AcDbVertex
100
AcDb2dVertex
 10
176.8954675091375
 20
127.9647388663144
 30
0.0
 42
0.0828275296411759
  0
VERTEX
  5
640
330
631
100
AcDbEntity
  8
0
100
AcDbVertex
100
AcDb2dVertex
 10
176.2735609206341
 20
127.6641688476793
 30
0.0
 42
0.1067562697215909
 70
     2
 50
215.2643896828442
  0
VERTEX
  5
641
330
631
100
AcDbEntity
  8
0
100
AcDbVertex
100
AcDb2dVertex
 10
175.8271418562114
 20
127.1778134244026
 30
0.0
 42
0.1332561510785051
 50
215.2643896828441
  0
SEQEND
  5
642
330
631
100
AcDbEntity
  8
0
  0
POLYLINE
  5
643
330
7E5
100
AcDbEntity
  8
3
100
AcDb2dPolyline
 66
     1
 10
0.0
 20
0.0
 30
0.0
 70
     1
  0
VERTEX
  5
644
330
643
100
AcDbEntity
  8
3
100
AcDbVertex
100
AcDb2dVertex
 10
176.0667744830074
 20
126.5094427455906
 30
0.0
 42
0.1332561510783856
  0
VERTEX
  5
645
330
643
100
AcDbEntity
  8
3
100
AcDbVertex
100
AcDb2dVertex
 10
176.1797317389895
 20
126.0931338161529
 30
0.0
 42
0.1067562697215594
  0
VERTEX
  5
646
330
643
100
AcDbEntity
  8
3
100
AcDbVertex
100
AcDb2dVertex
 10
176.541554390704
 20
125.6989427455869
 30
0.0
 42
0.0828275296412491
 70
     2
 50
324.7356103171162
  0
VERTEX
  5
647
330
643
100
AcDbEntity
  8
3
100
AcDbVertex
100
AcDb2dVertex
 10
177.0993226686325
 20
125.4293710369244
 30
0.0
 42
0.0867079104445219
 50
324.7356103171162
  0
VERTEX
  5
648
330
643
100
AcDbEntity
  8
3
100
AcDbVertex
100
AcDb2dVertex
 10
177.6877744830072
 20
125.3632226532819
 30
0.0
 42
0.0713517487534402
  0
VERTEX
  5
649
330
643
100
AcDbEntity
  8
3
100
AcDbVertex
100
AcDb2dVertex
 10
178.3299392853284
 20
125.4553307454828
 30
0.0
 42
0.082827529641251
  0
VERTEX
  5
64A
330
643
100
AcDbEntity
  8
3
100
AcDbVertex
100
AcDb2dVertex
 10
178.8339945753104
 20
125.6989427455869
 30
0.0
 42
0.1067562697216031
 70
     2
 50
35.26438968288432
  0
VERTEX
  5
64B
330
643
100
AcDbEntity
  8
3
100
AcDbVertex
100
AcDb2dVertex
 10
179.1958172270248
 20
126.093133816153
 30
0.0
 42
0.1332561510783838
 50
35.26438968288432
  0
VERTEX
  5
64C
330
643
100
AcDbEntity
  8
3
100
AcDbVertex
100
AcDb2dVertex
 10
179.3087744830069
 20
126.5094427455906
 30
0.0
 42
0.1332561510783027
  0
VERTEX
  5
64D
330
643
100
AcDbEntity
  8
3
100
AcDbVertex
100
AcDb2dVertex
 10
179.1958172270249
 20
126.9257516750283
 30
0.0
 42
0.1067562697215362
  0
VERTEX
  5
64E
330
643
100
AcDbEntity
  8
3
100
AcDbVertex
100
AcDb2dVertex
 10
178.8339945753104
 20
127.3199427455944
 30
0.0
 42
0.0828275296412412
 70
     2
 50
144.7356103171161
  0
VERTEX
  5
64F
330
643
100
AcDbEntity
  8
3
100
AcDbVertex
100
AcDb2dVertex
 10
178.3299392853284
 20
127.5635547456985
 30
0.0
 42
0.071351748753442
 50
144.7356103171161
  0
VERTEX
  5
650
330
643
100
AcDbEntity
  8
3
100
AcDbVertex
100
AcDb2dVertex
 10
177.6877744830072
 20
127.6556628378993
 30
0.0
 42
0.0713517487534358
  0
VERTEX
  5
651
330
643
100
AcDbEntity
  8
3
100
AcDbVertex
100
AcDb2dVertex
 10
177.045609680686
 20
127.5635547456985
 30
0.0
 42
0.0828275296412505
  0
VERTEX
  5
652
330
643
100
AcDbEntity
  8
3
100
AcDbVertex
100
AcDb2dVertex
 10
176.541554390704
 20
127.3199427455944
 30
0.0
 42
0.1067562697215789
 70
     2
 50
215.2643896828843
  0
VERTEX
  5
653
330
643
100
AcDbEntity
  8
3
100
AcDbVertex
100
AcDb2dVertex
 10
176.1797317389895
 20
126.9257516750282
 30
0.0
 42
0.133256151078348
 50
215.2643896828843
  0
SEQEND
  5
654
330
643
100
AcDbEntity
  8
3
  0
LINE
  5
655
330
7E5
100
AcDbEntity
  8
1
100
AcDbLine
 10
127.6760425610087
 20
131.4017842816258
 30
0.0
 11
134.7471103728742
 21
124.3307164697603
 31
0.0
  0
POLYLINE
  5
656
330
7E5
100
AcDbEntity
  8
3
100
AcDb2dPolyline
 66
     1
 10
0.0
 20
0.0
 30
0.0
 70
     1
  0
VERTEX
  5
657
330
656
100
AcDbEntity
  8
3
100
AcDbVertex
100
AcDb2dVertex
 10
132.6726080233148
 20
154.2562450348997
 30
0.0
 42
0.2757322443321372
 50
144.7356103172451
  0
VERTEX
  5
658
330
656
100
AcDbEntity
  8
3
100
AcDbVertex
100
AcDb2dVertex
 10
117.9065063256933
 20
154.2562450348997
 30
0.0
 50
144.7356103172451
  0
VERTEX
  5
659
330
656
100
AcDbEntity
  8
3
100
AcDbVertex
100
AcDb2dVertex
 10
117.9065063256933
 20
149.3240148486913
 30
0.0
 42
0.2757322443321373
 50
360.0
  0
VERTEX
  5
65A
330
656
100
AcDbEntity
  8
3
100
AcDbVertex
100
AcDb2dVertex
 10
132.6726080233148
 20
149.3240148486913
 30
0.0
 50
360.0
  0
SEQEND
  5
65B
330
656
100
AcDbEntity
  8
3
  0
POLYLINE
  5
65C
330
7E5
100
AcDbEntity
  8
3
100
AcDb2dPolyline
 66
     1
 10
0.0
 20
0.0
 30
0.0
 70
     1
  0
VERTEX
  5
65D
330
65C
100
AcDbEntity
  8
3
100
AcDbVertex
100
AcDb2dVertex
 10
132.4475150096315
 20
154.1277866451828
 30
0.0
 42
0.2709027632264667
 50
144.7356103172451
  0
VERTEX
  5
65E
330
65C
100
AcDbEntity
  8
3
100
AcDbVertex
100
AcDb2dVertex
 10
118.1315993393765
 20
154.1277866451828
 30
0.0
 50
144.7356103172451
  0
VERTEX
  5
65F
330
65C
100
AcDbEntity
  8
3
100
AcDbVertex
100
AcDb2dVertex
 10
118.1315993393765
 20
149.4524732384082
 30
0.0
 42
0.2709027632264667
 50
360.0
  0
VERTEX
  5
660
330
65C
100
AcDbEntity
  8
3
100
AcDbVertex
100
AcDb2dVertex
 10
132.4475150096315
 20
149.4524732384083
 30
0.0
 50
360.0
  0
SEQEND
  5
661
330
65C
100
AcDbEntity
  8
3
  0
LINE
  5
662
330
7E5
100
AcDbEntity
  8
3
100
AcDbLine
 10
118.8068783804263
 20
149.7436700388717
 30
0.0
 11
118.8068783804263
 21
150.7789055106397
 31
0.0
  0
LINE
  5
663
330
7E5
100
AcDbEntity
  8
3
100
AcDbLine
 10
122.4984038048317
 20
148.3881978787454
 30
0.0
 11
122.4984038048317
 21
155.1920620048456
 31
0.0
  0
LINE
  5
664
330
7E5
100
AcDbEntity
  8
3
100
AcDbLine
 10
124.7493339416642
 20
148.1093416691386
 30
0.0
 11
124.7493339416642
 21
155.4709182144525
 31
0.0
  0
LINE
  5
665
330
7E5
100
AcDbEntity
  8
3
100
AcDbLine
 10
128.4408593660696
 20
149.4147848665214
 30
0.0
 11
128.4408593660696
 21
154.1654750170697
 31
0.0
  0
LINE
  5
666
330
7E5
100
AcDbEntity
  8
3
100
AcDbLine
 10
121.5079945446253
 20
149.3749084325003
 30
0.0
 11
121.5079945446253
 21
151.8801671472689
 31
0.0
  0
LINE
  5
667
330
7E5
100
AcDbEntity
  8
3
100
AcDbLine
 10
119.7072504351593
 20
152.6004647910552
 30
0.0
 11
119.7072504351593
 21
153.1752093672103
 31
0.0
  0
LINE
  5
668
330
7E5
100
AcDbEntity
  8
3
100
AcDbLine
 10
120.6076224898923
 20
150.1620767439354
 30
0.0
 11
120.6076224898923
 21
151.2499067089557
 31
0.0
  0
ARC
  5
669
330
7E5
100
AcDbEntity
  8
3
100
AcDbCircle
 10
125.289557174504
 20
141.8860373397324
 30
0.0
 40
13.59561802646852
100
AcDbArc
 50
64.30589115139004
 51
72.5003904236959
  0
ARC
  5
66A
330
7E5
100
AcDbEntity
  8
3
100
AcDbCircle
 10
125.289557174504
 20
161.6942225438586
 30
0.0
 40
13.59561802646852
100
AcDbArc
 50
241.5220059637752
 51
250.6684235941317
  0
ARC
  5
66B
330
7E5
100
AcDbEntity
  8
3
100
AcDbCircle
 10
125.289557174504
 20
141.8860373397324
 30
0.0
 40
12.6952459717355
100
AcDbArc
 50
107.3298556838954
 51
115.5726159680066
  0
ARC
  5
66C
330
7E5
100
AcDbEntity
  8
3
100
AcDbCircle
 10
125.289557174504
 20
161.6942225438586
 30
0.0
 40
12.6952459717355
100
AcDbArc
 50
239.2936441998581
 51
247.1394738354502
  0
ARC
  5
66D
330
7E5
100
AcDbEntity
  8
3
100
AcDbCircle
 10
125.289557174504
 20
141.8860373397324
 30
0.0
 40
13.59561802646852
100
AcDbArc
 50
106.1495651407125
 51
117.0760281832611
  0
ARC
  5
66E
330
7E5
100
AcDbEntity
  8
3
100
AcDbCircle
 10
125.289557174504
 20
161.6942225438586
 30
0.0
 40
13.59561802646852
100
AcDbArc
 50
258.1530549875378
 51
262.9626374511518
  0
LINE
  5
66F
330
7E5
100
AcDbEntity
  8
3
100
AcDbLine
 10
119.3471016132661
 20
151.4299811199023
 30
0.0
 11
120.4275480789457
 21
151.4299811199023
 31
0.0
  0
LINE
  5
670
330
7E5
100
AcDbEntity
  8
3
100
AcDbLine
 10
119.8873248461059
 20
152.4203903801087
 30
0.0
 11
120.9677713117855
 21
152.4203903801087
 31
0.0
  0
LINE
  5
671
330
7E5
100
AcDbEntity
  8
3
100
AcDbLine
 10
118.8068783804263
 20
151.9702043527422
 30
0.0
 11
118.8068783804263
 21
153.510604218555
 31
0.0
  0
LINE
  5
672
330
7E5
100
AcDbEntity
  8
3
100
AcDbLine
 10
121.5079945446253
 20
154.0049916823797
 30
0.0
 11
121.5079945446253
 21
154.9451572793738
 31
0.0
  0
LINE
  5
673
330
7E5
100
AcDbEntity
  8
3
100
AcDbLine
 10
123.623868873248
 20
148.2010275180431
 30
0.0
 11
123.623868873248
 21
155.3792323655479
 31
0.0
  0
ARC
  5
674
330
7E5
100
AcDbEntity
  8
3
100
AcDbCircle
 10
125.289557174504
 20
141.8860373397324
 30
0.0
 40
13.59561802646852
100
AcDbArc
 50
97.03736254884818
 51
101.8469450124622
  0
ARC
  5
675
330
7E5
100
AcDbEntity
  8
3
100
AcDbCircle
 10
125.289557174504
 20
161.6942225438586
 30
0.0
 40
13.59561802646852
100
AcDbArc
 50
267.7227469902971
 51
272.2772530097029
  0
LINE
  5
676
330
7E5
100
AcDbEntity
  8
3
100
AcDbLine
 10
125.8297804073438
 20
148.1093416691386
 30
0.0
 11
125.8297804073438
 21
151.339943914429
 31
0.0
  0
LINE
  5
677
330
7E5
100
AcDbEntity
  8
3
100
AcDbLine
 10
127.0002640784968
 20
151.7901299417955
 30
0.0
 11
128.0807105441764
 21
155.1920620048456
 31
0.0
  0
LINE
  5
678
330
7E5
100
AcDbEntity
  8
3
100
AcDbLine
 10
126.0096131787789
 20
152.2403159691621
 30
0.0
 11
127.0045637570235
 21
155.3730526486712
 31
0.0
  0
LINE
  5
679
330
7E5
100
AcDbEntity
  8
3
100
AcDbLine
 10
127.0002640784968
 20
151.7901299417955
 30
0.0
 11
128.0807105441764
 21
148.3881978787454
 31
0.0
  0
LINE
  5
67A
330
7E5
100
AcDbEntity
  8
3
100
AcDbLine
 10
126.0096131787789
 20
151.339943914429
 30
0.0
 11
127.0045637570235
 21
148.2072072349199
 31
0.0
  0
LINE
  5
67B
330
7E5
100
AcDbEntity
  8
3
100
AcDbLine
 10
131.5921615576351
 20
150.0919931708212
 30
0.0
 11
131.5921615576351
 21
153.4882667127699
 31
0.0
  0
LINE
  5
67C
330
7E5
100
AcDbEntity
  8
3
100
AcDbLine
 10
129.5213058317492
 20
150.0787250959396
 30
0.0
 11
129.5213058317492
 21
153.5015347876514
 31
0.0
  0
LINE
  5
67D
330
7E5
100
AcDbEntity
  8
3
100
AcDbLine
 10
130.5117150919555
 20
150.4557902423364
 30
0.0
 11
130.5117150919555
 21
153.1244696412545
 31
0.0
  0
ARC
  5
67E
330
7E5
100
AcDbEntity
  8
3
100
AcDbCircle
 10
125.289557174504
 20
141.8860373397324
 30
0.0
 40
12.6052087662622
100
AcDbArc
 50
66.60556037740611
 51
69.20211441840753
  0
ARC
  5
67F
330
7E5
100
AcDbEntity
  8
3
100
AcDbCircle
 10
125.289557174504
 20
161.6942225438586
 30
0.0
 40
12.6052087662622
100
AcDbArc
 50
290.7978855815923
 51
293.3944396225938
  0
ARC
  5
680
330
7E5
100
AcDbEntity
  8
3
100
AcDbCircle
 10
125.289557174504
 20
161.6942225438586
 30
0.0
 40
13.59561802646852
100
AcDbArc
 50
277.2468291309767
 51
281.8469450124623
  0
ARC
  5
681
330
7E5
100
AcDbEntity
  8
3
100
AcDbCircle
 10
125.289557174504
 20
141.8860373397324
 30
0.0
 40
13.59561802646852
100
AcDbArc
 50
87.72274699029713
 51
92.27725300970284
  0
ARC
  5
682
330
7E5
100
AcDbEntity
  8
3
100
AcDbCircle
 10
125.289557174504
 20
161.6942225438586
 30
0.0
 40
13.59561802646852
100
AcDbArc
 50
287.4996095763041
 51
295.6941088486099
  0
ARC
  5
683
330
7E5
100
AcDbEntity
  8
3
100
AcDbCircle
 10
125.289557174504
 20
141.8860373397324
 30
0.0
 40
13.59561802646852
100
AcDbArc
 50
78.15305498753777
 51
82.75317086902321
  0
LINE
  5
684
330
7E5
100
AcDbEntity
  8
3
100
AcDbLine
 10
125.8297804073438
 20
152.2403159691621
 30
0.0
 11
126.0096131787789
 21
152.2403159691621
 31
0.0
  0
LINE
  5
685
330
7E5
100
AcDbEntity
  8
3
100
AcDbLine
 10
125.8297804073438
 20
151.339943914429
 30
0.0
 11
126.0096131787789
 21
151.339943914429
 31
0.0
  0
LINE
  5
686
330
7E5
100
AcDbEntity
  8
3
100
AcDbLine
 10
125.8297804073438
 20
152.2403159691621
 30
0.0
 11
125.8297804073438
 21
155.4709182144525
 31
0.0
  0
ARC
  5
687
330
7E5
100
AcDbEntity
  8
3
100
AcDbCircle
 10
129.161157009856
 20
154.1654750170697
 30
0.0
 40
0.7202976437864136
100
AcDbArc
 50
72.50039042369632
 51
180.0
  0
ARC
  5
688
330
7E5
100
AcDbEntity
  8
3
100
AcDbCircle
 10
129.161157009856
 20
149.4147848665214
 30
0.0
 40
0.7202976437864136
100
AcDbArc
 50
180.0
 51
287.4996095763043
  0
ARC
  5
689
330
7E5
100
AcDbEntity
  8
3
100
AcDbCircle
 10
130.8718639138487
 20
150.0919931708212
 30
0.0
 40
0.7202976437864136
100
AcDbArc
 50
295.6941088486102
 51
0.0
  0
ARC
  5
68A
330
7E5
100
AcDbEntity
  8
3
100
AcDbCircle
 10
130.8718639138487
 20
153.4882667127699
 30
0.0
 40
0.7202976437864136
100
AcDbArc
 50
0.0
 51
64.30589115138994
  0
ARC
  5
68B
330
7E5
100
AcDbEntity
  8
3
100
AcDbCircle
 10
129.7013802426958
 20
153.5015347876514
 30
0.0
 40
0.1800744109466034
100
AcDbArc
 50
69.20211441840642
 51
180.0
  0
ARC
  5
68C
330
7E5
100
AcDbEntity
  8
3
100
AcDbCircle
 10
129.7013802426958
 20
150.0787250959396
 30
0.0
 40
0.1800744109466034
100
AcDbArc
 50
180.0
 51
290.7978855815921
  0
ARC
  5
68D
330
7E5
100
AcDbEntity
  8
3
100
AcDbCircle
 10
130.1515662700623
 20
150.4557902423364
 30
0.0
 40
0.3601488218932068
100
AcDbArc
 50
293.3944396225935
 51
0.0
  0
ARC
  5
68E
330
7E5
100
AcDbEntity
  8
3
100
AcDbCircle
 10
130.1515662700623
 20
153.1244696412545
 30
0.0
 40
0.3601488218932068
100
AcDbArc
 50
0.0
 51
66.60556037740585
  0
ARC
  5
68F
330
7E5
100
AcDbEntity
  8
3
100
AcDbCircle
 10
119.3471016132661
 20
153.510604218555
 30
0.0
 40
0.54022323283981
100
AcDbArc
 50
117.0760281832605
 51
180.0000000000005
  0
ARC
  5
690
330
7E5
100
AcDbEntity
  8
3
100
AcDbCircle
 10
119.3471016132661
 20
151.9702043527422
 30
0.0
 40
0.54022323283981
100
AcDbArc
 50
179.9999999999996
 51
270.0
  0
ARC
  5
691
330
7E5
100
AcDbEntity
  8
3
100
AcDbCircle
 10
120.9677713117855
 20
149.3749084325003
 30
0.0
 40
0.54022323283981
100
AcDbArc
 50
250.6684235941325
 51
0.0
  0
ARC
  5
692
330
7E5
100
AcDbEntity
  8
3
100
AcDbCircle
 10
120.9677713117855
 20
151.8801671472689
 30
0.0
 40
0.54022323283981
100
AcDbArc
 50
0.0
 51
89.99999999999998
  0
ARC
  5
693
330
7E5
100
AcDbEntity
  8
3
100
AcDbCircle
 10
120.4275480789457
 20
150.1620767439354
 30
0.0
 40
0.1800744109466034
100
AcDbArc
 50
247.1394738354506
 51
0.0
  0
ARC
  5
694
330
7E5
100
AcDbEntity
  8
3
100
AcDbCircle
 10
120.4275480789457
 20
151.2499067089557
 30
0.0
 40
0.1800744109466034
100
AcDbArc
 50
0.0
 51
89.99999999999978
  0
ARC
  5
695
330
7E5
100
AcDbEntity
  8
3
100
AcDbCircle
 10
119.8873248461059
 20
152.6004647910552
 30
0.0
 40
0.1800744109466034
100
AcDbArc
 50
179.9999999999993
 51
270.0
  0
ARC
  5
696
330
7E5
100
AcDbEntity
  8
3
100
AcDbCircle
 10
119.8873248461059
 20
153.1752093672103
 30
0.0
 40
0.1800744109466034
100
AcDbArc
 50
115.5726159680052
 51
180.0
  0
LINE
  5
698
330
7E5
100
AcDbEntity
  8
0
100
AcDbLine
 10
190.8238717165741
 20
200.0264977922792
 30
0.0
 11
184.2460233710722
 21
200.0264977922792
 31
0.0
  0
ARC
  5
699
330
7E5
100
AcDbEntity
  8
0
100
AcDbCircle
 10
183.6877744830071
 20
190.0264977922791
 30
0.0
 40
2.0
100
AcDbArc
 50
180.0
 51
269.9999999999999
  0
ARC
  5
69A
330
7E5
100
AcDbEntity
  8
0
100
AcDbCircle
 10
183.6877744830071
 20
219.0264977922792
 30
0.0
 40
2.0
100
AcDbArc
 50
90.0
 51
179.9999999999999
  0
POLYLINE
  5
69B
330
7E5
100
AcDbEntity
  8
0
100
AcDb2dPolyline
 66
     1
 10
0.0
 20
0.0
 30
0.0
  0
VERTEX
  5
69C
330
69B
100
AcDbEntity
  8
0
100
AcDbVertex
100
AcDb2dVertex
 10
181.6877744830071
 20
121.6954509697325
 30
0.0
 42
0.1338100391356221
  0
VERTEX
  5
69D
330
69B
100
AcDbEntity
  8
0
100
AcDbVertex
100
AcDb2dVertex
 10
181.8269228837318
 20
121.1848131585488
 30
0.0
 42
0.1067995667766738
  0
VERTEX
  5
69E
330
69B
100
AcDbEntity
  8
0
100
AcDbVertex
100
AcDb2dVertex
 10
182.273560920634
 20
120.7004235290108
 30
0.0
 42
0.0825742869876633
 70
     2
 50
324.8701393424911
  0
VERTEX
  5
69F
330
69B
100
AcDbEntity
  8
0
100
AcDbVertex
100
AcDb2dVertex
 10
182.8951627238133
 20
120.4014142428474
 30
0.0
 42
0.0710145776751746
 50
324.8701393424911
  0
VERTEX
  5
6A0
330
69B
100
AcDbEntity
  8
0
100
AcDbVertex
100
AcDb2dVertex
 10
183.6877744830071
 20
120.2882696681305
 30
0.0
 42
0.0710145776751752
  0
SEQEND
  5
6A1
330
69B
100
AcDbEntity
  8
0
  0
LINE
  5
6A2
330
7E5
100
AcDbEntity
  8
0
100
AcDbLine
 10
183.6877744830071
 20
120.2882696681305
 30
0.0
 11
205.1877744830071
 21
120.2882696681305
 31
0.0
  0
ARC
  5
6A3
330
7E5
100
AcDbEntity
  8
0
100
AcDbCircle
 10
175.551408973996
 20
204.5264977922792
 30
0.0
 40
20.63636550901103
100
AcDbArc
 50
306.9119513864207
 51
53.08804861357923
  0
LINE
  5
6A4
330
7E5
100
AcDbEntity
  8
0
100
AcDbLine
 10
187.9453422246433
 20
161.2882696681305
 30
0.0
 11
205.1877744830071
 21
161.2882696681305
 31
0.0
  0
POLYLINE
  5
6A5
330
7E5
100
AcDbEntity
  8
0
100
AcDb2dPolyline
 66
     1
 10
0.0
 20
0.0
 30
0.0
  0
VERTEX
  5
6A6
330
6A5
100
AcDbEntity
  8
0
100
AcDbVertex
100
AcDb2dVertex
 10
108.789557174504
 20
157.6102861948511
 30
0.0
 42
-0.1343469449396857
  0
VERTEX
  5
6A7
330
6A5
100
AcDbEntity
  8
0
100
AcDbVertex
100
AcDb2dVertex
 10
108.9284929608366
 20
158.1180317199485
 30
0.0
 42
-0.1068392138072506
  0
VERTEX
  5
6A8
330
6A5
100
AcDbEntity
  8
0
100
AcDbVertex
100
AcDb2dVertex
 10
109.3753436121309
 20
158.6005291918631
 30
0.0
 42
-0.0823290349390688
 70
     2
 50
34.99999999999978
  0
VERTEX
  5
6A9
330
6A5
100
AcDbEntity
  8
0
100
AcDbVertex
100
AcDb2dVertex
 10
110.063205326746
 20
158.929905671698
 30
0.0
 42
-0.0859662015761262
  0
VERTEX
  5
6AA
330
6A5
100
AcDbEntity
  8
0
100
AcDbVertex
100
AcDb2dVertex
 10
110.789557174504
 20
159.0107012712703
 30
0.0
 42
-0.0706899280621838
  0
SEQEND
  5
6AB
330
6A5
100
AcDbEntity
  8
0
  0
POLYLINE
  5
6AC
330
7E5
100
AcDbEntity
  8
0
100
AcDb2dPolyline
 66
     1
 10
0.0
 20
0.0
 30
0.0
  0
VERTEX
  5
6AD
330
6AC
100
AcDbEntity
  8
0
100
AcDbVertex
100
AcDb2dVertex
 10
141.789557174504
 20
157.6102861948511
 30
0.0
 42
0.1343469449396857
  0
VERTEX
  5
6AE
330
6AC
100
AcDbEntity
  8
0
100
AcDbVertex
100
AcDb2dVertex
 10
141.6506213881713
 20
158.1180317199485
 30
0.0
 42
0.1068392138072506
  0
VERTEX
  5
6AF
330
6AC
100
AcDbEntity
  8
0
100
AcDbVertex
100
AcDb2dVertex
 10
141.2037707368771
 20
158.6005291918631
 30
0.0
 42
0.0823290349390688
 70
     2
 50
145.0000000000002
  0
VERTEX
  5
6B0
330
6AC
100
AcDbEntity
  8
0
100
AcDbVertex
100
AcDb2dVertex
 10
140.515909022262
 20
158.929905671698
 30
0.0
 42
0.0859662015761262
 50
145.0000000000002
  0
VERTEX
  5
6B1
330
6AC
100
AcDbEntity
  8
0
100
AcDbVertex
100
AcDb2dVertex
 10
139.789557174504
 20
159.0107012712703
 30
0.0
 42
0.0706899280621838
  0
SEQEND
  5
6B2
330
6AC
100
AcDbEntity
  8
0
  0
ARC
  5
6B3
330
7E5
100
AcDbEntity
  8
0
100
AcDbCircle
 10
183.6877744830071
 20
119.2882696681305
 30
0.0
 40
2.0
100
AcDbArc
 50
179.9999999999999
 51
269.9999999999999
  0
ARC
  5
6B4
330
7E5
100
AcDbEntity
  8
0
100
AcDbCircle
 10
139.789557174504
 20
121.6954509697325
 30
0.0
 40
2.0
100
AcDbArc
 50
288.8517011060364
 51
0.0
  0
ARC
  5
6B5
330
7E5
100
AcDbEntity
  8
0
100
AcDbCircle
 10
110.789557174504
 20
121.6954509697325
 30
0.0
 40
2.0
100
AcDbArc
 50
180.0000000000002
 51
251.1482988939637
  0
ARC
  5
6B6
330
7E5
100
AcDbEntity
  8
0
100
AcDbCircle
 10
110.789557174504
 20
159.8810883665284
 30
0.0
 40
2.0
100
AcDbArc
 50
108.8517011060356
 51
180.0
  0
ARC
  5
6B7
330
7E5
100
AcDbEntity
  8
0
100
AcDbCircle
 10
139.789557174504
 20
159.8810883665284
 30
0.0
 40
2.0
100
AcDbArc
 50
0.0
 51
71.14829889396424
  0
ARC
  5
6B8
330
7E5
100
AcDbEntity
  8
0
100
AcDbCircle
 10
125.289557174504
 20
117.4132696681304
 30
0.0
 40
46.87500000000002
100
AcDbArc
 50
71.1482986181751
 51
108.8517011060358
  0
ARC
  5
6B9
330
7E5
100
AcDbEntity
  8
0
100
AcDbCircle
 10
125.289557174504
 20
164.1632696681305
 30
0.0
 40
46.87500000000002
100
AcDbArc
 50
251.1482988939641
 51
288.8517011060359
  0
LINE
  5
6BA
330
7E5
100
AcDbEntity
  8
0
100
AcDbLine
 10
139.789557174504
 20
159.0107012712705
 30
0.0
 11
110.7895571745039
 21
159.0107012712705
 31
0.0
  0
LINE
  5
6BB
330
7E5
100
AcDbEntity
  8
1
100
AcDbLine
 10
103.789557174504
 20
133.7882696681305
 30
0.0
 11
146.789557174504
 21
133.7882696681305
 31
0.0
  0
LINE
  5
6BC
330
7E5
100
AcDbEntity
  8
1
100
AcDbLine
 10
125.289557174504
 20
169.2882696681305
 30
0.0
 11
125.289557174504
 21
112.2882696681305
 31
0.0
  0
ARC
  5
6BD
330
7E5
100
AcDbEntity
  8
0
100
AcDbCircle
 10
183.6877744830071
 20
157.6102861948511
 30
0.0
 40
2.0
100
AcDbArc
 50
110.0
 51
179.9999999999999
  0
LINE
  5
6BE
330
7E5
100
AcDbEntity
  8
0
100
AcDbLine
 10
209.6877744830071
 20
207.5264977922792
 30
0.0
 11
205.1877744830071
 21
207.5264977922792
 31
0.0
  0
LINE
  5
6BF
330
7E5
100
AcDbEntity
  8
0
100
AcDbLine
 10
209.6877744830071
 20
201.5264977922792
 30
0.0
 11
205.1877744830071
 21
201.5264977922792
 31
0.0
  0
LINE
  5
6C0
330
7E5
100
AcDbEntity
  8
0
100
AcDbLine
 10
210.1877744830071
 20
207.0264977922792
 30
0.0
 11
210.1877744830071
 21
202.0264977922792
 31
0.0
  0
LINE
  5
6C1
330
7E5
100
AcDbEntity
  8
0
100
AcDbLine
 10
209.6877744830071
 20
207.5264977922792
 30
0.0
 11
209.6877744830071
 21
201.5264977922792
 31
0.0
  0
LINE
  5
6C2
330
7E5
100
AcDbEntity
  8
0
100
AcDbLine
 10
209.6877744830071
 20
207.5264977922792
 30
0.0
 11
210.1877744830071
 21
207.0264977922792
 31
0.0
  0
LINE
  5
6C3
330
7E5
100
AcDbEntity
  8
0
100
AcDbLine
 10
210.1877744830071
 20
202.0264977922792
 30
0.0
 11
209.6877744830071
 21
201.5264977922792
 31
0.0
  0
LINE
  5
6C4
330
7E5
100
AcDbEntity
  8
0
100
AcDbLine
 10
205.1877744830071
 20
221.0264977922792
 30
0.0
 11
183.6877744830071
 21
221.0264977922792
 31
0.0
  0
LINE
  5
6C5
330
7E5
100
AcDbEntity
  8
0
100
AcDbLine
 10
181.1877744830071
 20
191.0264977922792
 30
0.0
 11
181.1877744830071
 21
218.0264977922792
 31
0.0
  0
LINE
  5
6C6
330
7E5
100
AcDbEntity
  8
0
100
AcDbLine
 10
205.1877744830071
 20
221.0264977922792
 30
0.0
 11
205.1877744830071
 21
188.0264977922792
 31
0.0
  0
LINE
  5
6C7
330
7E5
100
AcDbEntity
  8
0
100
AcDbLine
 10
205.1877744830071
 20
188.0264977922792
 30
0.0
 11
183.6877744830071
 21
188.0264977922792
 31
0.0
  0
LINE
  5
6C8
330
7E5
100
AcDbEntity
  8
0
100
AcDbLine
 10
202.1877744830071
 20
221.0264977922792
 30
0.0
 11
202.1877744830071
 21
188.0264977922792
 31
0.0
  0
LINE
  5
6C9
330
7E5
100
AcDbEntity
  8
1
100
AcDbLine
 10
215.1877744830071
 20
204.5264977922792
 30
0.0
 11
169.1877744830071
 21
204.5264977922792
 31
0.0
  0
LINE
  5
6CA
330
7E5
100
AcDbEntity
  8
0
100
AcDbLine
 10
181.6877744830071
 20
190.0264977922791
 30
0.0
 11
181.6877744830071
 21
219.0264977922792
 31
0.0
  0
LINE
  5
6CB
330
7E5
100
AcDbEntity
  8
0
100
AcDbLine
 10
181.1877744830071
 20
191.0264977922792
 30
0.0
 11
181.6877744830071
 21
191.0264977922792
 31
0.0
  0
LINE
  5
6CC
330
7E5
100
AcDbEntity
  8
0
100
AcDbLine
 10
181.1877744830071
 20
218.0264977922792
 30
0.0
 11
181.6877744830071
 21
218.0264977922792
 31
0.0
  0
LINE
  5
6CD
330
7E5
100
AcDbEntity
  8
0
100
AcDbLine
 10
174.1877744830071
 20
214.4264977922792
 30
0.0
 11
181.1877744830071
 21
214.4264977922792
 31
0.0
  0
LINE
  5
6CE
330
7E5
100
AcDbEntity
  8
0
100
AcDbLine
 10
174.1877744830071
 20
194.6264977922792
 30
0.0
 11
181.1877744830071
 21
194.6264977922792
 31
0.0
  0
LINE
  5
6CF
330
7E5
100
AcDbEntity
  8
0
100
AcDbLine
 10
174.1877744830071
 20
194.6264977922792
 30
0.0
 11
174.1877744830071
 21
214.4264977922792
 31
0.0
  0
LINE
  5
6D0
330
7E5
100
AcDbEntity
  8
2
100
AcDbLine
 10
175.1877744830071
 20
140.7882696681305
 30
0.0
 11
174.1877744830071
 21
141.7882696681305
 31
0.0
  0
LINE
  5
6D1
330
7E5
100
AcDbEntity
  8
2
100
AcDbLine
 10
175.1877744830071
 20
126.7882696681305
 30
0.0
 11
174.1877744830071
 21
125.7882696681305
 31
0.0
  0
LINE
  5
6D2
330
7E5
100
AcDbEntity
  8
2
100
AcDbLine
 10
175.1877744830071
 20
126.7882696681304
 30
0.0
 11
175.1877744830071
 21
140.7882696681305
 31
0.0
  0
LINE
  5
6D3
330
7E5
100
AcDbEntity
  8
2
100
AcDbLine
 10
130.6230284002585
 20
125.6263713176208
 30
0.0
 11
128.6187601023776
 21
127.6306396155016
 31
0.0
  0
LINE
  5
6D4
330
7E5
100
AcDbEntity
  8
2
100
AcDbLine
 10
130.9416772840377
 20
125.8437093739792
 30
0.0
 11
128.958540037418
 21
127.8268466205989
 31
0.0
  0
LINE
  5
6D5
330
7E5
100
AcDbEntity
  8
2
100
AcDbLine
 10
133.4514555250134
 20
128.4547984423761
 30
0.0
 11
131.4471872271329
 21
130.4590667402568
 31
0.0
  0
LINE
  5
6D6
330
7E5
100
AcDbEntity
  8
2
100
AcDbLine
 10
133.2341174686554
 20
128.1361495585966
 30
0.0
 11
131.2509802220357
 21
130.1192868052163
 31
0.0
  0
LINE
  5
6D7
330
7E5
100
AcDbEntity
  8
0
100
AcDbLine
 10
129.3271766393767
 20
127.4425424806965
 30
0.0
 11
129.3271766393767
 21
128.0535939284011
 31
0.0
  0
LINE
  5
6D8
330
7E5
100
AcDbEntity
  8
3
100
AcDbLine
 10
129.3368819096547
 20
127.4485047483622
 30
0.0
 11
129.3271766393767
 21
127.4582100186402
 31
0.0
  0
LINE
  5
6D9
330
7E5
100
AcDbEntity
  8
2
100
AcDbLine
 10
131.6352843619381
 20
129.7506502032578
 30
0.0
 11
132.1556037641319
 21
129.7506502032578
 31
0.0
  0
LINE
  5
6DA
330
7E5
100
AcDbEntity
  8
3
100
AcDbLine
 10
131.6293220942725
 20
129.7409449329795
 30
0.0
 11
131.6196168239941
 21
129.7506502032579
 31
0.0
  0
LINE
  5
6DB
330
7E5
100
AcDbEntity
  8
3
100
AcDbLine
 10
131.422164004735
 20
125.3632226532819
 30
0.0
 11
130.9416772840378
 21
125.8437093739791
 31
0.0
  0
LINE
  5
6DC
330
7E5
100
AcDbEntity
  8
3
100
AcDbLine
 10
133.7146041893526
 20
127.6556628378994
 30
0.0
 11
133.2341174686549
 21
128.1361495585971
 31
0.0
  0
LINE
  5
6DD
330
7E5
100
AcDbEntity
  8
0
100
AcDbLine
 10
130.9994444325809
 20
125.2499552852983
 30
0.0
 11
131.5789999283543
 21
125.4052467123599
 31
0.0
  0
LINE
  5
6DE
330
7E5
100
AcDbEntity
  8
0
100
AcDbLine
 10
133.8278715573362
 20
128.0783824100536
 30
0.0
 11
133.6725801302746
 21
127.4988269142802
 31
0.0
  0
LINE
  5
6DF
330
7E5
100
AcDbEntity
  8
0
100
AcDbLine
 10
130.9994444325809
 20
125.2499552852983
 30
0.0
 11
133.8278715573361
 21
128.0783824100536
 31
0.0
  0
LINE
  5
6E0
330
7E5
100
AcDbEntity
  8
2
100
AcDbLine
 10
129.3271766393767
 20
126.9222230785026
 30
0.0
 11
129.3271766393767
 21
127.4425424806963
 31
0.0
  0
LINE
  5
6E1
330
7E5
100
AcDbEntity
  8
0
100
AcDbLine
 10
131.0242329142334
 20
129.7506502032578
 30
0.0
 11
131.6352843619381
 21
129.7506502032578
 31
0.0
  0
LINE
  5
6E2
330
7E5
100
AcDbEntity
  8
2
100
AcDbLine
 10
129.3271766393767
 20
126.9222230785026
 30
0.0
 11
132.1556037641319
 21
129.7506502032578
 31
0.0
  0
LINE
  5
6E3
330
7E5
100
AcDbEntity
  8
0
100
AcDbLine
 10
129.3271766393767
 20
128.0535939284011
 30
0.0
 11
131.0242329142334
 21
129.7506502032578
 31
0.0
  0
LINE
  5
6E4
330
7E5
100
AcDbEntity
  8
0
100
AcDbLine
 10
130.9994444325809
 20
125.2499552852983
 30
0.0
 11
130.6230284002582
 21
125.6263713176211
 31
0.0
  0
LINE
  5
6E5
330
7E5
100
AcDbEntity
  8
0
100
AcDbLine
 10
133.8278715573361
 20
128.0783824100536
 30
0.0
 11
133.4514555250133
 21
128.4547984423763
 31
0.0
  0
LINE
  5
6E6
330
7E5
100
AcDbEntity
  8
0
100
AcDbLine
 10
131.5789999283545
 20
125.4052467123599
 30
0.0
 11
133.6725801302746
 21
127.49882691428
 31
0.0
  0
LINE
  5
6E7
330
7E5
100
AcDbEntity
  8
0
100
AcDbLine
 10
196.1877744830071
 20
164.2882696681304
 30
0.0
 11
183.0037341963558
 21
159.4896714364229
 31
0.0
  0
LINE
  5
6E8
330
7E5
100
AcDbEntity
  8
0
100
AcDbLine
 10
210.1877744830071
 20
153.2882696681305
 30
0.0
 11
209.6877744830071
 21
152.7882696681305
 31
0.0
  0
LINE
  5
6E9
330
7E5
100
AcDbEntity
  8
0
100
AcDbLine
 10
209.6877744830071
 20
158.7882696681305
 30
0.0
 11
210.1877744830071
 21
158.2882696681305
 31
0.0
  0
LINE
  5
6EA
330
7E5
100
AcDbEntity
  8
0
100
AcDbLine
 10
209.6877744830071
 20
158.7882696681305
 30
0.0
 11
209.6877744830071
 21
152.7882696681305
 31
0.0
  0
LINE
  5
6EB
330
7E5
100
AcDbEntity
  8
1
100
AcDbLine
 10
215.1877744830071
 20
155.7882696681305
 30
0.0
 11
200.1877744830071
 21
155.7882696681305
 31
0.0
  0
LINE
  5
6EC
330
7E5
100
AcDbEntity
  8
0
100
AcDbLine
 10
174.1877744830071
 20
123.9382696681304
 30
0.0
 11
174.1877744830071
 21
143.6882696681304
 31
0.0
  0
LINE
  5
6ED
330
7E5
100
AcDbEntity
  8
2
100
AcDbLine
 10
175.1877744830071
 20
140.7882696681305
 30
0.0
 11
205.1877744830072
 21
140.7882696681305
 31
0.0
  0
LINE
  5
6EE
330
7E5
100
AcDbEntity
  8
2
100
AcDbLine
 10
175.1877744830071
 20
126.7882696681305
 30
0.0
 11
205.1877744830071
 21
126.7882696681305
 31
0.0
  0
LINE
  5
6EF
330
7E5
100
AcDbEntity
  8
0
100
AcDbLine
 10
181.1877744830071
 20
147.2882696681304
 30
0.0
 11
181.6877744830071
 21
147.2882696681304
 31
0.0
  0
LINE
  5
6F0
330
7E5
100
AcDbEntity
  8
0
100
AcDbLine
 10
181.1877744830071
 20
120.2882696681305
 30
0.0
 11
181.6877744830071
 21
120.2882696681305
 31
0.0
  0
LINE
  5
6F1
330
7E5
100
AcDbEntity
  8
0
100
AcDbLine
 10
181.6877744830071
 20
119.2882696681305
 30
0.0
 11
181.6877744830071
 21
157.6102861948511
 31
0.0
  0
LINE
  5
6F2
330
7E5
100
AcDbEntity
  8
1
100
AcDbLine
 10
210.187774483007
 20
133.7882696681305
 30
0.0
 11
169.1877744830071
 21
133.7882696681305
 31
0.0
  0
LINE
  5
6F3
330
7E5
100
AcDbEntity
  8
0
100
AcDbLine
 10
210.1877744830071
 20
158.2882696681305
 30
0.0
 11
210.1877744830071
 21
153.2882696681305
 31
0.0
  0
LINE
  5
6F4
330
7E5
100
AcDbEntity
  8
0
100
AcDbLine
 10
209.6877744830071
 20
152.7882696681305
 30
0.0
 11
205.1877744830071
 21
152.7882696681305
 31
0.0
  0
LINE
  5
6F5
330
7E5
100
AcDbEntity
  8
0
100
AcDbLine
 10
209.6877744830071
 20
158.7882696681305
 30
0.0
 11
205.1877744830071
 21
158.7882696681305
 31
0.0
  0
ARC
  5
6F6
330
7E5
100
AcDbEntity
  8
0
100
AcDbCircle
 10
136.289557174504
 20
155.7882696681305
 30
0.0
 40
0.5
100
AcDbArc
 50
0.0
 51
89.99999999999992
  0
ARC
  5
6F7
330
7E5
100
AcDbEntity
  8
0
100
AcDbCircle
 10
136.289557174504
 20
147.7882696681304
 30
0.0
 40
0.5
100
AcDbArc
 50
269.9999999999999
 51
0.0
  0
ARC
  5
6F8
330
7E5
100
AcDbEntity
  8
0
100
AcDbCircle
 10
114.289557174504
 20
147.7882696681305
 30
0.0
 40
0.5
100
AcDbArc
 50
180.0000000000001
 51
269.9999999999998
  0
ARC
  5
6F9
330
7E5
100
AcDbEntity
  8
0
100
AcDbCircle
 10
114.289557174504
 20
155.7882696681305
 30
0.0
 40
0.5
100
AcDbArc
 50
89.99999999999991
 51
180.0
  0
LINE
  5
6FA
330
7E5
100
AcDbEntity
  8
0
100
AcDbLine
 10
113.789557174504
 20
147.7882696681305
 30
0.0
 11
113.789557174504
 21
155.7882696681305
 31
0.0
  0
LINE
  5
6FB
330
7E5
100
AcDbEntity
  8
0
100
AcDbLine
 10
136.789557174504
 20
147.7882696681304
 30
0.0
 11
136.789557174504
 21
155.7882696681305
 31
0.0
  0
LINE
  5
6FC
330
7E5
100
AcDbEntity
  8
0
100
AcDbLine
 10
114.289557174504
 20
156.2882696681305
 30
0.0
 11
136.289557174504
 21
156.2882696681305
 31
0.0
  0
LINE
  5
6FD
330
7E5
100
AcDbEntity
  8
0
100
AcDbLine
 10
114.289557174504
 20
147.2882696681305
 30
0.0
 11
136.289557174504
 21
147.2882696681304
 31
0.0
  0
LINE
  5
6FE
330
7E5
100
AcDbEntity
  8
0
100
AcDbLine
 10
202.1877744830071
 20
164.2882696681304
 30
0.0
 11
202.1877744830071
 21
117.2882696681305
 31
0.0
  0
CIRCLE
  5
6FF
330
7E5
100
AcDbEntity
  8
0
100
AcDbCircle
 10
125.289557174504
 20
133.7882696681305
 30
0.0
 40
7.0
  0
LINE
  5
700
330
7E5
100
AcDbEntity
  8
0
100
AcDbLine
 10
108.789557174504
 20
121.6954509697325
 30
0.0
 11
108.789557174504
 21
159.8810883665284
 31
0.0
  0
LINE
  5
701
330
7E5
100
AcDbEntity
  8
0
100
AcDbLine
 10
141.789557174504
 20
159.8810893202028
 30
0.0
 11
141.789557174504
 21
121.6954509697325
 31
0.0
  0
LINE
  5
702
330
7E5
100
AcDbEntity
  8
0
100
AcDbLine
 10
205.1877744830071
 20
117.2882696681305
 30
0.0
 11
183.6877744830071
 21
117.2882696681305
 31
0.0
  0
LINE
  5
703
330
7E5
100
AcDbEntity
  8
0
100
AcDbLine
 10
205.1877744830071
 20
164.2882696681304
 30
0.0
 11
205.1877744830071
 21
117.2882696681305
 31
0.0
  0
LINE
  5
704
330
7E5
100
AcDbEntity
  8
0
100
AcDbLine
 10
196.1877744830071
 20
164.2882696681304
 30
0.0
 11
205.1877744830071
 21
164.2882696681304
 31
0.0
  0
LINE
  5
705
330
7E5
100
AcDbEntity
  8
0
100
AcDbLine
 10
181.1877744830071
 20
120.2882696681305
 30
0.0
 11
181.1877744830071
 21
147.2882696681305
 31
0.0
  0
LINE
  5
706
330
7E5
100
AcDbEntity
  8
0
100
AcDbLine
 10
272.0395434987184
 20
159.8810883665284
 30
0.0
 11
272.0395434987184
 21
121.6954509697325
 31
0.0
  0
LINE
  5
707
330
7E5
100
AcDbEntity
  8
0
100
AcDbLine
 10
239.0395434987184
 20
121.6954509697325
 30
0.0
 11
239.0395434987184
 21
159.8810883665284
 31
0.0
  0
LINE
  5
708
330
7E5
100
AcDbEntity
  8
1
100
AcDbLine
 10
255.5395434987184
 20
167.2882696681305
 30
0.0
 11
255.5395434987184
 21
112.2882696681305
 31
0.0
  0
LINE
  5
709
330
7E5
100
AcDbEntity
  8
1
100
AcDbLine
 10
234.0395434987184
 20
133.7882696681305
 30
0.0
 11
277.0395434987184
 21
133.7882696681305
 31
0.0
  0
ARC
  5
70A
330
7E5
100
AcDbEntity
  8
0
100
AcDbCircle
 10
255.5395434987184
 20
164.1632696681305
 30
0.0
 40
46.87500000000002
100
AcDbArc
 50
251.1482988939641
 51
288.8517011060359
  0
ARC
  5
70B
330
7E5
100
AcDbEntity
  8
0
100
AcDbCircle
 10
255.5395434987184
 20
117.4132696681304
 30
0.0
 40
46.87500000000002
100
AcDbArc
 50
71.1482986181751
 51
108.8517011060358
  0
ARC
  5
70C
330
7E5
100
AcDbEntity
  8
0
100
AcDbCircle
 10
270.0395434987184
 20
159.8810883665284
 30
0.0
 40
2.0
100
AcDbArc
 50
0.0
 51
71.14829889396424
  0
ARC
  5
70D
330
7E5
100
AcDbEntity
  8
0
100
AcDbCircle
 10
241.0395434987184
 20
159.8810883665284
 30
0.0
 40
2.0
100
AcDbArc
 50
108.8517011060356
 51
180.0
  0
ARC
  5
70E
330
7E5
100
AcDbEntity
  8
0
100
AcDbCircle
 10
241.0395434987184
 20
121.6954509697325
 30
0.0
 40
2.0
100
AcDbArc
 50
180.0000000000002
 51
251.1482988939637
  0
ARC
  5
70F
330
7E5
100
AcDbEntity
  8
0
100
AcDbCircle
 10
270.0395434987184
 20
121.6954509697325
 30
0.0
 40
2.0
100
AcDbArc
 50
288.8517011060364
 51
0.0
  0
LINE
  5
710
330
7E5
100
AcDbEntity
  8
0
100
AcDbLine
 10
174.1877744830071
 20
66.2858527000246
 30
0.0
 11
174.1877744830071
 21
86.08585270002462
 31
0.0
  0
LINE
  5
711
330
7E5
100
AcDbEntity
  8
0
100
AcDbLine
 10
174.1877744830071
 20
66.2858527000246
 30
0.0
 11
181.1877744830071
 21
66.2858527000246
 31
0.0
  0
LINE
  5
712
330
7E5
100
AcDbEntity
  8
0
100
AcDbLine
 10
174.1877744830071
 20
86.08585270002462
 30
0.0
 11
181.1877744830071
 21
86.08585270002462
 31
0.0
  0
LINE
  5
713
330
7E5
100
AcDbEntity
  8
0
100
AcDbLine
 10
181.1877744830071
 20
89.68585270002467
 30
0.0
 11
181.6877744830071
 21
89.68585270002467
 31
0.0
  0
LINE
  5
714
330
7E5
100
AcDbEntity
  8
0
100
AcDbLine
 10
181.1877744830071
 20
62.68585270002467
 30
0.0
 11
181.6877744830071
 21
62.68585270002467
 31
0.0
  0
LINE
  5
715
330
7E5
100
AcDbEntity
  8
0
100
AcDbLine
 10
181.6877744830071
 20
61.68585270002461
 30
0.0
 11
181.6877744830071
 21
90.68585270002467
 31
0.0
  0
LINE
  5
716
330
7E5
100
AcDbEntity
  8
1
100
AcDbLine
 10
212.1877744830071
 20
76.18585270002466
 30
0.0
 11
169.1877744830071
 21
76.18585270002466
 31
0.0
  0
LINE
  5
717
330
7E5
100
AcDbEntity
  8
0
100
AcDbLine
 10
202.1877744830071
 20
92.68585270002466
 30
0.0
 11
202.1877744830071
 21
59.68585270002467
 31
0.0
  0
LINE
  5
718
330
7E5
100
AcDbEntity
  8
0
100
AcDbLine
 10
205.1877744830071
 20
59.68585270002467
 30
0.0
 11
183.6877744830071
 21
59.68585270002461
 31
0.0
  0
LINE
  5
719
330
7E5
100
AcDbEntity
  8
0
100
AcDbLine
 10
205.1877744830071
 20
92.68585270002466
 30
0.0
 11
205.1877744830071
 21
59.68585270002467
 31
0.0
  0
LINE
  5
71A
330
7E5
100
AcDbEntity
  8
0
100
AcDbLine
 10
181.1877744830071
 20
62.68585270002467
 30
0.0
 11
181.1877744830071
 21
89.68585270002467
 31
0.0
  0
LINE
  5
71B
330
7E5
100
AcDbEntity
  8
0
100
AcDbLine
 10
205.1877744830071
 20
92.68585270002466
 30
0.0
 11
183.6877744830071
 21
92.68585270002466
 31
0.0
  0
ARC
  5
71C
330
7E5
100
AcDbEntity
  8
0
100
AcDbCircle
 10
183.6877744830071
 20
90.68585270002467
 30
0.0
 40
2.0
100
AcDbArc
 50
90.0
 51
179.9999999999999
  0
ARC
  5
71D
330
7E5
100
AcDbEntity
  8
0
100
AcDbCircle
 10
183.6877744830071
 20
61.68585270002461
 30
0.0
 40
2.0
100
AcDbArc
 50
180.0
 51
269.9999999999999
  0
CIRCLE
  5
71E
330
7E5
100
AcDbEntity
  8
0
100
AcDbCircle
 10
255.5395434987183
 20
155.7882696681305
 30
0.0
 40
3.0
  0
CIRCLE
  5
71F
330
7E5
100
AcDbEntity
  8
0
100
AcDbCircle
 10
255.5395434987183
 20
155.7882696681305
 30
0.0
 40
1.500000000000028
  0
CIRCLE
  5
720
330
7E5
100
AcDbEntity
  8
0
100
AcDbCircle
 10
255.5395434987183
 20
155.7882696681305
 30
0.0
 40
2.499999999999971
  0
CIRCLE
  5
721
330
7E5
100
AcDbEntity
  8
0
100
AcDbCircle
 10
255.5395434987184
 20
133.7882696681305
 30
0.0
 40
7.000000000000014
  0
LINE
  5
722
330
7E5
100
AcDbEntity
  8
1
100
AcDbLine
 10
247.5395434987186
 20
155.7882696681305
 30
0.0
 11
263.5395434987183
 21
155.7882696681305
 31
0.0
  0
LINE
  5
723
330
7E5
100
AcDbEntity
  8
5
  6
PHA-05
100
AcDbLine
 10
207.1877744830071
 20
221.0264977922792
 30
0.0
 11
207.1877744830071
 21
188.0264977922792
 31
0.0
  0
LINE
  5
724
330
7E5
100
AcDbEntity
  8
5
  6
PHA-05
100
AcDbLine
 10
205.1877744830071
 20
221.0264977922792
 30
0.0
 11
207.1877744830071
 21
221.0264977922792
 31
0.0
  0
LINE
  5
725
330
7E5
100
AcDbEntity
  8
5
  6
PHA-05
100
AcDbLine
 10
205.1877744830071
 20
188.0264977922792
 30
0.0
 11
207.1877744830071
 21
188.0264977922792
 31
0.0
  0
LINE
  5
726
330
7E5
100
AcDbEntity
  8
5
  6
PHA-05
100
AcDbLine
 10
205.1877744830071
 20
92.68585270002466
 30
0.0
 11
207.1877744830071
 21
92.68585270002466
 31
0.0
  0
LINE
  5
727
330
7E5
100
AcDbEntity
  8
5
  6
PHA-05
100
AcDbLine
 10
207.1877744830071
 20
92.68585270002466
 30
0.0
 11
207.1877744830071
 21
59.68585270002467
 31
0.0
  0
LINE
  5
728
330
7E5
100
AcDbEntity
  8
5
  6
PHA-05
100
AcDbLine
 10
205.1877744830071
 20
59.68585270002467
 30
0.0
 11
207.1877744830071
 21
59.68585270002467
 31
0.0
  0
POLYLINE
  5
729
330
7E5
100
AcDbEntity
  8
3
100
AcDb2dPolyline
 66
     1
 10
0.0
 20
0.0
 30
0.0
 70
     3
  0
VERTEX
  5
72A
330
729
100
AcDbEntity
  8
3
100
AcDbVertex
100
AcDb2dVertex
 10
177.6877744830069
 20
82.31845953025569
 30
0.0
 42
0.0373148062972218
  0
VERTEX
  5
72B
330
729
100
AcDbEntity
  8
3
100
AcDbVertex
100
AcDb2dVertex
 10
178.013258074306
 20
82.34278411400337
 30
0.0
 42
0.0377933998216735
 70
     1
  0
VERTEX
  5
72C
330
729
100
AcDbEntity
  8
3
100
AcDbVertex
100
AcDb2dVertex
 10
178.3274232019761
 20
82.41460309808472
 30
0.0
 42
0.0420865432184959
  0
VERTEX
  5
72D
330
729
100
AcDbEntity
  8
3
100
AcDbVertex
100
AcDb2dVertex
 10
178.5930176558574
 20
82.52204701861337
 30
0.0
 42
0.0425653189133304
 70
     1
  0
VERTEX
  5
72E
330
729
100
AcDbEntity
  8
3
100
AcDbVertex
100
AcDb2dVertex
 10
178.8339945753103
 20
82.67099343084243
 30
0.0
 42
0.052955760440357
 70
     2
 50
36.59465022882245
  0
VERTEX
  5
72F
330
729
100
AcDbEntity
  8
3
100
AcDbVertex
100
AcDb2dVertex
 10
179.0410133668341
 20
82.86173921766936
 30
0.0
 42
0.0557248161469618
 70
     1
 50
36.59465022882245
  0
VERTEX
  5
730
330
729
100
AcDbEntity
  8
3
100
AcDbVertex
100
AcDb2dVertex
 10
179.1941178789012
 20
83.08120030265834
 30
0.0
 42
0.0609203524848806
 50
36.59465022882245
  0
VERTEX
  5
731
330
729
100
AcDbEntity
  8
3
100
AcDbVertex
100
AcDb2dVertex
 10
179.2802944358465
 20
83.29941610781798
 30
0.0
 42
0.0636919735929359
 70
     1
 50
36.59465022882245
  0
VERTEX
  5
732
330
729
100
AcDbEntity
  8
3
100
AcDbVertex
100
AcDb2dVertex
 10
179.3087744830069
 20
83.52208555483521
 30
0.0
 42
0.0636919735929868
  0
VERTEX
  5
733
330
729
100
AcDbEntity
  8
3
100
AcDbVertex
100
AcDb2dVertex
 10
179.2802944358465
 20
83.74475500185251
 30
0.0
 42
0.0609203524849037
 70
     1
  0
VERTEX
  5
734
330
729
100
AcDbEntity
  8
3
100
AcDbVertex
100
AcDb2dVertex
 10
179.1941178789012
 20
83.96297080701209
 30
0.0
 42
0.055724816146916
  0
VERTEX
  5
735
330
729
100
AcDbEntity
  8
3
100
AcDbVertex
100
AcDb2dVertex
 10
179.0410133668341
 20
84.18243189200113
 30
0.0
 42
0.0529557604403008
 70
     1
  0
VERTEX
  5
736
330
729
100
AcDbEntity
  8
3
100
AcDbVertex
100
AcDb2dVertex
 10
178.8339945753103
 20
84.37317767882801
 30
0.0
 42
0.0425653189134075
 70
     2
 50
143.4053497711774
  0
VERTEX
  5
737
330
729
100
AcDbEntity
  8
3
100
AcDbVertex
100
AcDb2dVertex
 10
178.5930176558574
 20
84.52212409105705
 30
0.0
 42
0.0420865432185627
 70
     1
 50
143.4053497711774
  0
VERTEX
  5
738
330
729
100
AcDbEntity
  8
3
100
AcDbVertex
100
AcDb2dVertex
 10
178.3274232019761
 20
84.62956801158572
 30
0.0
 42
0.0377933998216512
 50
143.4053497711774
  0
VERTEX
  5
739
330
729
100
AcDbEntity
  8
3
100
AcDbVertex
100
AcDb2dVertex
 10
178.013258074306
 20
84.70138699566708
 30
0.0
 42
0.0373148062971968
 70
     1
 50
143.4053497711774
  0
VERTEX
  5
73A
330
729
100
AcDbEntity
  8
3
100
AcDbVertex
100
AcDb2dVertex
 10
177.6877744830069
 20
84.72571157941473
 30
0.0
 42
0.0373148062972256
  0
VERTEX
  5
73B
330
729
100
AcDbEntity
  8
3
100
AcDbVertex
100
AcDb2dVertex
 10
177.3622908917079
 20
84.70138699566708
 30
0.0
 42
0.0377933998216743
 70
     1
  0
VERTEX
  5
73C
330
729
100
AcDbEntity
  8
3
100
AcDbVertex
100
AcDb2dVertex
 10
177.0481257640378
 20
84.62956801158574
 30
0.0
 42
0.0420865432185111
  0
VERTEX
  5
73D
330
729
100
AcDbEntity
  8
3
100
AcDbVertex
100
AcDb2dVertex
 10
176.7825313101565
 20
84.52212409105706
 30
0.0
 42
0.0425653189133355
 70
     1
  0
VERTEX
  5
73E
330
729
100
AcDbEntity
  8
3
100
AcDbVertex
100
AcDb2dVertex
 10
176.5415543907035
 20
84.37317767882801
 30
0.0
 42
0.0529557604403212
 70
     2
 50
216.5946502288224
  0
VERTEX
  5
73F
330
729
100
AcDbEntity
  8
3
100
AcDbVertex
100
AcDb2dVertex
 10
176.3345355991798
 20
84.1824318920011
 30
0.0
 42
0.0557248161469175
 70
     1
 50
216.5946502288224
  0
VERTEX
  5
740
330
729
100
AcDbEntity
  8
3
100
AcDbVertex
100
AcDb2dVertex
 10
176.1814310871126
 20
83.96297080701209
 30
0.0
 42
0.0609203524849108
 50
216.5946502288224
  0
VERTEX
  5
741
330
729
100
AcDbEntity
  8
3
100
AcDbVertex
100
AcDb2dVertex
 10
176.0952545301674
 20
83.74475500185251
 30
0.0
 42
0.0636919735929914
 70
     1
 50
216.5946502288224
  0
VERTEX
  5
742
330
729
100
AcDbEntity
  8
3
100
AcDbVertex
100
AcDb2dVertex
 10
176.066774483007
 20
83.52208555483521
 30
0.0
 42
0.0636919735930097
  0
VERTEX
  5
743
330
729
100
AcDbEntity
  8
3
100
AcDbVertex
100
AcDb2dVertex
 10
176.0952545301675
 20
83.29941610781792
 30
0.0
 42
0.06092035248494
 70
     1
  0
VERTEX
  5
744
330
729
100
AcDbEntity
  8
3
100
AcDbVertex
100
AcDb2dVertex
 10
176.1814310871127
 20
83.08120030265827
 30
0.0
 42
0.0557248161470117
  0
VERTEX
  5
745
330
729
100
AcDbEntity
  8
3
100
AcDbVertex
100
AcDb2dVertex
 10
176.3345355991799
 20
82.86173921766936
 30
0.0
 42
0.0529557604404254
 70
     1
  0
VERTEX
  5
746
330
729
100
AcDbEntity
  8
3
100
AcDbVertex
100
AcDb2dVertex
 10
176.5415543907035
 20
82.67099343084243
 30
0.0
 42
0.042565318913386
 70
     2
 50
323.4053497711775
  0
VERTEX
  5
747
330
729
100
AcDbEntity
  8
3
100
AcDbVertex
100
AcDb2dVertex
 10
176.7825313101565
 20
82.52204701861337
 30
0.0
 42
0.0420865432185345
 70
     1
 50
323.4053497711775
  0
VERTEX
  5
748
330
729
100
AcDbEntity
  8
3
100
AcDbVertex
100
AcDb2dVertex
 10
177.0481257640378
 20
82.41460309808472
 30
0.0
 42
0.037793399821669
 50
323.4053497711775
  0
VERTEX
  5
749
330
729
100
AcDbEntity
  8
3
100
AcDbVertex
100
AcDb2dVertex
 10
177.3622908917079
 20
82.34278411400337
 30
0.0
 42
0.0373148062972299
 70
     1
 50
323.4053497711775
  0
SEQEND
  5
74A
330
729
100
AcDbEntity
  8
3
  0
POLYLINE
  5
74B
330
7E5
100
AcDbEntity
  8
0
100
AcDb2dPolyline
 66
     1
 10
0.0
 20
0.0
 30
0.0
 70
     3
  0
VERTEX
  5
74C
330
74B
100
AcDbEntity
  8
0
100
AcDbVertex
100
AcDb2dVertex
 10
177.6877744830069
 20
81.89573995810157
 30
0.0
 42
0.0406338080844187
  0
VERTEX
  5
74D
330
74B
100
AcDbEntity
  8
0
100
AcDbVertex
100
AcDb2dVertex
 10
178.0868096366413
 20
81.92822222548326
 30
0.0
 42
0.0411248513730434
 70
     1
  0
VERTEX
  5
74E
330
74B
100
AcDbEntity
  8
0
100
AcDbVertex
100
AcDb2dVertex
 10
178.4706204028801
 20
82.02404059292524
 30
0.0
 42
0.0442674013096862
  0
VERTEX
  5
74F
330
74B
100
AcDbEntity
  8
0
100
AcDbVertex
100
AcDb2dVertex
 10
178.8035757152256
 20
82.17086803999448
 30
0.0
 42
0.0447585967086941
 70
     1
  0
VERTEX
  5
750
330
74B
100
AcDbEntity
  8
0
100
AcDbVertex
100
AcDb2dVertex
 10
179.1019880453802
 20
82.37208555483197
 30
0.0
 42
0.0521661944945309
 70
     2
 50
39.1170710482602
  0
VERTEX
  5
751
330
74B
100
AcDbEntity
  8
0
100
AcDbVertex
100
AcDb2dVertex
 10
179.3546331524999
 20
82.62552086821544
 30
0.0
 42
0.0537676003291167
 70
     1
 50
39.1170710482602
  0
VERTEX
  5
752
330
74B
100
AcDbEntity
  8
0
100
AcDbVertex
100
AcDb2dVertex
 10
179.5426555591092
 20
82.91746742746557
 30
0.0
 42
0.0573562253947843
 50
39.1170710482602
  0
VERTEX
  5
753
330
74B
100
AcDbEntity
  8
0
100
AcDbVertex
100
AcDb2dVertex
 10
179.6514969956511
 20
83.21550252858008
 30
0.0
 42
0.0589585523189861
 70
     1
 50
39.1170710482602
  0
VERTEX
  5
754
330
74B
100
AcDbEntity
  8
0
100
AcDbVertex
100
AcDb2dVertex
 10
179.6877744830072
 20
83.52208555483523
 30
0.0
 42
0.0589585523190104
  0
VERTEX
  5
755
330
74B
100
AcDbEntity
  8
0
100
AcDbVertex
100
AcDb2dVertex
 10
179.6514969956511
 20
83.82866858109041
 30
0.0
 42
0.0573562253947993
 70
     1
  0
VERTEX
  5
756
330
74B
100
AcDbEntity
  8
0
100
AcDbVertex
100
AcDb2dVertex
 10
179.5426555591092
 20
84.1267036822049
 30
0.0
 42
0.0537676003291976
  0
VERTEX
  5
757
330
74B
100
AcDbEntity
  8
0
100
AcDbVertex
100
AcDb2dVertex
 10
179.3546331524998
 20
84.4186502414551
 30
0.0
 42
0.0521661944945677
 70
     1
  0
VERTEX
  5
758
330
74B
100
AcDbEntity
  8
0
100
AcDbVertex
100
AcDb2dVertex
 10
179.1019880453802
 20
84.67208555483848
 30
0.0
 42
0.0447585967087224
 70
     2
 50
140.8829289517407
  0
VERTEX
  5
759
330
74B
100
AcDbEntity
  8
0
100
AcDbVertex
100
AcDb2dVertex
 10
178.8035757152254
 20
84.87330306967605
 30
0.0
 42
0.0442674013096812
 70
     1
 50
140.8829289517407
  0
VERTEX
  5
75A
330
74B
100
AcDbEntity
  8
0
100
AcDbVertex
100
AcDb2dVertex
 10
178.47062040288
 20
85.02013051674522
 30
0.0
 42
0.0411248513730362
 50
140.8829289517407
  0
VERTEX
  5
75B
330
74B
100
AcDbEntity
  8
0
100
AcDbVertex
100
AcDb2dVertex
 10
178.0868096366413
 20
85.11594888418718
 30
0.0
 42
0.0406338080844276
 70
     1
 50
140.8829289517407
  0
VERTEX
  5
75C
330
74B
100
AcDbEntity
  8
0
100
AcDbVertex
100
AcDb2dVertex
 10
177.6877744830069
 20
85.14843115156887
 30
0.0
 42
0.0406338080844449
  0
VERTEX
  5
75D
330
74B
100
AcDbEntity
  8
0
100
AcDbVertex
100
AcDb2dVertex
 10
177.2887393293726
 20
85.11594888418718
 30
0.0
 42
0.0411248513730652
 70
     1
  0
VERTEX
  5
75E
330
74B
100
AcDbEntity
  8
0
100
AcDbVertex
100
AcDb2dVertex
 10
176.9049285631338
 20
85.0201305167452
 30
0.0
 42
0.0442674013096709
  0
VERTEX
  5
75F
330
74B
100
AcDbEntity
  8
0
100
AcDbVertex
100
AcDb2dVertex
 10
176.5719732507884
 20
84.87330306967601
 30
0.0
 42
0.0447585967086949
 70
     1
  0
VERTEX
  5
760
330
74B
100
AcDbEntity
  8
0
100
AcDbVertex
100
AcDb2dVertex
 10
176.2735609206337
 20
84.67208555483844
 30
0.0
 42
0.0521661944945169
 70
     2
 50
219.1170710482602
  0
VERTEX
  5
761
330
74B
100
AcDbEntity
  8
0
100
AcDbVertex
100
AcDb2dVertex
 10
176.020915813514
 20
84.41865024145506
 30
0.0
 42
0.0537676003291321
 70
     1
 50
219.1170710482602
  0
VERTEX
  5
762
330
74B
100
AcDbEntity
  8
0
100
AcDbVertex
100
AcDb2dVertex
 10
175.8328934069047
 20
84.12670368220487
 30
0.0
 42
0.0573562253948128
 50
219.1170710482602
  0
VERTEX
  5
763
330
74B
100
AcDbEntity
  8
0
100
AcDbVertex
100
AcDb2dVertex
 10
175.7240519703628
 20
83.82866858109046
 30
0.0
 42
0.0589585523190536
 70
     1
 50
219.1170710482602
  0
VERTEX
  5
764
330
74B
100
AcDbEntity
  8
0
100
AcDbVertex
100
AcDb2dVertex
 10
175.6877744830067
 20
83.52208555483519
 30
0.0
 42
0.0589585523190708
  0
VERTEX
  5
765
330
74B
100
AcDbEntity
  8
0
100
AcDbVertex
100
AcDb2dVertex
 10
175.7240519703628
 20
83.21550252857996
 30
0.0
 42
0.0573562253948245
 70
     1
  0
VERTEX
  5
766
330
74B
100
AcDbEntity
  8
0
100
AcDbVertex
100
AcDb2dVertex
 10
175.8328934069046
 20
82.91746742746559
 30
0.0
 42
0.0537676003291127
  0
VERTEX
  5
767
330
74B
100
AcDbEntity
  8
0
100
AcDbVertex
100
AcDb2dVertex
 10
176.020915813514
 20
82.62552086821539
 30
0.0
 42
0.0521661944944973
 70
     1
  0
VERTEX
  5
768
330
74B
100
AcDbEntity
  8
0
100
AcDbVertex
100
AcDb2dVertex
 10
176.2735609206337
 20
82.37208555483196
 30
0.0
 42
0.0447585967086944
 70
     2
 50
320.8829289517407
  0
VERTEX
  5
769
330
74B
100
AcDbEntity
  8
0
100
AcDbVertex
100
AcDb2dVertex
 10
176.5719732507884
 20
82.17086803999441
 30
0.0
 42
0.0442674013096755
 70
     1
 50
320.8829289517407
  0
VERTEX
  5
76A
330
74B
100
AcDbEntity
  8
0
100
AcDbVertex
100
AcDb2dVertex
 10
176.9049285631338
 20
82.02404059292522
 30
0.0
 42
0.0411248513730527
 50
320.8829289517407
  0
VERTEX
  5
76B
330
74B
100
AcDbEntity
  8
0
100
AcDbVertex
100
AcDb2dVertex
 10
177.2887393293726
 20
81.92822222548326
 30
0.0
 42
0.0406338080844375
 70
     1
 50
320.8829289517407
  0
SEQEND
  5
76C
330
74B
100
AcDbEntity
  8
0
  0
POLYLINE
  5
76D
330
7E5
100
AcDbEntity
  8
0
100
AcDb2dPolyline
 66
     1
 10
0.0
 20
0.0
 30
0.0
  0
VERTEX
  5
76E
330
76D
100
AcDbEntity
  8
0
100
AcDbVertex
100
AcDb2dVertex
 10
177.687774483007
 20
81.5193239257791
 30
0.0
 42
0.0406338080844187
  0
VERTEX
  5
76F
330
76D
100
AcDbEntity
  8
0
100
AcDbVertex
100
AcDb2dVertex
 10
178.0868096366413
 20
81.55180619316077
 30
0.0
 42
0.0411248513730434
  0
VERTEX
  5
770
330
76D
100
AcDbEntity
  8
0
100
AcDbVertex
100
AcDb2dVertex
 10
178.4706204028801
 20
81.64762456060277
 30
0.0
 42
0.0442674013096862
  0
VERTEX
  5
771
330
76D
100
AcDbEntity
  8
0
100
AcDbVertex
100
AcDb2dVertex
 10
178.8035757152256
 20
81.79445200767199
 30
0.0
 42
0.0447585967086941
  0
VERTEX
  5
772
330
76D
100
AcDbEntity
  8
0
100
AcDbVertex
100
AcDb2dVertex
 10
179.1019880453802
 20
81.9956695225095
 30
0.0
 42
0.0521661944945309
 70
     2
 50
39.1170710482602
  0
VERTEX
  5
773
330
76D
100
AcDbEntity
  8
0
100
AcDbVertex
100
AcDb2dVertex
 10
179.3546331524999
 20
82.24910483589296
 30
0.0
 42
0.0537676003291167
 50
39.1170710482602
  0
VERTEX
  5
774
330
76D
100
AcDbEntity
  8
0
100
AcDbVertex
100
AcDb2dVertex
 10
179.5426555591092
 20
82.54105139514308
 30
0.0
 42
0.0573562253947843
 50
39.1170710482602
  0
VERTEX
  5
775
330
76D
100
AcDbEntity
  8
0
100
AcDbVertex
100
AcDb2dVertex
 10
179.6514969956511
 20
82.83908649625759
 30
0.0
 42
0.0589585523189859
 50
39.1170710482602
  0
VERTEX
  5
776
330
76D
100
AcDbEntity
  8
0
100
AcDbVertex
100
AcDb2dVertex
 10
179.6877744830072
 20
83.14566952251274
 30
0.0
 42
0.0589585523190104
  0
SEQEND
  5
777
330
76D
100
AcDbEntity
  8
0
  0
POLYLINE
  5
778
330
7E5
100
AcDbEntity
  8
0
100
AcDb2dPolyline
 66
     1
 10
0.0
 20
0.0
 30
0.0
  0
VERTEX
  5
779
330
778
100
AcDbEntity
  8
0
100
AcDbVertex
100
AcDb2dVertex
 10
175.6877744830067
 20
83.14566952251272
 30
0.0
 42
0.0589585523190708
  0
VERTEX
  5
77A
330
778
100
AcDbEntity
  8
0
100
AcDbVertex
100
AcDb2dVertex
 10
175.7240519703628
 20
82.83908649625749
 30
0.0
 42
0.0573562253948245
  0
VERTEX
  5
77B
330
778
100
AcDbEntity
  8
0
100
AcDbVertex
100
AcDb2dVertex
 10
175.8328934069047
 20
82.5410513951431
 30
0.0
 42
0.0537676003291127
  0
VERTEX
  5
77C
330
778
100
AcDbEntity
  8
0
100
AcDbVertex
100
AcDb2dVertex
 10
176.020915813514
 20
82.2491048358929
 30
0.0
 42
0.0521661944944973
  0
VERTEX
  5
77D
330
778
100
AcDbEntity
  8
0
100
AcDbVertex
100
AcDb2dVertex
 10
176.2735609206337
 20
81.99566952250947
 30
0.0
 42
0.0447585967086944
 70
     2
 50
320.8829289517407
  0
VERTEX
  5
77E
330
778
100
AcDbEntity
  8
0
100
AcDbVertex
100
AcDb2dVertex
 10
176.5719732507884
 20
81.79445200767192
 30
0.0
 42
0.0442674013096755
 50
320.8829289517407
  0
VERTEX
  5
77F
330
778
100
AcDbEntity
  8
0
100
AcDbVertex
100
AcDb2dVertex
 10
176.9049285631339
 20
81.64762456060273
 30
0.0
 42
0.0411248513730527
 50
320.8829289517407
  0
VERTEX
  5
780
330
778
100
AcDbEntity
  8
0
100
AcDbVertex
100
AcDb2dVertex
 10
177.2887393293726
 20
81.55180619316077
 30
0.0
 42
0.0406338080844375
 50
320.8829289517407
  0
VERTEX
  5
781
330
778
100
AcDbEntity
  8
0
100
AcDbVertex
100
AcDb2dVertex
 10
177.687774483007
 20
81.5193239257791
 30
0.0
 42
0.0406338080844187
  0
SEQEND
  5
782
330
778
100
AcDbEntity
  8
0
  0
LINE
  5
783
330
7E5
100
AcDbEntity
  8
0
100
AcDbLine
 10
175.6877744830062
 20
83.52208555483521
 30
0.0
 11
175.6877744830067
 21
83.14566952251272
 31
0.0
  0
LINE
  5
784
330
7E5
100
AcDbEntity
  8
0
100
AcDbLine
 10
179.6877744830073
 20
83.52208555483521
 30
0.0
 11
179.6877744830072
 21
83.14566952251274
 31
0.0
  0
LINE
  5
785
330
7E5
100
AcDbEntity
  8
0
100
AcDbLine
 10
178.8424750204465
 20
83.52208555483521
 30
0.0
 11
178.2651247517265
 21
84.22919233544595
 31
0.0
  0
LINE
  5
786
330
7E5
100
AcDbEntity
  8
0
100
AcDbLine
 10
178.2651247517265
 20
84.22919233544595
 30
0.0
 11
177.1104242142876
 21
84.22919233544595
 31
0.0
  0
LINE
  5
787
330
7E5
100
AcDbEntity
  8
0
100
AcDbLine
 10
176.5330739455674
 20
83.52208555483521
 30
0.0
 11
177.1104242142874
 21
84.22919233544595
 31
0.0
  0
LINE
  5
788
330
7E5
100
AcDbEntity
  8
0
100
AcDbLine
 10
178.2651247517265
 20
82.81497877422445
 30
0.0
 11
177.1104242142876
 21
82.81497877422445
 31
0.0
  0
LINE
  5
789
330
7E5
100
AcDbEntity
  8
0
100
AcDbLine
 10
176.5330739455674
 20
83.52208555483519
 30
0.0
 11
177.1104242142874
 21
82.81497877422445
 31
0.0
  0
LINE
  5
78A
330
7E5
100
AcDbEntity
  8
0
100
AcDbLine
 10
178.8424750204465
 20
83.52208555483519
 30
0.0
 11
178.2651247517265
 21
82.81497877422445
 31
0.0
  0
LINE
  5
78B
330
7E5
100
AcDbEntity
  8
1
100
AcDbLine
 10
177.6877744830072
 20
88.52484718389236
 30
0.0
 11
177.6877744830069
 21
79.32000402681343
 31
0.0
  0
LINE
  5
78C
330
7E5
100
AcDbEntity
  8
5
  6
PHA-05
100
AcDbLine
 10
207.1877744830071
 20
164.2882696681304
 30
0.0
 11
207.1877744830071
 21
117.2882696681305
 31
0.0
  0
LINE
  5
78D
330
7E5
100
AcDbEntity
  8
5
  6
PHA-05
100
AcDbLine
 10
205.1877744830071
 20
164.2882696681304
 30
0.0
 11
207.1877744830071
 21
164.2882696681304
 31
0.0
  0
LINE
  5
78E
330
7E5
100
AcDbEntity
  8
5
  6
PHA-05
100
AcDbLine
 10
205.1877744830071
 20
117.2882696681305
 30
0.0
 11
207.1877744830071
 21
117.2882696681305
 31
0.0
  0
LINE
  5
78F
330
7E5
100
AcDbEntity
  8
2
100
AcDbLine
 10
181.1877744830071
 20
143.6882696681304
 30
0.0
 11
205.1877744830071
 21
143.6882696681304
 31
0.0
  0
LINE
  5
790
330
7E5
100
AcDbEntity
  8
2
100
AcDbLine
 10
181.1877744830071
 20
123.8882696681305
 30
0.0
 11
205.1877744830071
 21
123.8882696681305
 31
0.0
  0
CIRCLE
  5
791
330
7E5
100
AcDbEntity
  8
0
100
AcDbCircle
 10
125.289557174504
 20
133.7882696681305
 30
0.0
 40
13.49999999999997
  0
CIRCLE
  5
792
330
7E5
100
AcDbEntity
  8
0
100
AcDbCircle
 10
125.289557174504
 20
133.7882696681305
 30
0.0
 40
9.9
  0
ARC
  5
793
330
7E5
100
AcDbEntity
  8
0
100
AcDbCircle
 10
190.4079167477597
 20
153.2454802054067
 30
0.0
 40
9.100000000002511
100
AcDbArc
 50
87.38013505196454
 51
132.619864948036
  0
LINE
  5
794
330
7E5
100
AcDbEntity
  8
0
100
AcDbLine
 10
136.789557174504
 20
159.5998075750451
 30
0.0
 11
113.789557174504
 21
159.5998075750451
 31
0.0
  0
LINE
  5
795
330
7E5
100
AcDbEntity
  8
0
100
AcDbLine
 10
136.789557174504
 20
162.6779888649761
 30
0.0
 11
113.789557174504
 21
162.6779888649761
 31
0.0
  0
LINE
  5
796
330
7E5
100
AcDbEntity
  8
0
100
AcDbLine
 10
113.789557174504
 20
159.5998075750451
 30
0.0
 11
113.789557174504
 21
162.6779888649761
 31
0.0
  0
LINE
  5
797
330
7E5
100
AcDbEntity
  8
0
100
AcDbLine
 10
136.789557174504
 20
159.5998075750451
 30
0.0
 11
136.789557174504
 21
162.6779888649761
 31
0.0
  0
LINE
  5
798
330
7E5
100
AcDbEntity
  8
0
100
AcDbLine
 10
136.789557174504
 20
162.3359687216505
 30
0.0
 11
113.789557174504
 21
162.3359687216505
 31
0.0
  0
LINE
  5
799
330
7E5
100
AcDbEntity
  8
0
100
AcDbLine
 10
136.789557174504
 20
159.9418277183708
 30
0.0
 11
113.789557174504
 21
159.9418277183708
 31
0.0
  0
LINE
  5
79A
330
7E5
100
AcDbEntity
  8
0
100
AcDbLine
 10
191.7635643373593
 20
193.0264977922792
 30
0.0
 11
191.7635643373594
 21
216.0264977922792
 31
0.0
  0
LINE
  5
79B
330
7E5
100
AcDbEntity
  8
0
100
AcDbLine
 10
183.3063307502863
 20
193.0264977922792
 30
0.0
 11
183.3063307502863
 21
216.0264977922792
 31
0.0
  0
LINE
  5
79C
330
7E5
100
AcDbEntity
  8
0
100
AcDbLine
 10
183.3063307502863
 20
216.0264977922792
 30
0.0
 11
191.7635643373593
 21
216.0264977922792
 31
0.0
  0
LINE
  5
79D
330
7E5
100
AcDbEntity
  8
0
100
AcDbLine
 10
183.3063307502863
 20
193.0264977922792
 30
0.0
 11
191.7635643373593
 21
193.0264977922792
 31
0.0
  0
LINE
  5
79E
330
7E5
100
AcDbEntity
  8
0
100
AcDbLine
 10
184.2460233710722
 20
193.0264977922792
 30
0.0
 11
184.2460233710722
 21
216.0264977922792
 31
0.0
  0
LINE
  5
79F
330
7E5
100
AcDbEntity
  8
0
100
AcDbLine
 10
190.8238717165741
 20
193.0264977922792
 30
0.0
 11
190.8238717165741
 21
216.0264977922792
 31
0.0
  0
TEXT
  5
7A0
330
7E5
100
AcDbEntity
  8
0
100
AcDbText
 10
184.5177402754563
 20
213.8348125502054
 30
0.0
 40
6.0
  1
0
 50
270.0
 41
0.65
  7
SIM065
 72
     4
 11
187.5177402754563
 21
212.5348125502054
 31
0.0
100
AcDbText
  0
TEXT
  5
7A1
330
7E5
100
AcDbEntity
  8
0
100
AcDbText
 10
184.5177402754563
 20
208.8348125502054
 30
0.0
 40
6.0
  1
0
 50
270.0
 41
0.65
  7
SIM065
 72
     4
 11
187.5177402754563
 21
207.5348125502054
 31
0.0
100
AcDbText
  0
TEXT
  5
7A2
330
7E5
100
AcDbEntity
  8
0
100
AcDbText
 10
184.5177402754563
 20
203.8348125502054
 30
0.0
 40
6.0
  1
0
 50
270.0
 41
0.65
  7
SIM065
 72
     4
 11
187.5177402754563
 21
202.5348125502054
 31
0.0
100
AcDbText
  0
LINE
  5
7A3
330
7E5
100
AcDbEntity
  8
0
100
AcDbLine
 10
187.4419183656866
 20
193.5264977922792
 30
0.0
 11
187.4419183656866
 21
194.5264977922792
 31
0.0
  0
LINE
  5
7A4
330
7E5
100
AcDbEntity
  8
0
100
AcDbLine
 10
188.4419183656866
 20
193.5264977922792
 30
0.0
 11
188.4419183656866
 21
194.0264977922792
 31
0.0
  0
LINE
  5
7A5
330
7E5
100
AcDbEntity
  8
0
100
AcDbLine
 10
189.2419183656866
 20
193.5264977922792
 30
0.0
 11
189.2419183656866
 21
194.0264977922792
 31
0.0
  0
LINE
  5
7A6
330
7E5
100
AcDbEntity
  8
0
100
AcDbLine
 10
189.8419183656866
 20
193.5264977922792
 30
0.0
 11
189.8419183656866
 21
194.0264977922792
 31
0.0
  0
LINE
  5
7A7
330
7E5
100
AcDbEntity
  8
0
100
AcDbLine
 10
190.2419183656866
 20
193.5264977922792
 30
0.0
 11
190.2419183656866
 21
194.0264977922792
 31
0.0
  0
LINE
  5
7A8
330
7E5
100
AcDbEntity
  8
0
100
AcDbLine
 10
190.4419183656866
 20
193.5264977922792
 30
0.0
 11
190.4419183656866
 21
194.528388171805
 31
0.0
  0
LINE
  5
7A9
330
7E5
100
AcDbEntity
  8
0
100
AcDbLine
 10
184.4419183656866
 20
193.5264977922792
 30
0.0
 11
184.4419183656866
 21
194.528388171805
 31
0.0
  0
LINE
  5
7AA
330
7E5
100
AcDbEntity
  8
0
100
AcDbLine
 10
184.6419183656866
 20
193.5264977922792
 30
0.0
 11
184.6419183656866
 21
194.0264977922792
 31
0.0
  0
LINE
  5
7AB
330
7E5
100
AcDbEntity
  8
0
100
AcDbLine
 10
185.0419183656866
 20
193.5264977922792
 30
0.0
 11
185.0419183656866
 21
194.0264977922792
 31
0.0
  0
LINE
  5
7AC
330
7E5
100
AcDbEntity
  8
0
100
AcDbLine
 10
185.6419183656866
 20
193.5264977922792
 30
0.0
 11
185.6419183656866
 21
194.0264977922792
 31
0.0
  0
LINE
  5
7AD
330
7E5
100
AcDbEntity
  8
0
100
AcDbLine
 10
186.4419183656866
 20
193.5264977922792
 30
0.0
 11
186.4419183656866
 21
194.0264977922792
 31
0.0
  0
LINE
  5
7AE
330
7E5
100
AcDbEntity
  8
0
100
AcDbLine
 10
174.1877744830071
 20
143.6882696681305
 30
0.0
 11
181.1877744830071
 21
143.6882696681305
 31
0.0
  0
LINE
  5
7AF
330
7E5
100
AcDbEntity
  8
0
100
AcDbLine
 10
174.1877744830071
 20
123.8882696681305
 30
0.0
 11
181.1877744830071
 21
123.8882696681305
 31
0.0
  0
CIRCLE
  5
7B0
330
7E5
100
AcDbEntity
  8
0
100
AcDbCircle
 10
255.5395434987184
 20
133.7882696681305
 30
0.0
 40
9.899999999999977
  0
INSERT
  5
7B1
330
7E5
100
AcDbEntity
  8
0
100
AcDbBlockReference
  2
STDGX5
 10
0.0
 20
0.0
 30
0.0
  0
INSERT
  5
7B2
330
7E5
100
AcDbEntity
  8
0
100
AcDbBlockReference
  2
STDGX5
 10
0.0
 20
0.0
 30
0.0
  0
INSERT
  5
7B3
330
7E5
100
AcDbEntity
  8
0
100
AcDbBlockReference
  2
STDGX5
 10
275.0
 20
0.0
 30
0.0
  0
INSERT
  5
7B4
330
7E5
100
AcDbEntity
  8
0
100
AcDbBlockReference
  2
STDGX5
 10
275.0
 20
0.0
 30
0.0
  0
TEXT
  5
91E
330
7E5
100
AcDbEntity
  8
0
100
AcDbText
 10
184.490639662635
 20
199.0627565050592
 30
0.0
 40
6.0
  1
3
 50
270.0
 41
0.7
100
AcDbText
  0
ENDSEC
  0
SECTION
  2
OBJECTS
  0
DICTIONARY
  5
7D3
330
0
100
AcDbDictionary
281
     1
  3
ACAD_GROUP
350
7D4
  3
ACAD_LAYOUT
350
7E0
  3
ACAD_MLINESTYLE
350
7DD
  3
ACAD_PLOTSETTINGS
350
7DF
  3
ACAD_PLOTSTYLENAME
350
7D5
  3
AcDbVariableDictionary
350
80C
  3
AcmDictionary
350
8D5
  3
AMG
350
81B
  3
AMGSNAPSETTINGS
350
913
  3
DWGPROPS
350
8D8
  3
MAPISURF_MODULE
350
8A7
  3
Simple$CDFRecord
350
800
  3
Simple$Histroy
350
7FE
  3
Simple$System
350
7FF
  0
DICTIONARY
  5
91F
330
7E5
100
AcDbDictionary
280
     1
281
     1
  3
ACAD_INDEX
360
920
  0
DICTIONARY
  5
7D4
102
{ACAD_REACTORS
330
7D3
102
}
330
7D3
100
AcDbDictionary
281
     1
  0
DICTIONARY
  5
7E0
102
{ACAD_REACTORS
330
7D3
102
}
330
7D3
100
AcDbDictionary
281
     1
  3
Model
350
7E8
  3
ﾚｲｱｳﾄ1
350
7E4
  0
DICTIONARY
  5
7DD
102
{ACAD_REACTORS
330
7D3
102
}
330
7D3
100
AcDbDictionary
281
     1
  3
Standard
350
7DE
  0
DICTIONARY
  5
7DF
102
{ACAD_REACTORS
330
7D3
102
}
330
7D3
100
AcDbDictionary
281
     1
  0
ACDBDICTIONARYWDFLT
  5
7D5
102
{ACAD_REACTORS
330
7D3
102
}
330
7D3
100
AcDbDictionary
281
     1
  3
Normal
350
7D6
100
AcDbDictionaryWithDefault
340
7D6
  0
DICTIONARY
  5
80C
102
{ACAD_REACTORS
330
7D3
102
}
330
7D3
100
AcDbDictionary
281
     1
  3
DIMASSOC
350
80D
  3
INDEXCTL
350
928
  0
DICTIONARY
  5
8D5
102
{ACAD_REACTORS
330
7D3
102
}
330
7D3
100
AcDbDictionary
281
     1
  3
AcmBOMDATA
350
8D6
  3
AcmStdDictionary
350
8E4
  0
DICTIONARY
  5
81B
102
{ACAD_REACTORS
330
7D3
102
}
330
7D3
100
AcDbDictionary
281
     1
  3
AcMgSettings
350
81C
  3
AMGLAYCFG
350
8E6
  0
DICTIONARY
  5
913
102
{ACAD_REACTORS
330
7D3
102
}
330
7D3
100
AcDbDictionary
281
     1
  3
DIMENSION
350
918
  3
FEA
350
917
  3
HATCH (1)
350
914
  3
HATCH (2)
350
915
  3
SIMPLE WELD
350
919
  3
SYMBOLS
350
916
  0
XRECORD
  5
8D8
102
{ACAD_REACTORS
330
7D3
102
}
330
7D3
100
AcDbXrecord
280
     1
  1
DWGPROPS COOKIE
  2

  3

  4

  6

  7

  8

  9

300
AmdtFileType=84
301
=
302
=
303
=
304
=
305
=
306
=
307
=
308
=
309
=
 40
0.1075728125
 41
2449954.602013888
 42
2453220.79429
  1

 90
        1
  0
XRECORD
  5
800
102
{ACAD_REACTORS
330
7D3
102
}
330
7D3
100
AcDbXrecord
280
     1
  1

  0
XRECORD
  5
7FE
102
{ACAD_REACTORS
330
7D3
102
}
330
7D3
100
AcDbXrecord
280
     1
  1
2003年01月09日　20:44^J^J^J
  0
XRECORD
  5
7FF
102
{ACAD_REACTORS
330
7D3
102
}
330
7D3
100
AcDbXrecord
280
     1
  1
"14Q1FY",0,0,"1.25","0",0,0,0,1,"","",0,0,0,0,"",20,0,0,0,"\x81\x41\x81\x42\x81\x43\x81\x44\x81\x48\x81\x49\x81\x6A\x81\x6C\x81\x6E\x81\x70\x81\x72\x81\x74\x81\x76\x81\x78\x81\x7A\x29\x5D\x7D\xA3\xA4\xA1","\x81\x69\x81\x6B\x81\x6D\x81\x6F\x81\x71\x81\x73\x81\x75\x81\x77\x81\x79\x28\x5B\xA2\x7B","\x81\x69\x28\x81\x6A\x29\x81\x6D\x5B\x81\x6E\x5D\x81\x6F\x7B\x81\x70\x7D\x81\x75\xA2\x81\x76\xA3\x81\x41\xA4\x81\x42\xA1\x81\x43\x2C\x81\x44\x2E\x81\x45\xA5"
  2
50,"0",0,1,0
  3
|><@~^ %$~
  4
0,"0","0"
  6
0,0,0,0,0,"0",0
  8
0,""
 38
1.0
  0
DICTIONARY
  5
920
102
{ACAD_REACTORS
330
91F
102
}
330
91F
100
AcDbDictionary
281
     1
  3
*A1
350
921
  0
LAYOUT
  5
7E8
102
{ACAD_REACTORS
330
7E0
102
}
330
7E0
100
AcDbPlotSettings
  1

  2
Canon LASER SHOT LBP-1510
  4

  6

 40
0.0
 41
0.0
 42
0.0
 43
0.0
 44
0.0
 45
0.0
 46
0.0
 47
0.0
 48
0.0
 49
0.0
140
0.0
141
0.0
142
1.0
143
1.0
 70
  1712
 72
     0
 73
     0
 74
     0
  7

 75
     0
147
1.0
148
0.0
149
0.0
100
AcDbLayout
  1
Model
 70
     1
 71
     0
 10
0.0
 20
0.0
 11
12.0
 21
9.0
 12
0.0
 22
0.0
 32
0.0
 14
0.0
 24
0.0
 34
0.0
 15
0.0
 25
0.0
 35
0.0
146
0.0
 13
0.0
 23
0.0
 33
0.0
 16
1.0
 26
0.0
 36
0.0
 17
0.0
 27
1.0
 37
0.0
 76
     0
330
7E5
  0
LAYOUT
  5
7E4
102
{ACAD_REACTORS
330
7E0
102
}
330
7E0
100
AcDbPlotSettings
  1

  2
Canon LASER SHOT LBP-1510
  4

  6

 40
0.0
 41
0.0
 42
0.0
 43
0.0
 44
0.0
 45
0.0
 46
0.0
 47
0.0
 48
0.0
 49
0.0
140
0.0
141
0.0
142
1.0
143
1.0
 70
   688
 72
     0
 73
     0
 74
     5
  7

 75
    16
147
1.0
148
0.0
149
0.0
100
AcDbLayout
  1
ﾚｲｱｳﾄ1
 70
     0
 71
     1
 10
0.0
 20
0.0
 11
12.0
 21
9.0
 12
0.0
 22
0.0
 32
0.0
 14
1.000000000000000E+20
 24
1.000000000000000E+20
 34
1.000000000000000E+20
 15
-1.000000000000000E+20
 25
-1.000000000000000E+20
 35
-1.000000000000000E+20
146
0.0
 13
0.0
 23
0.0
 33
0.0
 16
1.0
 26
0.0
 36
0.0
 17
0.0
 27
1.0
 37
0.0
 76
     0
330
7E1
  0
MLINESTYLE
  5
7DE
102
{ACAD_REACTORS
330
7DD
102
}
330
7DD
100
AcDbMlineStyle
  2
STANDARD
 70
     0
  3

 62
   256
 51
90.0
 52
90.0
 71
     2
 49
0.5
 62
   256
  6
BYLAYER
 49
-0.5
 62
   256
  6
BYLAYER
  0
ACDBPLACEHOLDER
  5
7D6
102
{ACAD_REACTORS
330
7D5
102
}
330
7D5
  0
DICTIONARYVAR
  5
80D
102
{ACAD_REACTORS
330
80C
102
}
330
80C
100
DictionaryVariables
280
     0
  1
0
  0
DICTIONARYVAR
  5
928
102
{ACAD_REACTORS
330
80C
102
}
330
80C
100
DictionaryVariables
280
     0
  1
1
  0
ACMDATADICTIONARY
  5
8D6
102
{ACAD_REACTORS
330
8D5
102
}
330
8D5
100
AcDbDictionary
281
     1
  3
*A1
350
8D7
100
AcmDataDictionary
  0
DICTIONARY
  5
8E4
102
{ACAD_REACTORS
330
8D5
102
}
330
8D5
100
AcDbDictionary
281
     1
  3
ANSI
350
8E5
  0
DICTIONARY
  5
81C
102
{ACAD_REACTORS
330
81B
102
}
330
81B
100
AcDbDictionary
281
     1
  3
DWGSETTINGS
350
81D
  3
TRANSSETTINGS
350
821
  0
ACAMGFILTERDAT
  5
918
102
{ACAD_REACTORS
330
913
102
}
330
913
100
AcAmgFilterDat
 70
    15
  1
DIMENSION,AMDT_*_DIM
  2
*
  3
*
  4
*
  5
*
290
     1
  0
ACAMGFILTERDAT
  5
917
102
{ACAD_REACTORS
330
913
102
}
330
913
100
AcAmgFilterDat
 70
    15
  1
*
  2
AM_FEA-AM_*
  3
*
  4
*
  5
*
290
     1
  0
ACAMGFILTERDAT
  5
914
102
{ACAD_REACTORS
330
913
102
}
330
913
100
AcAmgFilterDat
 70
    15
  1
HATCH
  2
*
  3
*
  4
*
  5
*
290
     1
  0
ACAMGFILTERDAT
  5
915
102
{ACAD_REACTORS
330
913
102
}
330
913
100
AcAmgFilterDat
 70
    15
  1
LINE
  2
8,8N,*-8,*-8N,AM_8,AM_8N,*-AM_8,*-AM_8N
  3
*
  4
*
  5
INSERT,STDPART2D
290
     1
  0
ACAMGFILTERDAT
  5
919
102
{ACAD_REACTORS
330
913
102
}
330
913
100
AcAmgFilterDat
 70
    15
  1
ARC
  2
AM_5
  3
*
  4
2
  5
INSERT
290
     0
  0
ACAMGFILTERDAT
  5
916
102
{ACAD_REACTORS
330
913
102
}
330
913
100
AcAmgFilterDat
 70
    15
  1
ACMFCFRAME,ACMDATUMTARGET,ACMDATUMID,ACMWELDSYM,ACMSURFSYM,ACMFEATID,ACMPARTREF,ACMBALLOON,AMDTEDGESYM,AMGSCREWCALCTABLE
  2
*
  3
*
  4
*
  5
*
290
     1
  0
LAYER_INDEX
  5
921
102
{ACAD_REACTORS
330
920
102
}
330
920
100
AcDbIndex
 40
2454537.359980821
100
AcDbLayerIndex
  8
0
360
922
 90
      162
  8
1
360
923
 90
       12
  8
3
360
924
 90
       61
  8
2
360
925
 90
       16
  8
5
360
926
 90
        9
  0
ACMDATAENTRYBLOCK
  5
8D7
102
{ACAD_REACTORS
330
8D6
102
}
330
8D6
100
AcmDataEntry
100
AcmDataEntryBlock
  0
IDBUFFER
  5
922
330
0
100
AcDbIdBuffer
330
720
330
721
330
74B
330
76D
330
778
330
783
330
784
330
785
330
786
330
787
330
788
330
789
330
78A
330
791
330
792
330
793
330
794
330
795
330
796
330
797
330
798
330
799
330
79A
330
79B
330
79C
330
79D
330
79E
330
79F
330
7A0
330
7A1
330
7A2
330
7A3
330
7A4
330
7A5
330
7A6
330
7A7
330
7A8
330
7A9
330
7AA
330
7AB
330
7AC
330
7AD
330
7AE
330
7AF
330
7B0
330
7B1
330
7B2
330
7B3
330
7B4
330
91E
330
38A
330
38B
330
38C
330
38D
330
452
330
453
330
454
330
455
330
61E
330
629
330
62A
330
62B
330
62C
330
62D
330
62E
330
62F
330
630
330
631
330
698
330
699
330
69A
330
69B
330
6A2
330
6A3
330
6A4
330
6A5
330
6AC
330
6B3
330
6B4
330
6B5
330
6B6
330
6B7
330
6B8
330
6B9
330
6BA
330
6BD
330
6BE
330
6BF
330
6C0
330
6C1
330
6C2
330
6C3
330
6C4
330
6C5
330
6C6
330
6C7
330
6C8
330
6CA
330
6CB
330
6CC
330
6CD
330
6CE
330
6CF
330
6D7
330
6DD
330
6DE
330
6DF
330
6E1
330
6E3
330
6E4
330
6E5
330
6E6
330
6E7
330
6E8
330
6E9
330
6EA
330
6EC
330
6EF
330
6F0
330
6F1
330
6F3
330
6F4
330
6F5
330
6F6
330
6F7
330
6F8
330
6F9
330
6FA
330
6FB
330
6FC
330
6FD
330
6FE
330
6FF
330
700
330
701
330
702
330
703
330
704
330
705
330
706
330
707
330
70A
330
70B
330
70C
330
70D
330
70E
330
70F
330
710
330
711
330
712
330
713
330
714
330
715
330
717
330
718
330
719
330
71A
330
71B
330
71C
330
71D
330
71E
330
71F
  0
IDBUFFER
  5
923
330
0
100
AcDbIdBuffer
330
61D
330
655
330
6BB
330
6BC
330
6C9
330
6EB
330
6F2
330
708
330
709
330
716
330
722
330
78B
  0
IDBUFFER
  5
924
330
0
100
AcDbIdBuffer
330
68F
330
690
330
691
330
692
330
693
330
694
330
695
330
696
330
6D8
330
6DA
330
6DB
330
6DC
330
729
330
643
330
656
330
65C
330
662
330
663
330
664
330
665
330
666
330
667
330
668
330
669
330
66A
330
66B
330
66C
330
66D
330
66E
330
66F
330
670
330
671
330
672
330
673
330
674
330
675
330
676
330
677
330
678
330
679
330
67A
330
67B
330
67C
330
67D
330
67E
330
67F
330
680
330
681
330
682
330
683
330
684
330
685
330
686
330
687
330
688
330
689
330
68A
330
68B
330
68C
330
68D
330
68E
  0
IDBUFFER
  5
925
330
0
100
AcDbIdBuffer
330
61B
330
61C
330
6D0
330
6D1
330
6D2
330
6D3
330
6D4
330
6D5
330
6D6
330
6D9
330
6E0
330
6E2
330
6ED
330
6EE
330
78F
330
790
  0
IDBUFFER
  5
926
330
0
100
AcDbIdBuffer
330
723
330
724
330
725
330
726
330
727
330
728
330
78C
330
78D
330
78E
  0
ENDSEC
  0
EOF
