  0
SECTION
  2
HEADER
  9
$ACADVER
  1
AC1015
  9
$ACADMAINTVER
 70
    13
  9
$DWGCODEPAGE
  3
ANSI_932
  9
$INSBASE
 10
0.0
 20
0.0
 30
0.0
  9
$EXTMIN
 10
72.31938712354687
 20
44.10803467151966
 30
0.0
  9
$EXTMAX
 10
291.9304528038902
 20
247.2203130679237
 30
0.0
  9
$LIMMIN
 10
0.0
 20
0.0
  9
$LIMMAX
 10
375.0
 20
270.0
  9
$ORTHOMODE
 70
     1
  9
$REGENMODE
 70
     1
  9
$FILLMODE
 70
     1
  9
$QTEXTMODE
 70
     0
  9
$MIRRTEXT
 70
     0
  9
$LTSCALE
 40
10.0
  9
$ATTMODE
 70
     1
  9
$TEXTSIZE
 40
6.0
  9
$TRACEWID
 40
0.05
  9
$TEXTSTYLE
  7
STANDARD
  9
$CLAYER
  8
0
  9
$CELTYPE
  6
ByLayer
  9
$CECOLOR
 62
   256
  9
$CELTSCALE
 40
1.0
  9
$DISPSILH
 70
     0
  9
$DIMSCALE
 40
1.0
  9
$DIMASZ
 40
3.0
  9
$DIMEXO
 40
2.0
  9
$DIMDLI
 40
0.38
  9
$DIMRND
 40
0.0
  9
$DIMDLE
 40
0.0
  9
$DIMEXE
 40
2.0
  9
$DIMTP
 40
0.0
  9
$DIMTM
 40
0.0
  9
$DIMTXT
 40
3.2
  9
$DIMCEN
 40
0.0
  9
$DIMTSZ
 40
0.0
  9
$DIMTOL
 70
     0
  9
$DIMLIM
 70
     0
  9
$DIMTIH
 70
     0
  9
$DIMTOH
 70
     0
  9
$DIMSE1
 70
     0
  9
$DIMSE2
 70
     0
  9
$DIMTAD
 70
     1
  9
$DIMZIN
 70
     0
  9
$DIMBLK
  1

  9
$DIMASO
 70
     0
  9
$DIMSHO
 70
     0
  9
$DIMPOST
  1

  9
$DIMAPOST
  1

  9
$DIMALT
 70
     0
  9
$DIMALTD
 70
     2
  9
$DIMALTF
 40
25.4
  9
$DIMLFAC
 40
1.0
  9
$DIMTOFL
 70
     0
  9
$DIMTVP
 40
1.6
  9
$DIMTIX
 70
     1
  9
$DIMSOXD
 70
     0
  9
$DIMSAH
 70
     0
  9
$DIMBLK1
  1

  9
$DIMBLK2
  1

  9
$DIMSTYLE
  2
STANDARD
  9
$DIMCLRD
 70
     4
  9
$DIMCLRE
 70
     4
  9
$DIMCLRT
 70
     4
  9
$DIMTFAC
 40
1.0
  9
$DIMGAP
 40
0.09
  9
$DIMJUST
 70
     0
  9
$DIMSD1
 70
     0
  9
$DIMSD2
 70
     0
  9
$DIMTOLJ
 70
     1
  9
$DIMTZIN
 70
     0
  9
$DIMALTZ
 70
     0
  9
$DIMALTTZ
 70
     0
  9
$DIMUPT
 70
     0
  9
$DIMDEC
 70
     1
  9
$DIMTDEC
 70
     1
  9
$DIMALTU
 70
     2
  9
$DIMALTTD
 70
     2
  9
$DIMTXSTY
  7
STANDARD
  9
$DIMAUNIT
 70
     0
  9
$DIMADEC
 70
     0
  9
$DIMALTRND
 40
0.0
  9
$DIMAZIN
 70
     0
  9
$DIMDSEP
 70
    46
  9
$DIMATFIT
 70
     3
  9
$DIMFRAC
 70
     0
  9
$DIMLDRBLK
  1

  9
$DIMLUNIT
 70
     2
  9
$DIMLWD
 70
    -2
  9
$DIMLWE
 70
    -2
  9
$DIMTMOVE
 70
     2
  9
$LUNITS
 70
     2
  9
$LUPREC
 70
     1
  9
$SKETCHINC
 40
0.1
  9
$FILLETRAD
 40
22.0
  9
$AUNITS
 70
     0
  9
$AUPREC
 70
     0
  9
$MENU
  1
E:\r13\win\SUPPORT\ACAD
  9
$ELEVATION
 40
0.0
  9
$PELEVATION
 40
0.0
  9
$THICKNESS
 40
0.0
  9
$LIMCHECK
 70
     0
  9
$CHAMFERA
 40
1.199999999999999
  9
$CHAMFERB
 40
1.199999999999999
  9
$CHAMFERC
 40
0.0
  9
$CHAMFERD
 40
0.0
  9
$SKPOLY
 70
     0
  9
$TDCREATE
 40
2449954.602013888
  9
$TDUCREATE
 40
2449954.227013888
  9
$TDUPDATE
 40
2454537.363213426
  9
$TDUUPDATE
 40
2454536.988213426
  9
$TDINDWG
 40
0.1195039352
  9
$TDUSRTIMER
 40
0.1195039352
  9
$USRTIMER
 70
     1
  9
$ANGBASE
 50
0.0
  9
$ANGDIR
 70
     0
  9
$PDMODE
 70
     0
  9
$PDSIZE
 40
0.0
  9
$PLINEWID
 40
0.0
  9
$SPLFRAME
 70
     0
  9
$SPLINETYPE
 70
     6
  9
$SPLINESEGS
 70
     8
  9
$HANDSEED
  5
1253
  9
$SURFTAB1
 70
     6
  9
$SURFTAB2
 70
     6
  9
$SURFTYPE
 70
     6
  9
$SURFU
 70
     6
  9
$SURFV
 70
     6
  9
$UCSBASE
  2

  9
$UCSNAME
  2

  9
$UCSORG
 10
0.0
 20
0.0
 30
0.0
  9
$UCSXDIR
 10
1.0
 20
0.0
 30
0.0
  9
$UCSYDIR
 10
0.0
 20
1.0
 30
0.0
  9
$UCSORTHOREF
  2

  9
$UCSORTHOVIEW
 70
     0
  9
$UCSORGTOP
 10
0.0
 20
0.0
 30
0.0
  9
$UCSORGBOTTOM
 10
0.0
 20
0.0
 30
0.0
  9
$UCSORGLEFT
 10
0.0
 20
0.0
 30
0.0
  9
$UCSORGRIGHT
 10
0.0
 20
0.0
 30
0.0
  9
$UCSORGFRONT
 10
0.0
 20
0.0
 30
0.0
  9
$UCSORGBACK
 10
0.0
 20
0.0
 30
0.0
  9
$PUCSBASE
  2

  9
$PUCSNAME
  2

  9
$PUCSORG
 10
0.0
 20
0.0
 30
0.0
  9
$PUCSXDIR
 10
1.0
 20
0.0
 30
0.0
  9
$PUCSYDIR
 10
0.0
 20
1.0
 30
0.0
  9
$PUCSORTHOREF
  2

  9
$PUCSORTHOVIEW
 70
     0
  9
$PUCSORGTOP
 10
0.0
 20
0.0
 30
0.0
  9
$PUCSORGBOTTOM
 10
0.0
 20
0.0
 30
0.0
  9
$PUCSORGLEFT
 10
0.0
 20
0.0
 30
0.0
  9
$PUCSORGRIGHT
 10
0.0
 20
0.0
 30
0.0
  9
$PUCSORGFRONT
 10
0.0
 20
0.0
 30
0.0
  9
$PUCSORGBACK
 10
0.0
 20
0.0
 30
0.0
  9
$USERI1
 70
     0
  9
$USERI2
 70
     1
  9
$USERI3
 70
     0
  9
$USERI4
 70
     0
  9
$USERI5
 70
     0
  9
$USERR1
 40
0.0
  9
$USERR2
 40
0.0
  9
$USERR3
 40
0.0
  9
$USERR4
 40
0.0
  9
$USERR5
 40
0.0
  9
$WORLDVIEW
 70
     1
  9
$SHADEDGE
 70
     3
  9
$SHADEDIF
 70
    70
  9
$TILEMODE
 70
     1
  9
$MAXACTVP
 70
    16
  9
$PINSBASE
 10
0.0
 20
0.0
 30
0.0
  9
$PLIMCHECK
 70
     0
  9
$PEXTMIN
 10
1.000000000000000E+20
 20
1.000000000000000E+20
 30
1.000000000000000E+20
  9
$PEXTMAX
 10
-1.000000000000000E+20
 20
-1.000000000000000E+20
 30
-1.000000000000000E+20
  9
$PLIMMIN
 10
0.0
 20
0.0
  9
$PLIMMAX
 10
12.0
 20
9.0
  9
$UNITMODE
 70
     0
  9
$VISRETAIN
 70
     0
  9
$PLINEGEN
 70
     0
  9
$PSLTSCALE
 70
     0
  9
$TREEDEPTH
 70
  3020
  9
$CMLSTYLE
  2
Standard
  9
$CMLJUST
 70
     0
  9
$CMLSCALE
 40
1.0
  9
$PROXYGRAPHICS
 70
     1
  9
$MEASUREMENT
 70
     0
  9
$CELWEIGHT
370
    -1
  9
$ENDCAPS
280
     0
  9
$JOINSTYLE
280
     0
  9
$LWDISPLAY
290
     0
  9
$INSUNITS
 70
     0
  9
$HYPERLINKBASE
  1

  9
$STYLESHEET
  1

  9
$XEDIT
290
     1
  9
$CEPSNTYPE
380
     0
  9
$PSTYLEMODE
290
     1
  9
$FINGERPRINTGUID
  2
{FBEAFCA9-BE1B-4115-918D-810C0C6138FD}
  9
$VERSIONGUID
  2
{3B0FD6F9-7AEA-4C05-9D9D-8D55D49F2531}
  9
$EXTNAMES
290
     1
  9
$PSVPSCALE
 40
0.0
  9
$OLESTARTUP
290
     0
  0
ENDSEC
  0
SECTION
  2
CLASSES
  0
CLASS
  1
ACDBDICTIONARYWDFLT
  2
AcDbDictionaryWithDefault
  3
AutoCAD 2000
 90
        0
280
     0
281
     0
  0
CLASS
  1
ACDBPLACEHOLDER
  2
AcDbPlaceHolder
  3
AutoCAD 2000
 90
        0
280
     0
281
     0
  0
CLASS
  1
LAYOUT
  2
AcDbLayout
  3
AutoCAD 2000
 90
        0
280
     0
281
     0
  0
CLASS
  1
DICTIONARYVAR
  2
AcDbDictionaryVar
  3
AutoCAD 2000
 90
        0
280
     0
281
     0
  0
CLASS
  1
ACME_DOCUMENT
  2
AcMeDbDoc
  3
AcMeServices
 90
        0
280
     0
281
     0
  0
CLASS
  1
AMGSETTINGSOBJ
  2
AmgSettingsObj
  3
"AcadM|Product Description: AutoCAD Mechanical 2000|Company: Autodesk"
 90
        0
280
     0
281
     0
  0
CLASS
  1
ACMESCOPE
  2
AcMeScope
  3
AcMeServices
 90
        0
280
     0
281
     0
  0
CLASS
  1
ACMECOMMANDHISTORY
  2
AcMeCommandHistory
  3
AcMeServices
 90
        0
280
     0
281
     0
  0
CLASS
  1
ACIMSYSVARMAN
  2
AcImSysVarManager
  3
AcMeServices
 90
        0
280
     0
281
     0
  0
CLASS
  1
ACIMREALSYSVAR
  2
AcImRealSysVar
  3
AcMeServices
 90
        0
280
     0
281
     0
  0
CLASS
  1
ACIMINTSYSVAR
  2
AcImIntSysVar
  3
AcMeServices
 90
        0
280
     0
281
     0
  0
CLASS
  1
ACMEDRAWINGMAN
  2
AcMeDrawingMan
  3
AcMeServices
 90
        0
280
     0
281
     0
  0
CLASS
  1
ACMEVIEW
  2
AcMeView
  3
AcMeServices
 90
        0
280
     0
281
     0
  0
CLASS
  1
ACDBENTITYCACHE
  2
AcMeEntityCache
  3
AcMeServices
 90
        0
280
     0
281
     0
  0
CLASS
  1
GSMANAGER
  2
AcMeGSManager
  3
AcMeServices
 90
        0
280
     0
281
     0
  0
CLASS
  1
AMDTINTERNALREACTOR
  2
AmdtInternalReactor
  3
AcMeServices
 90
        0
280
     0
281
     0
  0
CLASS
  1
ACMESTATEMGR
  2
AcMeStateMgr
  3
AcMeServices
 90
        0
280
     0
281
     0
  0
CLASS
  1
ACGREFMASTER
  2
AcGrefMaster
  3
AcAttribServices
 90
        0
280
     0
281
     0
  0
CLASS
  1
AM_DRAWING_MGR
  2
AcDmDwgMgr
  3
AcMechDwgViewMgmt
 90
        0
280
     0
281
     0
  0
CLASS
  1
AM_DWG_DOCUMENT
  2
AcDmDwgDocument
  3
AcMechDwgViewMgmt
 90
        0
280
     0
281
     0
  0
CLASS
  1
AM_DWG_SHEET
  2
AcDmSheet
  3
AcMechDwgViewMgmt
 90
        0
280
     0
281
     0
  0
CLASS
  1
AM_VIEWDIMPARMAP
  2
AcDmViewDimParMap
  3
AcMechDwgViewMgmt
 90
        0
280
     0
281
     0
  0
CLASS
  1
AM_DWGMGR_NAME
  2
AcDmDwgMgrName
  3
AcMechDwgViewMgmt
 90
        0
280
     0
281
     0
  0
CLASS
  1
ACME_DATABASE
  2
AcMeDbDatabase
  3
AcMeServices
 90
        0
280
     0
281
     0
  0
CLASS
  1
ACRFINSADJUSTERMGR
  2
AcRfInsAdjusterMgr
  3
AcMeServices
 90
        0
280
     0
281
     0
  0
CLASS
  1
ACGREFACADMASTER
  2
AcGrefacadMaster
  3
AcGrefServices
 90
        0
280
     0
281
     0
  0
CLASS
  1
AMDTMENUSTATEMGR
  2
AmdtMenuStateMgr
  3
McadcomServices
 90
        0
280
     0
281
     0
  0
CLASS
  1
AMDTMCOMMENUSTATE
  2
AmdtMcomMenuState
  3
McadcomServices
 90
        0
280
     0
281
     0
  0
CLASS
  1
AMIMASTER
  2
AmiMaster
  3
AmiServices
 90
        0
280
     0
281
     0
  0
CLASS
  1
ASAPP
  2
AcAsAppObject
  3
AutoSurfServices
 90
        0
280
     0
281
     0
  0
CLASS
  1
IM_STATIC_MAN
  2
AcImStaticVarManager
  3
AcMeServices
 90
        0
280
     0
281
     0
  0
CLASS
  1
ACIMSTRSYSVAR
  2
AcImStrSysVar
  3
AcMeServices
 90
        0
280
     0
281
     0
  0
CLASS
  1
ACIMDBLSTATICVAR
  2
AcImDblStaticVar
  3
AcMeServices
 90
        0
280
     0
281
     0
  0
CLASS
  1
ACIMSTRSTATICVAR
  2
AcImStrStaticVar
  3
AcMeServices
 90
        0
280
     0
281
     0
  0
CLASS
  1
ACIMINTSTATICVAR
  2
AcImIntStaticVar
  3
AcMeServices
 90
        0
280
     0
281
     0
  0
CLASS
  1
ACASGREFMASTER
  2
AcAsGrefMaster
  3
AutoSurfResolverServices
 90
        0
280
     0
281
     0
  0
CLASS
  1
ACADGREFMODULE
  2
AcAdGrefModule
  3
AdGrefServices
 90
        0
280
     0
281
     0
  0
CLASS
  1
AMDTMAPISURFMOUDULE
  2
AmdtMApiSurfModule
  3
MApiSurfServices
 90
        0
280
     0
281
     0
  0
CLASS
  1
MAPIAMMOUDLE
  2
MApiAmModule
  3
MApiAmServices
 90
        0
280
     0
281
     0
  0
CLASS
  1
AMDTADMENUSTATE
  2
AmdtAdMenuState
  3
DesignerServices
 90
        0
280
     0
281
     0
  0
CLASS
  1
ADAPPL
  2
AcAdAppl
  3
DesignerServices
 90
        0
280
     0
281
     0
  0
CLASS
  1
DEPMGR
  2
AcAdDepMgr
  3
DesignerServices
 90
        0
280
     0
281
     0
  0
CLASS
  1
PARAMMGR
  2
AcAdParamMgr
  3
DesignerServices
 90
        0
280
     0
281
     0
  0
CLASS
  1
PARAMSCOPE
  2
AcAdParamScope
  3
DesignerServices
 90
        0
280
     0
281
     0
  0
CLASS
  1
NAMEDAPPL
  2
AcAdNamedAppl
  3
DesignerServices
 90
        0
280
     0
281
     0
  0
CLASS
  1
AMDTDMMENUSTATE
  2
AmdtDmMenuState
  3
AcMechDwgViewMgmt
 90
        0
280
     0
281
     0
  0
CLASS
  1
MAPIADMODULE
  2
MApiAdModule
  3
MApiAdServices
 90
        0
280
     0
281
     0
  0
CLASS
  1
AMDTAMMENUSTATE
  2
AmdtAmMenuState
  3
DesignerAssemblies
 90
        0
280
     0
281
     0
  0
CLASS
  1
ACAMPROJECT
  2
AcAmProject
  3
DesignerAssemblies
 90
        0
280
     0
281
     0
  0
CLASS
  1
ACAMGRCOMPDEF
  2
AcAmGrCompDef
  3
DesignerAssemblies
 90
        0
280
     0
281
     0
  0
CLASS
  1
ACCMCONTEXT
  2
AcCmContext
  3
DesignerAssemblies
 90
        0
280
     0
281
     0
  0
CLASS
  1
ACAMCOMPDEF
  2
AcAmCompDef
  3
DesignerAssemblies
 90
        0
280
     0
281
     0
  0
CLASS
  1
ACAMCOMPDEFMGR
  2
AcAmCompDefMgr
  3
DesignerAssemblies
 90
        0
280
     0
281
     0
  0
CLASS
  1
AMCONTEXTMGR
  2
AcAmContextMgr
  3
DesignerAssemblies
 90
        0
280
     0
281
     0
  0
CLASS
  1
ACAMCONTEXTMODELER
  2
AcAmContextModeler
  3
DesignerAssemblies
 90
        0
280
     0
281
     0
  0
CLASS
  1
ACMDATADICTIONARY
  2
AcmDataDictionary
  3
"AcmSymBB|Product Description: AutoCAD Mechanical 2000|Company: Autodesk"
 90
        0
280
     0
281
     0
  0
CLASS
  1
ACMDATAENTRYBLOCK
  2
AcmDataEntryBlock
  3
"AcmSymBB|Product Description: AutoCAD Mechanical 2000|Company: Autodesk"
 90
        0
280
     0
281
     0
  0
CLASS
  1
CATALOGSTATE
  2
AcAmCatalogState
  3
DesignerAssemblies
 90
        0
280
     0
281
     0
  0
CLASS
  1
ACAMGRCOMPDEFSET
  2
AcAmGrCompDefSet
  3
DesignerAssemblies
 90
        0
280
     0
281
     0
  0
CLASS
  1
AMDTBROWSERDBTAB
  2
AmdtBrowserDbTab
  3
McadcomServices
 90
        0
280
     0
281
     0
  0
CLASS
  1
CBROWSERAPPOBJECT
  2
CBrowserAppObject
  3
McadcomServices
 90
        0
280
     0
281
     0
  0
CLASS
  1
DM_PLACEHOLDER
  2
AcDmSelsetPlaceholder
  3
AcMechDwgViewMgmt
 90
        0
280
     0
281
     0
  0
CLASS
  1
ACMSTANDARDANSI
  2
AcmStandardANSI
  3
"Amdt_StdImp|Product Description: AutoCAD Mechanical 2000|Company: Autodesk"
 90
        0
280
     0
281
     0
  0
CLASS
  1
AMGOBJPROPCFG
  2
AmgObjPropCfg
  3
"AmgLay|Product Description: AutoCAD Mechanical 2000|Company: Autodesk"
 90
        1
280
     0
281
     0
  0
CLASS
  1
ACMSURFSTANDARDANSI
  2
AcmSurfTextStdANSI
  3
"Amdt_StdImp|Product Description: AutoCAD Mechanical 2000|Company: Autodesk"
 90
        0
280
     0
281
     0
  0
CLASS
  1
ACMFCFSTANDARDANSI
  2
AcmFCFStdANSI
  3
"Amdt_StdImp|Product Description: AutoCAD Mechanical 2000|Company: Autodesk"
 90
        0
280
     0
281
     0
  0
CLASS
  1
ACMWELDSTANDARDANSI
  2
AcmWeldingStdANSI
  3
"Amdt_StdImp|Product Description: AutoCAD Mechanical 2000|Company: Autodesk"
 90
        0
280
     0
281
     0
  0
CLASS
  1
ACMIDSTANDARDANSI
  2
AcmIdStdANSI
  3
"Amdt_StdImp|Product Description: AutoCAD Mechanical 2000|Company: Autodesk"
 90
        0
280
     0
281
     0
  0
CLASS
  1
ACMDATUMSTANDARDANSI
  2
AcmDatumStdANSI
  3
"Amdt_StdImp|Product Description: AutoCAD Mechanical 2000|Company: Autodesk"
 90
        0
280
     0
281
     0
  0
CLASS
  1
ACMBOMSTANDARDANSI
  2
AcmBOMStdANSI
  3
"Amdt_StdImp|Product Description: AutoCAD Mechanical 2000|Company: Autodesk"
 90
        0
280
     0
281
     0
  0
CLASS
  1
ACMDETAILSTANDARDANSI
  2
AmdtDetailSymStdANSI
  3
"Amdt_StdImp|Product Description: AutoCAD Mechanical 2000|Company: Autodesk"
 90
        0
280
     0
281
     0
  0
CLASS
  1
ACMSECTIONSTANDARDANSI
  2
AmdtSectionSymStdANSI
  3
"Amdt_StdImp|Product Description: AutoCAD Mechanical 2000|Company: Autodesk"
 90
        0
280
     0
281
     0
  0
CLASS
  1
ACMCENTERLINESTANDARDANSI
  2
AmdtCenterLineStdANSI
  3
"Amdt_StdImp|Product Description: AutoCAD Mechanical 2000|Company: Autodesk"
 90
        0
280
     0
281
     0
  0
CLASS
  1
ACMTHREADLINESTANDARDANSI
  2
AmdtThreadLineStdANSI
  3
"Amdt_StdImp|Product Description: AutoCAD Mechanical 2000|Company: Autodesk"
 90
        0
280
     0
281
     0
  0
CLASS
  1
ACMNOTESTANDARDANSI
  2
AmdtNoteStdANSI
  3
"Amdt_StdImp|Product Description: AutoCAD Mechanical 2000|Company: Autodesk"
 90
        0
280
     0
281
     0
  0
CLASS
  1
ACAMGLAYSTD
  2
AcAmgLayStd
  3
"AcAmgLayStd|Product Description: AutoCAD Mechanical 2000|Company: Autodesk"
 90
        0
280
     0
281
     0
  0
CLASS
  1
ACAMGDIMSTD
  2
AcAmgDimStd
  3
"AcAmgDimStd|Product Description: AutoCAD Mechanical 2000|Company: Autodesk"
 90
        0
280
     0
281
     0
  0
CLASS
  1
ACAMGHOLECHARTSTDANSI
  2
AcAmgHoleChartStdANSI
  3
ACMSYMBB_MODULE_NAME
 90
        0
280
     0
281
     0
  0
CLASS
  1
ACAMGTITLESTD
  2
AcAmgTitleStd
  3
"TITLEAPP"
 90
        0
280
     0
281
     0
  0
CLASS
  1
ACAMGFILTERDAT
  2
AcAmgFilterDat
  3
"AcadM|Product Description: AutoCAD Mechanical 2000|Company: Autodesk"
 90
        0
280
     0
281
     0
  0
CLASS
  1
LAYER_INDEX
  2
AcDbLayerIndex
  3
AutoCAD 2000
 90
        0
280
     0
281
     0
  0
CLASS
  1
IDBUFFER
  2
AcDbIdBuffer
  3
AutoCAD 2000
 90
        0
280
     0
281
     0
  0
ENDSEC
  0
SECTION
  2
TABLES
  0
TABLE
  2
VPORT
  5
10FA
330
0
100
AcDbSymbolTable
 70
     4
  0
VPORT
  5
1252
330
10FA
100
AcDbSymbolTableRecord
100
AcDbViewportTableRecord
  2
*Active
 70
     0
 10
0.0
 20
0.0
 11
1.0
 21
1.0
 12
0.0
 22
0.0
 13
0.0
 23
0.0
 14
10.0
 24
10.0
 15
10.0
 25
10.0
 16
0.0
 26
0.0
 36
1.0
 17
304.2701146543162
 27
173.2872006635484
 37
0.0
 40
343.6908200334465
 41
1.515723270440251
 42
50.0
 43
0.0
 44
0.0
 50
0.0
 51
0.0
 71
     0
 72
   500
 73
     1
 74
     0
 75
     0
 76
     0
 77
     0
 78
     2
281
     0
 65
     0
110
0.0
120
0.0
130
0.0
111
1.0
121
0.0
131
0.0
112
0.0
122
1.0
132
0.0
 79
     0
146
0.0
  0
ENDTAB
  0
TABLE
  2
LTYPE
  5
10F7
330
0
100
AcDbSymbolTable
 70
    20
  0
LTYPE
  5
1105
330
10F7
100
AcDbSymbolTableRecord
100
AcDbLinetypeTableRecord
  2
ByBlock
 70
     0
  3

 72
    65
 73
     0
 40
0.0
  0
LTYPE
  5
1106
330
10F7
100
AcDbSymbolTableRecord
100
AcDbLinetypeTableRecord
  2
ByLayer
 70
     0
  3

 72
    65
 73
     0
 40
0.0
  0
LTYPE
  5
1107
330
10F7
100
AcDbSymbolTableRecord
100
AcDbLinetypeTableRecord
  2
CONTINUOUS
 70
     0
  3
Solid Line
 72
    65
 73
     0
 40
0.0
  0
LTYPE
  5
1116
330
10F7
100
AcDbSymbolTableRecord
100
AcDbLinetypeTableRecord
  2
CENTER
 70
     0
  3
____ _ ____ _ ____ _ ____ _ ____ _ ____ _ ____
 72
    65
 73
     4
 40
2.0
 49
1.25
 74
     0
 49
-0.25
 74
     0
 49
0.25
 74
     0
 49
-0.25
 74
     0
  0
LTYPE
  5
1117
330
10F7
100
AcDbSymbolTableRecord
100
AcDbLinetypeTableRecord
  2
HIDDEN
 70
     0
  3
_ _ _ _ _ _ _ _ _ _ _ _ _ _ _ _ _ _ _ _ _ _ _
 72
    65
 73
     2
 40
0.375
 49
0.25
 74
     0
 49
-0.125
 74
     0
  0
LTYPE
  5
1118
330
10F7
100
AcDbSymbolTableRecord
100
AcDbLinetypeTableRecord
  2
PHANTOM
 70
     0
  3
_____ _ _ _____ _ _ _____ _ _ _____ _ _ ____
 72
    65
 73
     6
 40
2.5
 49
1.25
 74
     0
 49
-0.25
 74
     0
 49
0.25
 74
     0
 49
-0.25
 74
     0
 49
0.25
 74
     0
 49
-0.25
 74
     0
  0
LTYPE
  5
1119
330
10F7
100
AcDbSymbolTableRecord
100
AcDbLinetypeTableRecord
  2
PHA-05
 70
     0
  3
_____ _ _ _____ _ _ _____ _ _ _____ _ _ ____
 72
    65
 73
     6
 40
1.25
 49
0.625
 74
     0
 49
-0.125
 74
     0
 49
0.125
 74
     0
 49
-0.125
 74
     0
 49
0.125
 74
     0
 49
-0.125
 74
     0
  0
LTYPE
  5
116B
330
10F7
100
AcDbSymbolTableRecord
100
AcDbLinetypeTableRecord
  2
PHANTOM2
 70
     0
  3
Phantom (.5x) ___ _ _ ___ _ _ ___ _ _ ___ _ _
 72
    65
 73
     6
 40
1.25
 49
0.625
 74
     0
 49
-0.125
 74
     0
 49
0.125
 74
     0
 49
-0.125
 74
     0
 49
0.125
 74
     0
 49
-0.125
 74
     0
  0
LTYPE
  5
11CD
330
10F7
100
AcDbSymbolTableRecord
100
AcDbLinetypeTableRecord
  2
ASULTYPE
 70
     0
  3
実線
 72
    65
 73
     2
 40
3.0
 49
2.5
 74
     0
 49
0.5
 74
     0
  0
LTYPE
  5
11CE
330
10F7
100
AcDbSymbolTableRecord
100
AcDbLinetypeTableRecord
  2
ASVLTYPE
 70
     0
  3
__ __ __ __ __ __ __ __ __ __ __ __ __ __ __ __ __ __ __ __ __
 72
    65
 73
     2
 40
0.75
 49
0.5
 74
     0
 49
-0.25
 74
     0
  0
LTYPE
  5
1212
330
10F7
100
AcDbSymbolTableRecord
100
AcDbLinetypeTableRecord
  2
AM_ISO02W050
 70
     0
  3
__ __ __ __ __ __ __ __ __ __ __ __ __ __ __
 72
    65
 73
     2
 40
7.5
 49
6.0
 74
     0
 49
-1.5
 74
     0
  0
LTYPE
  5
1213
330
10F7
100
AcDbSymbolTableRecord
100
AcDbLinetypeTableRecord
  2
AM_ISO08W050
 70
     0
  3
____ . ____ . ____ . ____ . ____ . ____ . ____
 72
    65
 73
     4
 40
18.0
 49
12.0
 74
     0
 49
-1.5
 74
     0
 49
3.0
 74
     0
 49
-1.5
 74
     0
  0
LTYPE
  5
1214
330
10F7
100
AcDbSymbolTableRecord
100
AcDbLinetypeTableRecord
  2
AM_ISO09W050
 70
     0
  3
_____ . . _____ . . _____ . . ____ .. ____
 72
    65
 73
     6
 40
22.5
 49
12.0
 74
     0
 49
-1.5
 74
     0
 49
3.0
 74
     0
 49
-1.5
 74
     0
 49
3.0
 74
     0
 49
-1.5
 74
     0
  0
LTYPE
  5
1215
330
10F7
100
AcDbSymbolTableRecord
100
AcDbLinetypeTableRecord
  2
Amconstr
 70
     0
  3
_______________________
 72
    65
 73
     2
 40
9999.0
 49
9999.0
 74
     0
 49
0.0
 74
     0
  0
LTYPE
  5
1216
330
10F7
100
AcDbSymbolTableRecord
100
AcDbLinetypeTableRecord
  2
AM_ISO08W050x2
 70
     0
  3
__ . __ . __ . __ . __ . __
 72
    65
 73
     4
 40
9.0
 49
6.0
 74
     0
 49
-0.75
 74
     0
 49
1.5
 74
     0
 49
-0.75
 74
     0
  0
LTYPE
  5
1217
330
10F7
100
AcDbSymbolTableRecord
100
AcDbLinetypeTableRecord
  2
AM_ISO02W050x2
 70
     0
  3
 _ _ _ _ _ _ _ _ _ _ _ _
 72
    65
 73
     2
 40
3.75
 49
3.0
 74
     0
 49
-0.75
 74
     0
  0
LTYPE
  5
121A
330
10F7
100
AcDbSymbolTableRecord
100
AcDbLinetypeTableRecord
  2
Amzigzag
 70
     0
  3
/\/-/\/-/\/-/\/-/\/-/\/
 72
    65
 73
     2
 40
11.00009999999999
 49
0.0001
 74
     4
 75
   135
340
1219
 46
0.04
 50
0.0
 44
0.0
 45
0.0
 49
-11.0
 74
     0
  0
LTYPE
  5
121B
330
10F7
100
AcDbSymbolTableRecord
100
AcDbLinetypeTableRecord
  2
CENTER2
 70
     0
  3
Center (.5x) ___ _ ___ _ ___ _ ___ _ ___ _ ___
 72
    65
 73
     4
 40
1.125
 49
0.75
 74
     0
 49
-0.125
 74
     0
 49
0.125
 74
     0
 49
-0.125
 74
     0
  0
LTYPE
  5
121C
330
10F7
100
AcDbSymbolTableRecord
100
AcDbLinetypeTableRecord
  2
HIDDEN2
 70
     0
  3
Hidden (.5x) _ _ _ _ _ _ _ _ _ _ _ _ _ _ _ _ _
 72
    65
 73
     2
 40
0.1875
 49
0.125
 74
     0
 49
-0.0625
 74
     0
  0
LTYPE
  5
121D
330
10F7
100
AcDbSymbolTableRecord
100
AcDbLinetypeTableRecord
  2
Amzigzag2
 70
     0
  3
/\/-/\/-/\/-/\/-/\/-/\/
 72
    65
 73
     2
 40
0.4401
 49
0.0001
 74
     4
 75
   135
340
1219
 46
0.0016
 50
0.0
 44
0.0
 45
0.0
 49
-0.4400000000000001
 74
     0
  0
LTYPE
  5
122B
330
10F7
100
AcDbSymbolTableRecord
100
AcDbLinetypeTableRecord
  2
ACANSTGB
 70
     0
  3
__ . . __ . .
 72
    65
 73
     6
 40
0.35433070866
 49
0.15748031496
 74
     0
 49
-0.03937007874
 74
     0
 49
0.03937007874
 74
     0
 49
-0.03937007874
 74
     0
 49
0.03937007874
 74
     0
 49
-0.03937007874
 74
     0
  0
LTYPE
  5
122C
330
10F7
100
AcDbSymbolTableRecord
100
AcDbLinetypeTableRecord
  2
ACANSTGL
 70
     0
  3
_ _ _ _ _
 72
    65
 73
     2
 40
0.11811023622
 49
0.07874015748
 74
     0
 49
-0.03937007874
 74
     0
  0
ENDTAB
  0
TABLE
  2
LAYER
  5
10F4
330
0
100
AcDbSymbolTable
 70
     5
  0
LAYER
  5
1102
330
10F4
100
AcDbSymbolTableRecord
100
AcDbLayerTableRecord
  2
0
 70
     0
 62
     7
  6
CONTINUOUS
370
    -3
390
1101
  0
LAYER
  5
111D
330
10F4
100
AcDbSymbolTableRecord
100
AcDbLayerTableRecord
  2
1
 70
     0
 62
     1
  6
CENTER
370
    -3
390
1101
  0
LAYER
  5
111E
330
10F4
100
AcDbSymbolTableRecord
100
AcDbLayerTableRecord
  2
3
 70
     0
 62
     7
  6
CONTINUOUS
370
    -3
390
1101
  0
LAYER
  5
1121
330
10F4
100
AcDbSymbolTableRecord
100
AcDbLayerTableRecord
  2
2
 70
     0
 62
     3
  6
HIDDEN
370
    -3
390
1101
  0
LAYER
  5
1122
330
10F4
100
AcDbSymbolTableRecord
100
AcDbLayerTableRecord
  2
5
 70
     0
 62
     7
  6
PHANTOM
370
    -3
390
1101
  0
ENDTAB
  0
TABLE
  2
STYLE
  5
10F5
330
0
100
AcDbSymbolTable
 70
     5
  0
STYLE
  5
1103
330
10F5
100
AcDbSymbolTableRecord
100
AcDbTextStyleTableRecord
  2
STANDARD
 70
     0
 40
0.0
 41
0.7
 50
0.0
 71
     0
 42
6.0
  3
SIMPLEX.shx
  4
BIGFONT.shx
  0
STYLE
  5
1115
330
10F5
100
AcDbSymbolTableRecord
100
AcDbTextStyleTableRecord
  2
SIM065
 70
     0
 40
0.0
 41
0.65
 50
0.0
 71
     0
 42
3.2
  3
SIMPLEX
  4

  0
STYLE
  5
1219
330
10F5
100
AcDbSymbolTableRecord
100
AcDbTextStyleTableRecord
  2

 70
     1
 40
0.0
 41
1.0
 50
0.0
 71
     0
 42
4.000000000000048
  3
ltypeshp.shx
  4

  0
STYLE
  5
121E
330
10F5
100
AcDbSymbolTableRecord
100
AcDbTextStyleTableRecord
  2
ACANSTS
 70
     0
 40
1.0
 41
1.0
 50
0.0
 71
     0
 42
4.000000000000048
  3
romans.shx
  4
extfont.shx
  0
STYLE
  5
122A
330
10F5
100
AcDbSymbolTableRecord
100
AcDbTextStyleTableRecord
  2
ACANSGDT
 70
     0
 40
0.0
 41
1.0
 50
0.0
 71
     0
 42
4.000000000000048
  3
amgdtans.shx
  4

  0
ENDTAB
  0
TABLE
  2
VIEW
  5
10F8
330
0
100
AcDbSymbolTable
 70
     1
  0
VIEW
  5
111A
330
10F8
100
AcDbSymbolTableRecord
100
AcDbViewTableRecord
  2
ALL
 70
     0
 40
270.0
 10
220.7859531772575
 20
135.0
 41
441.571906354515
 11
0.0
 21
0.0
 31
1.0
 12
0.0
 22
0.0
 32
0.0
 42
50.0
 43
0.0
 44
0.0
 50
0.0
 71
     0
281
     0
 72
     0
  0
ENDTAB
  0
TABLE
  2
UCS
  5
10F9
330
0
100
AcDbSymbolTable
 70
     0
  0
ENDTAB
  0
TABLE
  2
APPID
  5
10FB
330
0
100
AcDbSymbolTable
 70
    13
  0
APPID
  5
1104
330
10FB
100
AcDbSymbolTableRecord
100
AcDbRegAppTableRecord
  2
ACAD
 70
     0
  0
APPID
  5
1149
330
10FB
100
AcDbSymbolTableRecord
100
AcDbRegAppTableRecord
  2
GENIUS_GENDIM_13
 70
     0
  0
APPID
  5
114A
330
10FB
100
AcDbSymbolTableRecord
100
AcDbRegAppTableRecord
  2
GENIUS_GENDTOL_13
 70
     0
  0
APPID
  5
114B
330
10FB
100
AcDbSymbolTableRecord
100
AcDbRegAppTableRecord
  2
GENIUS_GE3DTOL_13
 70
     0
  0
APPID
  5
114E
330
10FB
100
AcDbSymbolTableRecord
100
AcDbRegAppTableRecord
  2
MCAD_NO_VIS
 70
     0
  0
APPID
  5
114F
330
10FB
100
AcDbSymbolTableRecord
100
AcDbRegAppTableRecord
  2
ACAD_TEMP_GRAPHIC
 70
     0
  0
APPID
  5
1180
330
10FB
100
AcDbSymbolTableRecord
100
AcDbRegAppTableRecord
  2
AD_DRAW
 70
     0
  0
APPID
  5
1183
330
10FB
100
AcDbSymbolTableRecord
100
AcDbRegAppTableRecord
  2
ACATTRIBSERVICES
 70
     0
  0
APPID
  5
11CF
330
10FB
100
AcDbSymbolTableRecord
100
AcDbRegAppTableRecord
  2
ASURF_PCURVE_APPNAME
 70
     0
  0
APPID
  5
11D4
330
10FB
100
AcDbSymbolTableRecord
100
AcDbRegAppTableRecord
  2
AMG_3D2D_5.0
 70
     0
  0
APPID
  5
11FF
330
10FB
100
AcDbSymbolTableRecord
100
AcDbRegAppTableRecord
  2
DESIGNERASSEMBLIES
 70
     0
  0
APPID
  5
1207
330
10FB
100
AcDbSymbolTableRecord
100
AcDbRegAppTableRecord
  2
ACADM_DIM_EDIT
 70
     0
  0
APPID
  5
1208
330
10FB
100
AcDbSymbolTableRecord
100
AcDbRegAppTableRecord
  2
AMDT_DM_ADJ
 70
     0
  0
ENDTAB
  0
TABLE
  2
DIMSTYLE
  5
10FC
330
0
100
AcDbSymbolTable
 70
     7
100
AcDbDimStyleTable
 71
     1
340
111C
  0
DIMSTYLE
105
111C
330
10FC
100
AcDbSymbolTableRecord
100
AcDbDimStyleTableRecord
  2
STANDARD
 70
     0
271
     1
272
     1
279
     2
340
1103
  0
DIMSTYLE
105
1231
330
10FC
100
AcDbSymbolTableRecord
100
AcDbDimStyleTableRecord
  2
AM_ANSI
 70
     0
  4
mm
 41
0.1
 42
0.05
 43
0.5
 44
0.1
 47
0.1
 48
0.1
 78
     7
 79
     2
140
0.12
141
0.0
146
0.71
147
0.06
176
   256
177
   256
178
     2
274
     4
284
     7
340
1103
371
    -1
372
    -1
  0
DIMSTYLE
105
1232
330
10FC
100
AcDbSymbolTableRecord
100
AcDbDimStyleTableRecord
  2
AM_ANSI$3
 70
     0
  4
mm
 41
0.1
 42
0.05
 43
0.5
 44
0.1
 47
0.1
 48
0.1
 78
     7
 79
     2
140
0.12
141
0.0
146
0.71
147
0.06
176
   256
177
   256
178
     2
274
     4
284
     7
288
     1
289
     0
340
1103
371
    -1
372
    -1
  0
DIMSTYLE
105
1233
330
10FC
100
AcDbSymbolTableRecord
100
AcDbDimStyleTableRecord
  2
AM_ANSI$4
 70
     0
  4
mm
 41
0.1
 42
0.05
 43
0.5
 44
0.1
 47
0.1
 48
0.1
 78
     7
 79
     2
140
0.12
141
0.0
146
0.71
147
0.06
176
   256
177
   256
178
     2
274
     4
284
     7
288
     1
289
     0
340
1103
371
    -1
372
    -1
  0
DIMSTYLE
105
1234
330
10FC
100
AcDbSymbolTableRecord
100
AcDbDimStyleTableRecord
  2
AM_ANSI$7
 70
     0
  4
mm
 41
0.1
 42
0.05
 43
0.5
 44
0.1
 47
0.1
 48
0.1
 78
     7
 79
     2
140
0.24
141
0.0
146
0.71
147
0.06
176
   256
177
   256
178
     2
274
     4
284
     7
340
1103
371
    -1
372
    -1
  0
DIMSTYLE
105
1235
330
10FC
100
AcDbSymbolTableRecord
100
AcDbDimStyleTableRecord
  2
AM_ANSI$SF
 70
     0
  4
mm
 41
0.1
 42
0.05
 43
0.5
 44
0.1
 47
0.1
 48
0.1
 75
     1
 76
     1
 78
     7
 79
     2
140
0.12
141
0.0
146
0.71
147
0.06
176
   256
177
   256
178
     2
274
     4
284
     7
340
1103
371
    -1
372
    -1
  0
DIMSTYLE
105
123A
330
10FC
100
AcDbSymbolTableRecord
100
AcDbDimStyleTableRecord
  2
AM_ANSI$SH
 70
     0
  4
mm
 41
0.1
 42
0.05
 43
0.5
 44
0.1
 47
0.1
 48
0.1
 75
     1
 76
     1
 78
     7
 79
     2
140
0.12
141
0.0
146
0.71
147
0.06
173
     1
176
   256
177
   256
178
     2
274
     4
284
     7
340
1103
343
1236
371
    -1
372
    -1
  0
ENDTAB
  0
TABLE
  2
BLOCK_RECORD
  5
10F3
330
0
100
AcDbSymbolTable
 70
     3
  0
BLOCK_RECORD
  5
1110
102
{ACAD_XDICTIONARY
360
1248
102
}
330
10F3
100
AcDbSymbolTableRecord
100
AcDbBlockTableRecord
  2
*Model_Space
340
1113
  0
BLOCK_RECORD
  5
110C
330
10F3
100
AcDbSymbolTableRecord
100
AcDbBlockTableRecord
  2
*Paper_Space
340
110F
  0
BLOCK_RECORD
  5
1114
330
10F3
100
AcDbSymbolTableRecord
100
AcDbBlockTableRecord
  2
STDGX5
340
0
102
{BLKREFS
331
38A
331
38B
331
38C
331
38D
331
452
331
453
331
454
331
455
331
7B1
331
7B2
331
7B3
331
7B4
331
BB4
331
BB5
331
BB6
331
BB7
331
102F
331
1030
331
1031
331
1032
102
}
  0
BLOCK_RECORD
  5
11F6
330
10F3
100
AcDbSymbolTableRecord
100
AcDbBlockTableRecord
  2
*U1
340
0
  0
BLOCK_RECORD
  5
1236
330
10F3
100
AcDbSymbolTableRecord
100
AcDbBlockTableRecord
  2
GENAXEH
340
0
  0
ENDTAB
  0
ENDSEC
  0
SECTION
  2
BLOCKS
  0
BLOCK
  5
1125
330
1110
100
AcDbEntity
  8
0
100
AcDbBlockBegin
  2
*Model_Space
 70
     0
 10
0.0
 20
0.0
 30
0.0
  3
*Model_Space
  1

  0
ENDBLK
  5
1126
330
1110
100
AcDbEntity
  8
0
100
AcDbBlockEnd
  0
BLOCK
  5
1123
330
110C
100
AcDbEntity
 67
     1
  8
0
100
AcDbBlockBegin
  2
*Paper_Space
 70
     0
 10
0.0
 20
0.0
 30
0.0
  3
*Paper_Space
  1

  0
ENDBLK
  5
1124
330
110C
100
AcDbEntity
 67
     1
  8
0
100
AcDbBlockEnd
  0
BLOCK
  5
2ED
330
1114
100
AcDbEntity
  8
0
100
AcDbBlockBegin
  2
STDGX5
 70
     0
 10
0.0
 20
0.0
 30
0.0
  3
STDGX5
  1

  0
ENDBLK
  5
2EE
330
1114
100
AcDbEntity
  8
0
100
AcDbBlockEnd
  0
BLOCK
  5
11F7
330
11F6
100
AcDbEntity
  8
0
100
AcDbBlockBegin
  2
*U1
 70
     1
 10
0.0
 20
0.0
 30
0.0
  3
*U1
  1

  0
ENDBLK
  5
11F8
330
11F6
100
AcDbEntity
  8
0
100
AcDbBlockEnd
  0
BLOCK
  5
1238
330
1236
100
AcDbEntity
  8
0
100
AcDbBlockBegin
  2
GENAXEH
 70
     0
 10
0.0
 20
0.0
 30
0.0
  3
GENAXEH
  1

  0
LINE
  5
1237
330
1236
100
AcDbEntity
  8
0
100
AcDbLine
 10
-1.0
 20
0.0
 30
0.0
 11
1.0
 21
0.0
 31
0.0
  0
ENDBLK
  5
1239
330
1236
100
AcDbEntity
  8
0
100
AcDbBlockEnd
  0
ENDSEC
  0
SECTION
  2
ENTITIES
  0
INSERT
  5
38A
330
1110
100
AcDbEntity
  8
0
100
AcDbBlockReference
  2
STDGX5
 10
0.0
 20
0.0
 30
0.0
  0
INSERT
  5
38B
330
1110
100
AcDbEntity
  8
0
100
AcDbBlockReference
  2
STDGX5
 10
0.0
 20
0.0
 30
0.0
  0
INSERT
  5
38C
330
1110
100
AcDbEntity
  8
0
100
AcDbBlockReference
  2
STDGX5
 10
275.0
 20
0.0
 30
0.0
  0
INSERT
  5
38D
330
1110
100
AcDbEntity
  8
0
100
AcDbBlockReference
  2
STDGX5
 10
275.0
 20
0.0
 30
0.0
  0
INSERT
  5
452
330
1110
100
AcDbEntity
  8
0
100
AcDbBlockReference
  2
STDGX5
 10
0.0
 20
0.0
 30
0.0
 41
2.0
 42
2.0
 43
2.0
  0
INSERT
  5
453
330
1110
100
AcDbEntity
  8
0
100
AcDbBlockReference
  2
STDGX5
 10
0.0
 20
0.0
 30
0.0
 41
2.0
 42
2.0
 43
2.0
  0
INSERT
  5
454
330
1110
100
AcDbEntity
  8
0
100
AcDbBlockReference
  2
STDGX5
 10
550.0
 20
0.0
 30
0.0
 41
2.0
 42
2.0
 43
2.0
  0
INSERT
  5
455
330
1110
100
AcDbEntity
  8
0
100
AcDbBlockReference
  2
STDGX5
 10
550.0
 20
0.0
 30
0.0
 41
2.0
 42
2.0
 43
2.0
  0
INSERT
  5
7B1
330
1110
100
AcDbEntity
  8
0
100
AcDbBlockReference
  2
STDGX5
 10
0.0
 20
0.0
 30
0.0
  0
INSERT
  5
7B2
330
1110
100
AcDbEntity
  8
0
100
AcDbBlockReference
  2
STDGX5
 10
0.0
 20
0.0
 30
0.0
  0
INSERT
  5
7B3
330
1110
100
AcDbEntity
  8
0
100
AcDbBlockReference
  2
STDGX5
 10
275.0
 20
0.0
 30
0.0
  0
INSERT
  5
7B4
330
1110
100
AcDbEntity
  8
0
100
AcDbBlockReference
  2
STDGX5
 10
275.0
 20
0.0
 30
0.0
  0
INSERT
  5
BB4
330
1110
100
AcDbEntity
  8
0
100
AcDbBlockReference
  2
STDGX5
 10
0.0
 20
0.0
 30
0.0
  0
INSERT
  5
BB5
330
1110
100
AcDbEntity
  8
0
100
AcDbBlockReference
  2
STDGX5
 10
0.0
 20
0.0
 30
0.0
  0
INSERT
  5
BB6
330
1110
100
AcDbEntity
  8
0
100
AcDbBlockReference
  2
STDGX5
 10
275.0
 20
0.0
 30
0.0
  0
INSERT
  5
BB7
330
1110
100
AcDbEntity
  8
0
100
AcDbBlockReference
  2
STDGX5
 10
275.0
 20
0.0
 30
0.0
  0
LINE
  5
DC1
330
1110
100
AcDbEntity
  8
2
100
AcDbLine
 10
198.6559298881811
 20
162.3216629242945
 30
0.0
 11
193.655929888181
 21
162.3216629242945
 31
0.0
  0
LINE
  5
DC2
330
1110
100
AcDbEntity
  8
2
100
AcDbLine
 10
198.6559298881811
 20
159.3216629242945
 30
0.0
 11
193.655929888181
 21
159.3216629242945
 31
0.0
  0
LINE
  5
DC3
330
1110
100
AcDbEntity
  8
1
100
AcDbLine
 10
166.1559298881812
 20
136.4881916985412
 30
0.0
 11
166.1559298881809
 21
127.2833485414624
 31
0.0
  0
POLYLINE
  5
DC4
330
1110
100
AcDbEntity
  8
0
100
AcDb2dPolyline
 66
     1
 10
0.0
 20
0.0
 30
0.0
  0
VERTEX
  5
DC5
330
DC4
100
AcDbEntity
  8
0
100
AcDbVertex
100
AcDb2dVertex
 10
168.1559298881812
 20
132.0739781361635
 30
0.0
 42
0.1332561510785427
  0
VERTEX
  5
DC6
330
DC4
100
AcDbEntity
  8
0
100
AcDbVertex
100
AcDb2dVertex
 10
168.0165625149769
 20
132.5876227128903
 30
0.0
 42
0.1067562697215899
  0
VERTEX
  5
DC7
330
DC4
100
AcDbEntity
  8
0
100
AcDbVertex
100
AcDb2dVertex
 10
167.5701434505542
 20
133.0739781361669
 30
0.0
 42
0.0828275296411588
 70
     2
 50
144.7356103171562
  0
VERTEX
  5
DC8
330
DC4
100
AcDbEntity
  8
0
100
AcDbVertex
100
AcDb2dVertex
 10
166.948236862051
 20
133.374548154802
 30
0.0
 42
0.0713517487533345
 50
144.7356103171562
  0
VERTEX
  5
DC9
330
DC4
100
AcDbEntity
  8
0
100
AcDbVertex
100
AcDb2dVertex
 10
166.1559298881812
 20
133.4881916985412
 30
0.0
 42
0.0713517487533383
  0
VERTEX
  5
DCA
330
DC4
100
AcDbEntity
  8
0
100
AcDbVertex
100
AcDb2dVertex
 10
165.3636229143116
 20
133.374548154802
 30
0.0
 42
0.0828275296411759
  0
VERTEX
  5
DCB
330
DC4
100
AcDbEntity
  8
0
100
AcDbVertex
100
AcDb2dVertex
 10
164.741716325808
 20
133.0739781361667
 30
0.0
 42
0.1067562697215909
 70
     2
 50
215.2643896828442
  0
VERTEX
  5
DCC
330
DC4
100
AcDbEntity
  8
0
100
AcDbVertex
100
AcDb2dVertex
 10
164.2952972613854
 20
132.5876227128901
 30
0.0
 42
0.1332561510785051
 50
215.2643896828441
  0
VERTEX
  5
DCD
330
DC4
100
AcDbEntity
  8
0
100
AcDbVertex
100
AcDb2dVertex
 10
164.1559298881812
 20
132.0739781361635
 30
0.0
 42
0.1332561510785378
  0
SEQEND
  5
DCE
330
DC4
100
AcDbEntity
  8
0
  0
LINE
  5
DCF
330
1110
100
AcDbEntity
  8
0
100
AcDbLine
 10
168.1559298881827
 20
131.6975621038401
 30
0.0
 11
168.1559298881827
 21
132.0739781361635
 31
0.0
  0
LINE
  5
DD0
330
1110
100
AcDbEntity
  8
0
100
AcDbLine
 10
164.1559298881812
 20
131.6975621038401
 30
0.0
 11
164.1559298881812
 21
132.0739781361635
 31
0.0
  0
LINE
  5
DD1
330
1110
100
AcDbEntity
  8
0
100
AcDbLine
 10
165.5785796194617
 20
130.7783232888728
 30
0.0
 11
165.0012293507417
 21
131.485430069484
 31
0.0
  0
LINE
  5
DD2
330
1110
100
AcDbEntity
  8
0
100
AcDbLine
 10
166.7332801569004
 20
130.7783232888728
 30
0.0
 11
165.5785796194617
 21
130.7783232888728
 31
0.0
  0
LINE
  5
DD3
330
1110
100
AcDbEntity
  8
0
100
AcDbLine
 10
167.3106304256205
 20
131.485430069484
 30
0.0
 11
166.7332801569004
 21
130.7783232888728
 31
0.0
  0
LINE
  5
DD4
330
1110
100
AcDbEntity
  8
0
100
AcDbLine
 10
166.7332801569004
 20
132.1925368500949
 30
0.0
 11
167.3106304256205
 21
131.485430069484
 31
0.0
  0
LINE
  5
DD5
330
1110
100
AcDbEntity
  8
0
100
AcDbLine
 10
165.5785796194617
 20
132.1925368500949
 30
0.0
 11
166.7332801569004
 21
132.1925368500949
 31
0.0
  0
LINE
  5
DD6
330
1110
100
AcDbEntity
  8
0
100
AcDbLine
 10
165.0012293507417
 20
131.485430069484
 30
0.0
 11
165.5785796194617
 21
132.1925368500949
 31
0.0
  0
POLYLINE
  5
DD7
330
1110
100
AcDbEntity
  8
0
100
AcDb2dPolyline
 66
     1
 10
0.0
 20
0.0
 30
0.0
 70
     1
  0
VERTEX
  5
DD8
330
DD7
100
AcDbEntity
  8
0
100
AcDbVertex
100
AcDb2dVertex
 10
164.1559298881812
 20
131.6975621038401
 30
0.0
 42
0.1332561510785378
  0
VERTEX
  5
DD9
330
DD7
100
AcDbEntity
  8
0
100
AcDbVertex
100
AcDb2dVertex
 10
164.2952972613854
 20
131.1839175271134
 30
0.0
 42
0.1067562697216182
  0
VERTEX
  5
DDA
330
DD7
100
AcDbEntity
  8
0
100
AcDbVertex
100
AcDb2dVertex
 10
164.741716325808
 20
130.6975621038368
 30
0.0
 42
0.082827529641178
 70
     2
 50
324.7356103171563
  0
VERTEX
  5
DDB
330
DD7
100
AcDbEntity
  8
0
100
AcDbVertex
100
AcDb2dVertex
 10
165.4298943368242
 20
130.3649628334332
 30
0.0
 42
0.0867079104444153
 50
324.7356103171563
  0
VERTEX
  5
DDC
330
DD7
100
AcDbEntity
  8
0
100
AcDbVertex
100
AcDb2dVertex
 10
166.1559298881812
 20
130.2833485414623
 30
0.0
 42
0.0713517487533383
  0
VERTEX
  5
DDD
330
DD7
100
AcDbEntity
  8
0
100
AcDbVertex
100
AcDb2dVertex
 10
166.9482368620508
 20
130.3969920852016
 30
0.0
 42
0.082827529641176
  0
VERTEX
  5
DDE
330
DD7
100
AcDbEntity
  8
0
100
AcDbVertex
100
AcDb2dVertex
 10
167.5701434505542
 20
130.6975621038368
 30
0.0
 42
0.1067562697215934
 70
     2
 50
35.26438968284415
  0
VERTEX
  5
DDF
330
DD7
100
AcDbEntity
  8
0
100
AcDbVertex
100
AcDb2dVertex
 10
168.0165625149769
 20
131.1839175271134
 30
0.0
 42
0.1332561510785433
 50
35.26438968284415
  0
VERTEX
  5
DE0
330
DD7
100
AcDbEntity
  8
0
100
AcDbVertex
100
AcDb2dVertex
 10
168.1559298881812
 20
131.6975621038401
 30
0.0
 42
0.1332561510785427
  0
VERTEX
  5
DE1
330
DD7
100
AcDbEntity
  8
0
100
AcDbVertex
100
AcDb2dVertex
 10
168.0165625149769
 20
132.2112066805668
 30
0.0
 42
0.1067562697215899
  0
VERTEX
  5
DE2
330
DD7
100
AcDbEntity
  8
0
100
AcDbVertex
100
AcDb2dVertex
 10
167.5701434505542
 20
132.6975621038434
 30
0.0
 42
0.0828275296411588
 70
     2
 50
144.7356103171562
  0
VERTEX
  5
DE3
330
DD7
100
AcDbEntity
  8
0
100
AcDbVertex
100
AcDb2dVertex
 10
166.9482368620508
 20
132.9981321224785
 30
0.0
 42
0.0713517487533345
 50
144.7356103171562
  0
VERTEX
  5
DE4
330
DD7
100
AcDbEntity
  8
0
100
AcDbVertex
100
AcDb2dVertex
 10
166.1559298881812
 20
133.1117756662179
 30
0.0
 42
0.0713517487533383
  0
VERTEX
  5
DE5
330
DD7
100
AcDbEntity
  8
0
100
AcDbVertex
100
AcDb2dVertex
 10
165.3636229143114
 20
132.9981321224785
 30
0.0
 42
0.0828275296411759
  0
VERTEX
  5
DE6
330
DD7
100
AcDbEntity
  8
0
100
AcDbVertex
100
AcDb2dVertex
 10
164.741716325808
 20
132.6975621038434
 30
0.0
 42
0.1067562697215909
 70
     2
 50
215.2643896828442
  0
VERTEX
  5
DE7
330
DD7
100
AcDbEntity
  8
0
100
AcDbVertex
100
AcDb2dVertex
 10
164.2952972613854
 20
132.2112066805667
 30
0.0
 42
0.1332561510785051
 50
215.2643896828441
  0
SEQEND
  5
DE8
330
DD7
100
AcDbEntity
  8
0
  0
POLYLINE
  5
DE9
330
1110
100
AcDbEntity
  8
3
100
AcDb2dPolyline
 66
     1
 10
0.0
 20
0.0
 30
0.0
 70
     1
  0
VERTEX
  5
DEA
330
DE9
100
AcDbEntity
  8
3
100
AcDbVertex
100
AcDb2dVertex
 10
164.5349298881814
 20
131.5428360017547
 30
0.0
 42
0.1332561510783856
  0
VERTEX
  5
DEB
330
DE9
100
AcDbEntity
  8
3
100
AcDbVertex
100
AcDb2dVertex
 10
164.6478871441636
 20
131.126527072317
 30
0.0
 42
0.1067562697215594
  0
VERTEX
  5
DEC
330
DE9
100
AcDbEntity
  8
3
100
AcDbVertex
100
AcDb2dVertex
 10
165.0097097958779
 20
130.732336001751
 30
0.0
 42
0.0828275296412491
 70
     2
 50
324.7356103171162
  0
VERTEX
  5
DED
330
DE9
100
AcDbEntity
  8
3
100
AcDbVertex
100
AcDb2dVertex
 10
165.5674780738064
 20
130.4627642930886
 30
0.0
 42
0.0867079104445219
 50
324.7356103171162
  0
VERTEX
  5
DEE
330
DE9
100
AcDbEntity
  8
3
100
AcDbVertex
100
AcDb2dVertex
 10
166.1559298881812
 20
130.396615909446
 30
0.0
 42
0.0713517487534402
  0
VERTEX
  5
DEF
330
DE9
100
AcDbEntity
  8
3
100
AcDbVertex
100
AcDb2dVertex
 10
166.7980946905024
 20
130.4887240016469
 30
0.0
 42
0.082827529641251
  0
VERTEX
  5
DF0
330
DE9
100
AcDbEntity
  8
3
100
AcDbVertex
100
AcDb2dVertex
 10
167.3021499804844
 20
130.732336001751
 30
0.0
 42
0.1067562697216031
 70
     2
 50
35.26438968288432
  0
VERTEX
  5
DF1
330
DE9
100
AcDbEntity
  8
3
100
AcDbVertex
100
AcDb2dVertex
 10
167.6639726321988
 20
131.1265270723172
 30
0.0
 42
0.1332561510783838
 50
35.26438968288432
  0
VERTEX
  5
DF2
330
DE9
100
AcDbEntity
  8
3
100
AcDbVertex
100
AcDb2dVertex
 10
167.7769298881809
 20
131.5428360017547
 30
0.0
 42
0.1332561510783027
  0
VERTEX
  5
DF3
330
DE9
100
AcDbEntity
  8
3
100
AcDbVertex
100
AcDb2dVertex
 10
167.6639726321988
 20
131.9591449311924
 30
0.0
 42
0.1067562697215362
  0
VERTEX
  5
DF4
330
DE9
100
AcDbEntity
  8
3
100
AcDbVertex
100
AcDb2dVertex
 10
167.3021499804844
 20
132.3533360017585
 30
0.0
 42
0.0828275296412412
 70
     2
 50
144.7356103171161
  0
VERTEX
  5
DF5
330
DE9
100
AcDbEntity
  8
3
100
AcDbVertex
100
AcDb2dVertex
 10
166.7980946905024
 20
132.5969480018627
 30
0.0
 42
0.071351748753442
 50
144.7356103171161
  0
VERTEX
  5
DF6
330
DE9
100
AcDbEntity
  8
3
100
AcDbVertex
100
AcDb2dVertex
 10
166.1559298881812
 20
132.6890560940634
 30
0.0
 42
0.0713517487534358
  0
VERTEX
  5
DF7
330
DE9
100
AcDbEntity
  8
3
100
AcDbVertex
100
AcDb2dVertex
 10
165.51376508586
 20
132.5969480018627
 30
0.0
 42
0.0828275296412505
  0
VERTEX
  5
DF8
330
DE9
100
AcDbEntity
  8
3
100
AcDbVertex
100
AcDb2dVertex
 10
165.0097097958779
 20
132.3533360017585
 30
0.0
 42
0.1067562697215789
 70
     2
 50
215.2643896828843
  0
VERTEX
  5
DF9
330
DE9
100
AcDbEntity
  8
3
100
AcDbVertex
100
AcDb2dVertex
 10
164.6478871441634
 20
131.9591449311924
 30
0.0
 42
0.133256151078348
 50
215.2643896828843
  0
SEQEND
  5
DFA
330
DE9
100
AcDbEntity
  8
3
  0
LINE
  5
DFB
330
1110
100
AcDbEntity
  8
1
100
AcDbLine
 10
114.3480678577451
 20
136.4351775377899
 30
0.0
 11
121.4191356696107
 21
129.3641097259244
 31
0.0
  0
ARC
  5
DFC
330
1110
100
AcDbEntity
  8
0
100
AcDbCircle
 10
172.1559298881811
 20
198.9669764396929
 30
0.0
 40
2.0
100
AcDbArc
 50
180.0
 51
269.9999999999999
  0
ARC
  5
DFD
330
1110
100
AcDbEntity
  8
0
100
AcDbCircle
 10
172.1559298881811
 20
227.9669764396929
 30
0.0
 40
2.0
100
AcDbArc
 50
90.0
 51
179.9999999999999
  0
POLYLINE
  5
DFE
330
1110
100
AcDbEntity
  8
0
100
AcDb2dPolyline
 66
     1
 10
0.0
 20
0.0
 30
0.0
  0
VERTEX
  5
DFF
330
DFE
100
AcDbEntity
  8
0
100
AcDbVertex
100
AcDb2dVertex
 10
170.1559298881811
 20
126.7288442258966
 30
0.0
 42
0.1338100391356221
  0
VERTEX
  5
E00
330
DFE
100
AcDbEntity
  8
0
100
AcDbVertex
100
AcDb2dVertex
 10
170.2950782889059
 20
126.218206414713
 30
0.0
 42
0.1067995667766738
  0
VERTEX
  5
E01
330
DFE
100
AcDbEntity
  8
0
100
AcDbVertex
100
AcDb2dVertex
 10
170.741716325808
 20
125.7338167851749
 30
0.0
 42
0.0825742869876633
 70
     2
 50
324.8701393424911
  0
VERTEX
  5
E02
330
DFE
100
AcDbEntity
  8
0
100
AcDbVertex
100
AcDb2dVertex
 10
171.3633181289873
 20
125.4348074990115
 30
0.0
 42
0.0710145776751746
 50
324.8701393424911
  0
VERTEX
  5
E03
330
DFE
100
AcDbEntity
  8
0
100
AcDbVertex
100
AcDb2dVertex
 10
172.1559298881811
 20
125.3216629242946
 30
0.0
 42
0.0710145776751752
  0
SEQEND
  5
E04
330
DFE
100
AcDbEntity
  8
0
  0
LINE
  5
E05
330
1110
100
AcDbEntity
  8
0
100
AcDbLine
 10
172.1559298881811
 20
125.3216629242946
 30
0.0
 11
193.655929888181
 21
125.3216629242946
 31
0.0
  0
ARC
  5
E06
330
1110
100
AcDbEntity
  8
0
100
AcDbCircle
 10
164.0195643791701
 20
213.4669764396929
 30
0.0
 40
20.63636550901103
100
AcDbArc
 50
306.9119513864207
 51
53.08804861357923
  0
LINE
  5
E07
330
1110
100
AcDbEntity
  8
0
100
AcDbLine
 10
176.4134976298173
 20
166.3216629242946
 30
0.0
 11
193.655929888181
 21
166.3216629242946
 31
0.0
  0
POLYLINE
  5
E08
330
1110
100
AcDbEntity
  8
0
100
AcDb2dPolyline
 66
     1
 10
0.0
 20
0.0
 30
0.0
  0
VERTEX
  5
E09
330
E08
100
AcDbEntity
  8
0
100
AcDbVertex
100
AcDb2dVertex
 10
95.46158247124045
 20
162.6436794510152
 30
0.0
 42
-0.1343469449396857
  0
VERTEX
  5
E0A
330
E08
100
AcDbEntity
  8
0
100
AcDbVertex
100
AcDb2dVertex
 10
95.60051825757318
 20
163.1514249761126
 30
0.0
 42
-0.1068392138072506
  0
VERTEX
  5
E0B
330
E08
100
AcDbEntity
  8
0
100
AcDbVertex
100
AcDb2dVertex
 10
96.04736890886734
 20
163.6339224480272
 30
0.0
 42
-0.0823290349390688
 70
     2
 50
34.99999999999978
  0
VERTEX
  5
E0C
330
E08
100
AcDbEntity
  8
0
100
AcDbVertex
100
AcDb2dVertex
 10
96.73523062348245
 20
163.9632989278621
 30
0.0
 42
-0.0859662015761262
  0
VERTEX
  5
E0D
330
E08
100
AcDbEntity
  8
0
100
AcDbVertex
100
AcDb2dVertex
 10
97.4615824712405
 20
164.0440945274345
 30
0.0
 42
-0.0706899280621838
  0
SEQEND
  5
E0E
330
E08
100
AcDbEntity
  8
0
  0
POLYLINE
  5
E0F
330
1110
100
AcDbEntity
  8
0
100
AcDb2dPolyline
 66
     1
 10
0.0
 20
0.0
 30
0.0
  0
VERTEX
  5
E10
330
E0F
100
AcDbEntity
  8
0
100
AcDbVertex
100
AcDb2dVertex
 10
128.4615824712405
 20
162.6436794510152
 30
0.0
 42
0.1343469449396857
  0
VERTEX
  5
E11
330
E0F
100
AcDbEntity
  8
0
100
AcDbVertex
100
AcDb2dVertex
 10
128.3226466849078
 20
163.1514249761126
 30
0.0
 42
0.1068392138072506
  0
VERTEX
  5
E12
330
E0F
100
AcDbEntity
  8
0
100
AcDbVertex
100
AcDb2dVertex
 10
127.8757960336137
 20
163.6339224480272
 30
0.0
 42
0.0823290349390688
 70
     2
 50
145.0000000000002
  0
VERTEX
  5
E13
330
E0F
100
AcDbEntity
  8
0
100
AcDbVertex
100
AcDb2dVertex
 10
127.1879343189985
 20
163.9632989278621
 30
0.0
 42
0.0859662015761262
 50
145.0000000000002
  0
VERTEX
  5
E14
330
E0F
100
AcDbEntity
  8
0
100
AcDbVertex
100
AcDb2dVertex
 10
126.4615824712405
 20
164.0440945274345
 30
0.0
 42
0.0706899280621838
  0
SEQEND
  5
E15
330
E0F
100
AcDbEntity
  8
0
  0
ARC
  5
E16
330
1110
100
AcDbEntity
  8
0
100
AcDbCircle
 10
172.1559298881811
 20
124.3216629242946
 30
0.0
 40
2.0
100
AcDbArc
 50
179.9999999999999
 51
269.9999999999999
  0
ARC
  5
E17
330
1110
100
AcDbEntity
  8
0
100
AcDbCircle
 10
126.4615824712405
 20
126.7288442258966
 30
0.0
 40
2.0
100
AcDbArc
 50
288.8517011060364
 51
0.0
  0
ARC
  5
E18
330
1110
100
AcDbEntity
  8
0
100
AcDbCircle
 10
97.4615824712405
 20
126.7288442258966
 30
0.0
 40
2.0
100
AcDbArc
 50
180.0000000000002
 51
251.1482988939637
  0
ARC
  5
E19
330
1110
100
AcDbEntity
  8
0
100
AcDbCircle
 10
97.4615824712405
 20
164.9144816226926
 30
0.0
 40
2.0
100
AcDbArc
 50
108.8517011060356
 51
180.0
  0
ARC
  5
E1A
330
1110
100
AcDbEntity
  8
0
100
AcDbCircle
 10
126.4615824712405
 20
164.9144816226926
 30
0.0
 40
2.0
100
AcDbArc
 50
0.0
 51
71.14829889396424
  0
ARC
  5
E1B
330
1110
100
AcDbEntity
  8
0
100
AcDbCircle
 10
111.9615824712405
 20
122.4466629242946
 30
0.0
 40
46.87500000000002
100
AcDbArc
 50
71.1482986181751
 51
108.8517011060358
  0
ARC
  5
E1C
330
1110
100
AcDbEntity
  8
0
100
AcDbCircle
 10
111.9615824712405
 20
169.1966629242945
 30
0.0
 40
46.87500000000002
100
AcDbArc
 50
251.1482988939641
 51
288.8517011060359
  0
LINE
  5
E1D
330
1110
100
AcDbEntity
  8
0
100
AcDbLine
 10
126.4615824712405
 20
164.0440945274346
 30
0.0
 11
97.4615824712405
 21
164.0440945274346
 31
0.0
  0
LINE
  5
E1E
330
1110
100
AcDbEntity
  8
1
100
AcDbLine
 10
90.46158247124045
 20
138.8216629242946
 30
0.0
 11
133.4615824712405
 21
138.8216629242946
 31
0.0
  0
LINE
  5
E1F
330
1110
100
AcDbEntity
  8
1
100
AcDbLine
 10
111.9615824712405
 20
174.3216629242946
 30
0.0
 11
111.9615824712405
 21
117.3216629242945
 31
0.0
  0
ARC
  5
E20
330
1110
100
AcDbEntity
  8
0
100
AcDbCircle
 10
172.1559298881811
 20
162.6436794510152
 30
0.0
 40
2.0
100
AcDbArc
 50
110.0
 51
179.9999999999999
  0
LINE
  5
E21
330
1110
100
AcDbEntity
  8
0
100
AcDbLine
 10
198.1559298881811
 20
216.4669764396929
 30
0.0
 11
193.655929888181
 21
216.4669764396929
 31
0.0
  0
LINE
  5
E22
330
1110
100
AcDbEntity
  8
0
100
AcDbLine
 10
198.1559298881811
 20
210.466976439693
 30
0.0
 11
193.655929888181
 21
210.466976439693
 31
0.0
  0
LINE
  5
E23
330
1110
100
AcDbEntity
  8
0
100
AcDbLine
 10
198.6559298881811
 20
215.9669764396929
 30
0.0
 11
198.6559298881811
 21
210.9669764396929
 31
0.0
  0
LINE
  5
E24
330
1110
100
AcDbEntity
  8
0
100
AcDbLine
 10
198.1559298881811
 20
216.4669764396929
 30
0.0
 11
198.1559298881811
 21
210.466976439693
 31
0.0
  0
LINE
  5
E25
330
1110
100
AcDbEntity
  8
0
100
AcDbLine
 10
198.1559298881811
 20
216.4669764396929
 30
0.0
 11
198.6559298881811
 21
215.9669764396929
 31
0.0
  0
LINE
  5
E26
330
1110
100
AcDbEntity
  8
0
100
AcDbLine
 10
198.6559298881811
 20
210.9669764396929
 30
0.0
 11
198.1559298881811
 21
210.466976439693
 31
0.0
  0
LINE
  5
E27
330
1110
100
AcDbEntity
  8
0
100
AcDbLine
 10
193.655929888181
 20
229.9669764396928
 30
0.0
 11
172.1559298881811
 21
229.9669764396928
 31
0.0
  0
LINE
  5
E28
330
1110
100
AcDbEntity
  8
0
100
AcDbLine
 10
169.6559298881811
 20
199.9669764396928
 30
0.0
 11
169.6559298881811
 21
226.9669764396929
 31
0.0
  0
LINE
  5
E29
330
1110
100
AcDbEntity
  8
0
100
AcDbLine
 10
193.655929888181
 20
229.9669764396928
 30
0.0
 11
193.655929888181
 21
196.9669764396929
 31
0.0
  0
LINE
  5
E2A
330
1110
100
AcDbEntity
  8
0
100
AcDbLine
 10
193.655929888181
 20
196.9669764396929
 30
0.0
 11
172.1559298881811
 21
196.9669764396929
 31
0.0
  0
LINE
  5
E2B
330
1110
100
AcDbEntity
  8
0
100
AcDbLine
 10
190.6559298881811
 20
229.9669764396928
 30
0.0
 11
190.6559298881811
 21
196.9669764396929
 31
0.0
  0
LINE
  5
E2C
330
1110
100
AcDbEntity
  8
1
100
AcDbLine
 10
203.6559298881811
 20
213.4669764396929
 30
0.0
 11
157.6559298881811
 21
213.4669764396929
 31
0.0
  0
LINE
  5
E2D
330
1110
100
AcDbEntity
  8
0
100
AcDbLine
 10
170.1559298881811
 20
198.9669764396929
 30
0.0
 11
170.1559298881811
 21
227.9669764396929
 31
0.0
  0
LINE
  5
E2E
330
1110
100
AcDbEntity
  8
0
100
AcDbLine
 10
169.6559298881811
 20
199.9669764396928
 30
0.0
 11
170.1559298881811
 21
199.9669764396928
 31
0.0
  0
LINE
  5
E2F
330
1110
100
AcDbEntity
  8
0
100
AcDbLine
 10
169.6559298881811
 20
226.9669764396929
 30
0.0
 11
170.1559298881811
 21
226.9669764396929
 31
0.0
  0
LINE
  5
E30
330
1110
100
AcDbEntity
  8
0
100
AcDbLine
 10
162.6559298881811
 20
223.3669764396929
 30
0.0
 11
169.6559298881811
 21
223.3669764396929
 31
0.0
  0
LINE
  5
E31
330
1110
100
AcDbEntity
  8
0
100
AcDbLine
 10
162.6559298881811
 20
203.5669764396928
 30
0.0
 11
169.6559298881811
 21
203.5669764396928
 31
0.0
  0
LINE
  5
E32
330
1110
100
AcDbEntity
  8
0
100
AcDbLine
 10
162.6559298881811
 20
203.5669764396928
 30
0.0
 11
162.6559298881811
 21
223.3669764396929
 31
0.0
  0
LINE
  5
E33
330
1110
100
AcDbEntity
  8
2
100
AcDbLine
 10
163.6559298881811
 20
145.8216629242946
 30
0.0
 11
162.6559298881811
 21
146.8216629242945
 31
0.0
  0
LINE
  5
E34
330
1110
100
AcDbEntity
  8
2
100
AcDbLine
 10
163.6559298881811
 20
131.8216629242946
 30
0.0
 11
162.6559298881811
 21
130.8216629242946
 31
0.0
  0
LINE
  5
E35
330
1110
100
AcDbEntity
  8
2
100
AcDbLine
 10
163.6559298881811
 20
131.8216629242946
 30
0.0
 11
163.6559298881811
 21
145.8216629242946
 31
0.0
  0
LINE
  5
E36
330
1110
100
AcDbEntity
  8
2
100
AcDbLine
 10
117.295053696995
 20
130.659764573785
 30
0.0
 11
115.2907853991141
 21
132.6640328716658
 31
0.0
  0
LINE
  5
E37
330
1110
100
AcDbEntity
  8
2
100
AcDbLine
 10
117.6137025807742
 20
130.8771026301433
 30
0.0
 11
115.6305653341545
 21
132.860239876763
 31
0.0
  0
LINE
  5
E38
330
1110
100
AcDbEntity
  8
2
100
AcDbLine
 10
120.12348082175
 20
133.4881916985402
 30
0.0
 11
118.1192125238694
 21
135.4924599964209
 31
0.0
  0
LINE
  5
E39
330
1110
100
AcDbEntity
  8
2
100
AcDbLine
 10
119.9061427653919
 20
133.1695428147607
 30
0.0
 11
117.9230055187722
 21
135.1526800613804
 31
0.0
  0
LINE
  5
E3A
330
1110
100
AcDbEntity
  8
0
100
AcDbLine
 10
116.062801802118
 20
132.4123358708559
 30
0.0
 11
116.062801802118
 21
133.0233873185604
 31
0.0
  0
LINE
  5
E3B
330
1110
100
AcDbEntity
  8
3
100
AcDbLine
 10
116.072507072396
 20
132.4182981385215
 30
0.0
 11
116.062801802118
 21
132.4280034087995
 31
0.0
  0
LINE
  5
E3C
330
1110
100
AcDbEntity
  8
2
100
AcDbLine
 10
118.3709095246793
 20
134.7204435934171
 30
0.0
 11
118.8912289268731
 21
134.7204435934171
 31
0.0
  0
LINE
  5
E3D
330
1110
100
AcDbEntity
  8
3
100
AcDbLine
 10
118.3649472570137
 20
134.7107383231389
 30
0.0
 11
118.3552419867354
 21
134.7204435934172
 31
0.0
  0
LINE
  5
E3E
330
1110
100
AcDbEntity
  8
3
100
AcDbLine
 10
118.0941893014715
 20
130.396615909446
 30
0.0
 11
117.6137025807742
 21
130.8771026301433
 31
0.0
  0
LINE
  5
E3F
330
1110
100
AcDbEntity
  8
3
100
AcDbLine
 10
120.386629486089
 20
132.6890560940636
 30
0.0
 11
119.9061427653913
 21
133.1695428147613
 31
0.0
  0
LINE
  5
E40
330
1110
100
AcDbEntity
  8
0
100
AcDbLine
 10
117.6714697293174
 20
130.2833485414625
 30
0.0
 11
118.2510252250908
 21
130.4386399685241
 31
0.0
  0
LINE
  5
E41
330
1110
100
AcDbEntity
  8
0
100
AcDbLine
 10
120.4998968540727
 20
133.1117756662176
 30
0.0
 11
120.3446054270111
 21
132.5322201704443
 31
0.0
  0
LINE
  5
E42
330
1110
100
AcDbEntity
  8
0
100
AcDbLine
 10
117.6714697293174
 20
130.2833485414625
 30
0.0
 11
120.4998968540726
 21
133.1117756662176
 31
0.0
  0
LINE
  5
E43
330
1110
100
AcDbEntity
  8
2
100
AcDbLine
 10
116.062801802118
 20
131.8920164686619
 30
0.0
 11
116.062801802118
 21
132.4123358708556
 31
0.0
  0
LINE
  5
E44
330
1110
100
AcDbEntity
  8
0
100
AcDbLine
 10
117.7598580769746
 20
134.7204435934171
 30
0.0
 11
118.3709095246793
 21
134.7204435934171
 31
0.0
  0
LINE
  5
E45
330
1110
100
AcDbEntity
  8
2
100
AcDbLine
 10
116.062801802118
 20
131.8920164686619
 30
0.0
 11
118.8912289268732
 21
134.7204435934172
 31
0.0
  0
LINE
  5
E46
330
1110
100
AcDbEntity
  8
0
100
AcDbLine
 10
116.062801802118
 20
133.0233873185604
 30
0.0
 11
117.7598580769746
 21
134.7204435934171
 31
0.0
  0
LINE
  5
E47
330
1110
100
AcDbEntity
  8
0
100
AcDbLine
 10
117.6714697293174
 20
130.2833485414625
 30
0.0
 11
117.2950536969947
 21
130.6597645737852
 31
0.0
  0
LINE
  5
E48
330
1110
100
AcDbEntity
  8
0
100
AcDbLine
 10
120.4998968540726
 20
133.1117756662176
 30
0.0
 11
120.1234808217498
 21
133.4881916985404
 31
0.0
  0
LINE
  5
E49
330
1110
100
AcDbEntity
  8
0
100
AcDbLine
 10
118.251025225091
 20
130.4386399685241
 30
0.0
 11
120.3446054270111
 21
132.5322201704442
 31
0.0
  0
LINE
  5
E4A
330
1110
100
AcDbEntity
  8
0
100
AcDbLine
 10
184.6559298881811
 20
169.3216629242946
 30
0.0
 11
171.4718896015298
 21
164.523064692587
 31
0.0
  0
LINE
  5
E4B
330
1110
100
AcDbEntity
  8
0
100
AcDbLine
 10
198.6559298881811
 20
158.3216629242946
 30
0.0
 11
198.1559298881811
 21
157.8216629242946
 31
0.0
  0
LINE
  5
E4C
330
1110
100
AcDbEntity
  8
0
100
AcDbLine
 10
198.1559298881811
 20
163.8216629242946
 30
0.0
 11
198.6559298881811
 21
163.3216629242946
 31
0.0
  0
LINE
  5
E4D
330
1110
100
AcDbEntity
  8
0
100
AcDbLine
 10
198.1559298881811
 20
163.8216629242946
 30
0.0
 11
198.1559298881811
 21
157.8216629242946
 31
0.0
  0
LINE
  5
E4E
330
1110
100
AcDbEntity
  8
1
100
AcDbLine
 10
203.6559298881811
 20
160.8216629242946
 30
0.0
 11
188.6559298881811
 21
160.8216629242946
 31
0.0
  0
LINE
  5
E4F
330
1110
100
AcDbEntity
  8
0
100
AcDbLine
 10
162.6559298881811
 20
128.9716629242946
 30
0.0
 11
162.6559298881811
 21
148.7216629242945
 31
0.0
  0
LINE
  5
E50
330
1110
100
AcDbEntity
  8
2
100
AcDbLine
 10
163.6559298881811
 20
145.8216629242946
 30
0.0
 11
193.655929888181
 21
145.8216629242946
 31
0.0
  0
LINE
  5
E51
330
1110
100
AcDbEntity
  8
2
100
AcDbLine
 10
163.6559298881811
 20
131.8216629242946
 30
0.0
 11
193.655929888181
 21
131.8216629242946
 31
0.0
  0
LINE
  5
E52
330
1110
100
AcDbEntity
  8
0
100
AcDbLine
 10
169.6559298881811
 20
152.3216629242945
 30
0.0
 11
170.1559298881811
 21
152.3216629242945
 31
0.0
  0
LINE
  5
E53
330
1110
100
AcDbEntity
  8
0
100
AcDbLine
 10
169.6559298881811
 20
125.3216629242946
 30
0.0
 11
170.1559298881811
 21
125.3216629242946
 31
0.0
  0
LINE
  5
E54
330
1110
100
AcDbEntity
  8
0
100
AcDbLine
 10
170.1559298881811
 20
124.3216629242946
 30
0.0
 11
170.1559298881811
 21
162.6436794510152
 31
0.0
  0
LINE
  5
E55
330
1110
100
AcDbEntity
  8
1
100
AcDbLine
 10
198.6559298881811
 20
138.8216629242946
 30
0.0
 11
157.6559298881811
 21
138.8216629242946
 31
0.0
  0
LINE
  5
E56
330
1110
100
AcDbEntity
  8
0
100
AcDbLine
 10
198.6559298881811
 20
163.3216629242946
 30
0.0
 11
198.6559298881811
 21
158.3216629242946
 31
0.0
  0
LINE
  5
E57
330
1110
100
AcDbEntity
  8
0
100
AcDbLine
 10
198.1559298881811
 20
157.8216629242946
 30
0.0
 11
193.655929888181
 21
157.8216629242946
 31
0.0
  0
LINE
  5
E58
330
1110
100
AcDbEntity
  8
0
100
AcDbLine
 10
198.1559298881811
 20
163.8216629242946
 30
0.0
 11
193.655929888181
 21
163.8216629242946
 31
0.0
  0
LINE
  5
E59
330
1110
100
AcDbEntity
  8
0
100
AcDbLine
 10
100.4615824712406
 20
152.3216629242945
 30
0.0
 11
100.4615824712404
 21
161.3216629242946
 31
0.0
  0
LINE
  5
E5A
330
1110
100
AcDbEntity
  8
0
100
AcDbLine
 10
123.4615824712405
 20
152.3216629242945
 30
0.0
 11
123.4615824712405
 21
161.3216629242946
 31
0.0
  0
LINE
  5
E5B
330
1110
100
AcDbEntity
  8
0
100
AcDbLine
 10
100.4615824712404
 20
161.3216629242946
 30
0.0
 11
123.4615824712405
 21
161.3216629242946
 31
0.0
  0
LINE
  5
E5C
330
1110
100
AcDbEntity
  8
0
100
AcDbLine
 10
100.4615824712406
 20
152.3216629242945
 30
0.0
 11
123.4615824712405
 21
152.3216629242945
 31
0.0
  0
LINE
  5
E5D
330
1110
100
AcDbEntity
  8
0
100
AcDbLine
 10
190.6559298881811
 20
169.3216629242946
 30
0.0
 11
190.6559298881811
 21
122.3216629242945
 31
0.0
  0
CIRCLE
  5
E5E
330
1110
100
AcDbEntity
  8
0
100
AcDbCircle
 10
111.9615824712405
 20
138.8216629242946
 30
0.0
 40
7.0
  0
LINE
  5
E5F
330
1110
100
AcDbEntity
  8
0
100
AcDbLine
 10
95.4615824712406
 20
126.7288442258966
 30
0.0
 11
95.4615824712406
 21
164.9144816226926
 31
0.0
  0
LINE
  5
E60
330
1110
100
AcDbEntity
  8
0
100
AcDbLine
 10
128.4615824712405
 20
164.9144825763669
 30
0.0
 11
128.4615824712405
 21
126.7288442258966
 31
0.0
  0
LINE
  5
E61
330
1110
100
AcDbEntity
  8
0
100
AcDbLine
 10
193.655929888181
 20
122.3216629242945
 30
0.0
 11
172.1559298881811
 21
122.3216629242945
 31
0.0
  0
LINE
  5
E62
330
1110
100
AcDbEntity
  8
0
100
AcDbLine
 10
193.655929888181
 20
169.3216629242946
 30
0.0
 11
193.655929888181
 21
122.3216629242945
 31
0.0
  0
LINE
  5
E63
330
1110
100
AcDbEntity
  8
0
100
AcDbLine
 10
184.6559298881811
 20
169.3216629242946
 30
0.0
 11
193.655929888181
 21
169.3216629242946
 31
0.0
  0
LINE
  5
E64
330
1110
100
AcDbEntity
  8
0
100
AcDbLine
 10
169.6559298881811
 20
125.3216629242946
 30
0.0
 11
169.6559298881811
 21
152.3216629242945
 31
0.0
  0
LINE
  5
E65
330
1110
100
AcDbEntity
  8
0
100
AcDbLine
 10
262.3089020260773
 20
164.9144816226926
 30
0.0
 11
262.3089020260773
 21
126.7288442258966
 31
0.0
  0
LINE
  5
E66
330
1110
100
AcDbEntity
  8
0
100
AcDbLine
 10
229.3089020260774
 20
126.7288442258966
 30
0.0
 11
229.3089020260774
 21
164.9144816226926
 31
0.0
  0
LINE
  5
E67
330
1110
100
AcDbEntity
  8
1
100
AcDbLine
 10
245.8089020260773
 20
172.3216629242945
 30
0.0
 11
245.8089020260773
 21
117.3216629242945
 31
0.0
  0
LINE
  5
E68
330
1110
100
AcDbEntity
  8
1
100
AcDbLine
 10
224.3089020260773
 20
138.8216629242946
 30
0.0
 11
267.3089020260773
 21
138.8216629242946
 31
0.0
  0
ARC
  5
E69
330
1110
100
AcDbEntity
  8
0
100
AcDbCircle
 10
245.8089020260773
 20
169.1966629242945
 30
0.0
 40
46.87500000000002
100
AcDbArc
 50
251.1482988939641
 51
288.8517011060359
  0
ARC
  5
E6A
330
1110
100
AcDbEntity
  8
0
100
AcDbCircle
 10
245.8089020260773
 20
122.4466629242946
 30
0.0
 40
46.87500000000002
100
AcDbArc
 50
71.1482986181751
 51
108.8517011060358
  0
ARC
  5
E6B
330
1110
100
AcDbEntity
  8
0
100
AcDbCircle
 10
260.3089020260773
 20
164.9144816226926
 30
0.0
 40
2.0
100
AcDbArc
 50
0.0
 51
71.14829889396424
  0
ARC
  5
E6C
330
1110
100
AcDbEntity
  8
0
100
AcDbCircle
 10
231.3089020260774
 20
164.9144816226926
 30
0.0
 40
2.0
100
AcDbArc
 50
108.8517011060356
 51
180.0
  0
ARC
  5
E6D
330
1110
100
AcDbEntity
  8
0
100
AcDbCircle
 10
231.3089020260774
 20
126.7288442258966
 30
0.0
 40
2.0
100
AcDbArc
 50
180.0000000000002
 51
251.1482988939637
  0
ARC
  5
E6E
330
1110
100
AcDbEntity
  8
0
100
AcDbCircle
 10
260.3089020260773
 20
126.7288442258966
 30
0.0
 40
2.0
100
AcDbArc
 50
288.8517011060364
 51
0.0
  0
LINE
  5
E6F
330
1110
100
AcDbEntity
  8
0
100
AcDbLine
 10
162.6559298881811
 20
62.78010266410181
 30
0.0
 11
162.6559298881811
 21
82.58010266410185
 31
0.0
  0
LINE
  5
E70
330
1110
100
AcDbEntity
  8
0
100
AcDbLine
 10
162.6559298881811
 20
62.78010266410181
 30
0.0
 11
169.6559298881811
 21
62.78010266410181
 31
0.0
  0
LINE
  5
E71
330
1110
100
AcDbEntity
  8
0
100
AcDbLine
 10
162.6559298881811
 20
82.58010266410185
 30
0.0
 11
169.6559298881811
 21
82.58010266410185
 31
0.0
  0
LINE
  5
E72
330
1110
100
AcDbEntity
  8
0
100
AcDbLine
 10
169.6559298881811
 20
86.18010266410184
 30
0.0
 11
170.1559298881811
 21
86.18010266410184
 31
0.0
  0
LINE
  5
E73
330
1110
100
AcDbEntity
  8
0
100
AcDbLine
 10
169.6559298881811
 20
59.18010266410181
 30
0.0
 11
170.1559298881811
 21
59.18010266410181
 31
0.0
  0
LINE
  5
E74
330
1110
100
AcDbEntity
  8
0
100
AcDbLine
 10
170.1559298881811
 20
58.18010266410187
 30
0.0
 11
170.1559298881811
 21
87.18010266410193
 31
0.0
  0
LINE
  5
E75
330
1110
100
AcDbEntity
  8
1
100
AcDbLine
 10
200.6559298881811
 20
72.6801026641019
 30
0.0
 11
157.6559298881811
 21
72.6801026641019
 31
0.0
  0
LINE
  5
E76
330
1110
100
AcDbEntity
  8
0
100
AcDbLine
 10
190.6559298881811
 20
89.18010266410181
 30
0.0
 11
190.6559298881811
 21
56.18010266410184
 31
0.0
  0
LINE
  5
E77
330
1110
100
AcDbEntity
  8
0
100
AcDbLine
 10
193.655929888181
 20
56.18010266410184
 30
0.0
 11
172.1559298881811
 21
56.18010266410184
 31
0.0
  0
LINE
  5
E78
330
1110
100
AcDbEntity
  8
0
100
AcDbLine
 10
193.655929888181
 20
89.18010266410181
 30
0.0
 11
193.655929888181
 21
56.18010266410184
 31
0.0
  0
LINE
  5
E79
330
1110
100
AcDbEntity
  8
0
100
AcDbLine
 10
169.6559298881811
 20
59.18010266410181
 30
0.0
 11
169.6559298881811
 21
86.18010266410184
 31
0.0
  0
LINE
  5
E7A
330
1110
100
AcDbEntity
  8
0
100
AcDbLine
 10
193.655929888181
 20
89.18010266410181
 30
0.0
 11
172.1559298881811
 21
89.18010266410181
 31
0.0
  0
ARC
  5
E7B
330
1110
100
AcDbEntity
  8
0
100
AcDbCircle
 10
172.1559298881811
 20
87.18010266410193
 30
0.0
 40
2.0
100
AcDbArc
 50
90.0
 51
179.9999999999999
  0
ARC
  5
E7C
330
1110
100
AcDbEntity
  8
0
100
AcDbCircle
 10
172.1559298881811
 20
58.18010266410187
 30
0.0
 40
2.0
100
AcDbArc
 50
180.0
 51
269.9999999999999
  0
CIRCLE
  5
E7D
330
1110
100
AcDbEntity
  8
0
100
AcDbCircle
 10
245.8089020260773
 20
160.8216629242946
 30
0.0
 40
3.0
  0
CIRCLE
  5
E7E
330
1110
100
AcDbEntity
  8
0
100
AcDbCircle
 10
245.8089020260773
 20
160.8216629242946
 30
0.0
 40
1.500000000000028
  0
CIRCLE
  5
E7F
330
1110
100
AcDbEntity
  8
0
100
AcDbCircle
 10
245.8089020260773
 20
160.8216629242946
 30
0.0
 40
2.499999999999971
  0
CIRCLE
  5
E80
330
1110
100
AcDbEntity
  8
0
100
AcDbCircle
 10
245.8089020260773
 20
138.8216629242946
 30
0.0
 40
7.000000000000015
  0
LINE
  5
E81
330
1110
100
AcDbEntity
  8
1
100
AcDbLine
 10
237.8089020260774
 20
160.8216629242946
 30
0.0
 11
253.8089020260772
 21
160.8216629242946
 31
0.0
  0
LINE
  5
E82
330
1110
100
AcDbEntity
  8
5
  6
PHA-05
100
AcDbLine
 10
195.6559298881811
 20
229.9669764396928
 30
0.0
 11
195.6559298881811
 21
196.9669764396929
 31
0.0
  0
LINE
  5
E83
330
1110
100
AcDbEntity
  8
5
  6
PHA-05
100
AcDbLine
 10
193.655929888181
 20
229.9669764396928
 30
0.0
 11
195.6559298881811
 21
229.9669764396928
 31
0.0
  0
LINE
  5
E84
330
1110
100
AcDbEntity
  8
5
  6
PHA-05
100
AcDbLine
 10
193.655929888181
 20
196.9669764396929
 30
0.0
 11
195.6559298881811
 21
196.9669764396929
 31
0.0
  0
LINE
  5
E85
330
1110
100
AcDbEntity
  8
5
  6
PHA-05
100
AcDbLine
 10
193.655929888181
 20
89.18010266410181
 30
0.0
 11
195.6559298881811
 21
89.18010266410181
 31
0.0
  0
LINE
  5
E86
330
1110
100
AcDbEntity
  8
5
  6
PHA-05
100
AcDbLine
 10
195.6559298881811
 20
89.18010266410181
 30
0.0
 11
195.6559298881811
 21
56.18010266410184
 31
0.0
  0
LINE
  5
E87
330
1110
100
AcDbEntity
  8
5
  6
PHA-05
100
AcDbLine
 10
193.655929888181
 20
56.18010266410184
 30
0.0
 11
195.6559298881811
 21
56.18010266410184
 31
0.0
  0
POLYLINE
  5
E88
330
1110
100
AcDbEntity
  8
3
100
AcDb2dPolyline
 66
     1
 10
0.0
 20
0.0
 30
0.0
 70
     3
  0
VERTEX
  5
E89
330
E88
100
AcDbEntity
  8
3
100
AcDbVertex
100
AcDb2dVertex
 10
166.1559298881809
 20
78.81270949433289
 30
0.0
 42
0.0373148062972218
  0
VERTEX
  5
E8A
330
E88
100
AcDbEntity
  8
3
100
AcDbVertex
100
AcDb2dVertex
 10
166.48141347948
 20
78.83703407808059
 30
0.0
 42
0.0377933998216735
 70
     1
  0
VERTEX
  5
E8B
330
E88
100
AcDbEntity
  8
3
100
AcDbVertex
100
AcDb2dVertex
 10
166.7955786071501
 20
78.90885306216194
 30
0.0
 42
0.0420865432184959
  0
VERTEX
  5
E8C
330
E88
100
AcDbEntity
  8
3
100
AcDbVertex
100
AcDb2dVertex
 10
167.0611730610314
 20
79.01629698269051
 30
0.0
 42
0.0425653189133304
 70
     1
  0
VERTEX
  5
E8D
330
E88
100
AcDbEntity
  8
3
100
AcDbVertex
100
AcDb2dVertex
 10
167.3021499804844
 20
79.1652433949196
 30
0.0
 42
0.052955760440357
 70
     2
 50
36.59465022882245
  0
VERTEX
  5
E8E
330
E88
100
AcDbEntity
  8
3
100
AcDbVertex
100
AcDb2dVertex
 10
167.5091687720081
 20
79.35598918174651
 30
0.0
 42
0.0557248161469618
 70
     1
 50
36.59465022882245
  0
VERTEX
  5
E8F
330
E88
100
AcDbEntity
  8
3
100
AcDbVertex
100
AcDb2dVertex
 10
167.6622732840752
 20
79.5754502667356
 30
0.0
 42
0.0609203524848806
 50
36.59465022882245
  0
VERTEX
  5
E90
330
E88
100
AcDbEntity
  8
3
100
AcDbVertex
100
AcDb2dVertex
 10
167.7484498410204
 20
79.79366607189522
 30
0.0
 42
0.0636919735929359
 70
     1
 50
36.59465022882245
  0
VERTEX
  5
E91
330
E88
100
AcDbEntity
  8
3
100
AcDbVertex
100
AcDb2dVertex
 10
167.7769298881809
 20
80.01633551891234
 30
0.0
 42
0.0636919735929868
  0
VERTEX
  5
E92
330
E88
100
AcDbEntity
  8
3
100
AcDbVertex
100
AcDb2dVertex
 10
167.7484498410204
 20
80.23900496592975
 30
0.0
 42
0.0609203524849037
 70
     1
  0
VERTEX
  5
E93
330
E88
100
AcDbEntity
  8
3
100
AcDbVertex
100
AcDb2dVertex
 10
167.6622732840752
 20
80.45722077108923
 30
0.0
 42
0.055724816146916
  0
VERTEX
  5
E94
330
E88
100
AcDbEntity
  8
3
100
AcDbVertex
100
AcDb2dVertex
 10
167.5091687720081
 20
80.67668185607832
 30
0.0
 42
0.0529557604403008
 70
     1
  0
VERTEX
  5
E95
330
E88
100
AcDbEntity
  8
3
100
AcDbVertex
100
AcDb2dVertex
 10
167.3021499804844
 20
80.86742764290523
 30
0.0
 42
0.0425653189134075
 70
     2
 50
143.4053497711774
  0
VERTEX
  5
E96
330
E88
100
AcDbEntity
  8
3
100
AcDbVertex
100
AcDb2dVertex
 10
167.0611730610314
 20
81.01637405513418
 30
0.0
 42
0.0420865432185627
 70
     1
 50
143.4053497711774
  0
VERTEX
  5
E97
330
E88
100
AcDbEntity
  8
3
100
AcDbVertex
100
AcDb2dVertex
 10
166.7955786071501
 20
81.12381797566289
 30
0.0
 42
0.0377933998216512
 50
143.4053497711774
  0
VERTEX
  5
E98
330
E88
100
AcDbEntity
  8
3
100
AcDbVertex
100
AcDb2dVertex
 10
166.48141347948
 20
81.19563695974424
 30
0.0
 42
0.0373148062971968
 70
     1
 50
143.4053497711774
  0
VERTEX
  5
E99
330
E88
100
AcDbEntity
  8
3
100
AcDbVertex
100
AcDb2dVertex
 10
166.1559298881809
 20
81.21996154349194
 30
0.0
 42
0.0373148062972256
  0
VERTEX
  5
E9A
330
E88
100
AcDbEntity
  8
3
100
AcDbVertex
100
AcDb2dVertex
 10
165.8304462968819
 20
81.19563695974424
 30
0.0
 42
0.0377933998216743
 70
     1
  0
VERTEX
  5
E9B
330
E88
100
AcDbEntity
  8
3
100
AcDbVertex
100
AcDb2dVertex
 10
165.5162811692118
 20
81.12381797566289
 30
0.0
 42
0.0420865432185111
  0
VERTEX
  5
E9C
330
E88
100
AcDbEntity
  8
3
100
AcDbVertex
100
AcDb2dVertex
 10
165.2506867153305
 20
81.01637405513432
 30
0.0
 42
0.0425653189133355
 70
     1
  0
VERTEX
  5
E9D
330
E88
100
AcDbEntity
  8
3
100
AcDbVertex
100
AcDb2dVertex
 10
165.0097097958776
 20
80.86742764290523
 30
0.0
 42
0.0529557604403212
 70
     2
 50
216.5946502288224
  0
VERTEX
  5
E9E
330
E88
100
AcDbEntity
  8
3
100
AcDbVertex
100
AcDb2dVertex
 10
164.8026910043538
 20
80.67668185607832
 30
0.0
 42
0.0557248161469175
 70
     1
 50
216.5946502288224
  0
VERTEX
  5
E9F
330
E88
100
AcDbEntity
  8
3
100
AcDbVertex
100
AcDb2dVertex
 10
164.6495864922866
 20
80.45722077108923
 30
0.0
 42
0.0609203524849108
 50
216.5946502288224
  0
VERTEX
  5
EA0
330
E88
100
AcDbEntity
  8
3
100
AcDbVertex
100
AcDb2dVertex
 10
164.5634099353414
 20
80.23900496592975
 30
0.0
 42
0.0636919735929914
 70
     1
 50
216.5946502288224
  0
VERTEX
  5
EA1
330
E88
100
AcDbEntity
  8
3
100
AcDbVertex
100
AcDb2dVertex
 10
164.534929888181
 20
80.01633551891234
 30
0.0
 42
0.0636919735930097
  0
VERTEX
  5
EA2
330
E88
100
AcDbEntity
  8
3
100
AcDbVertex
100
AcDb2dVertex
 10
164.5634099353415
 20
79.79366607189508
 30
0.0
 42
0.06092035248494
 70
     1
  0
VERTEX
  5
EA3
330
E88
100
AcDbEntity
  8
3
100
AcDbVertex
100
AcDb2dVertex
 10
164.6495864922868
 20
79.57545026673546
 30
0.0
 42
0.0557248161470117
  0
VERTEX
  5
EA4
330
E88
100
AcDbEntity
  8
3
100
AcDbVertex
100
AcDb2dVertex
 10
164.8026910043539
 20
79.35598918174651
 30
0.0
 42
0.0529557604404254
 70
     1
  0
VERTEX
  5
EA5
330
E88
100
AcDbEntity
  8
3
100
AcDbVertex
100
AcDb2dVertex
 10
165.0097097958776
 20
79.1652433949196
 30
0.0
 42
0.042565318913386
 70
     2
 50
323.4053497711775
  0
VERTEX
  5
EA6
330
E88
100
AcDbEntity
  8
3
100
AcDbVertex
100
AcDb2dVertex
 10
165.2506867153305
 20
79.01629698269051
 30
0.0
 42
0.0420865432185345
 70
     1
 50
323.4053497711775
  0
VERTEX
  5
EA7
330
E88
100
AcDbEntity
  8
3
100
AcDbVertex
100
AcDb2dVertex
 10
165.5162811692118
 20
78.90885306216194
 30
0.0
 42
0.037793399821669
 50
323.4053497711775
  0
VERTEX
  5
EA8
330
E88
100
AcDbEntity
  8
3
100
AcDbVertex
100
AcDb2dVertex
 10
165.8304462968819
 20
78.83703407808059
 30
0.0
 42
0.0373148062972299
 70
     1
 50
323.4053497711775
  0
SEQEND
  5
EA9
330
E88
100
AcDbEntity
  8
3
  0
POLYLINE
  5
EAA
330
1110
100
AcDbEntity
  8
0
100
AcDb2dPolyline
 66
     1
 10
0.0
 20
0.0
 30
0.0
 70
     3
  0
VERTEX
  5
EAB
330
EAA
100
AcDbEntity
  8
0
100
AcDbVertex
100
AcDb2dVertex
 10
166.1559298881809
 20
78.3899899221787
 30
0.0
 42
0.0406338080844187
  0
VERTEX
  5
EAC
330
EAA
100
AcDbEntity
  8
0
100
AcDbVertex
100
AcDb2dVertex
 10
166.5549650418153
 20
78.4224721895605
 30
0.0
 42
0.0411248513730434
 70
     1
  0
VERTEX
  5
EAD
330
EAA
100
AcDbEntity
  8
0
100
AcDbVertex
100
AcDb2dVertex
 10
166.938775808054
 20
78.51829055700239
 30
0.0
 42
0.0442674013096862
  0
VERTEX
  5
EAE
330
EAA
100
AcDbEntity
  8
0
100
AcDbVertex
100
AcDb2dVertex
 10
167.2717311203996
 20
78.6651180040717
 30
0.0
 42
0.0447585967086941
 70
     1
  0
VERTEX
  5
EAF
330
EAA
100
AcDbEntity
  8
0
100
AcDbVertex
100
AcDb2dVertex
 10
167.5701434505542
 20
78.86633551890913
 30
0.0
 42
0.0521661944945309
 70
     2
 50
39.1170710482602
  0
VERTEX
  5
EB0
330
EAA
100
AcDbEntity
  8
0
100
AcDbVertex
100
AcDb2dVertex
 10
167.8227885576738
 20
79.11977083229263
 30
0.0
 42
0.0537676003291167
 70
     1
 50
39.1170710482602
  0
VERTEX
  5
EB1
330
EAA
100
AcDbEntity
  8
0
100
AcDbVertex
100
AcDb2dVertex
 10
168.0108109642832
 20
79.41171739154274
 30
0.0
 42
0.0573562253947843
 50
39.1170710482602
  0
VERTEX
  5
EB2
330
EAA
100
AcDbEntity
  8
0
100
AcDbVertex
100
AcDb2dVertex
 10
168.1196524008251
 20
79.70975249265723
 30
0.0
 42
0.0589585523189861
 70
     1
 50
39.1170710482602
  0
VERTEX
  5
EB3
330
EAA
100
AcDbEntity
  8
0
100
AcDbVertex
100
AcDb2dVertex
 10
168.1559298881812
 20
80.01633551891249
 30
0.0
 42
0.0589585523190104
  0
VERTEX
  5
EB4
330
EAA
100
AcDbEntity
  8
0
100
AcDbVertex
100
AcDb2dVertex
 10
168.1196524008251
 20
80.3229185451676
 30
0.0
 42
0.0573562253947993
 70
     1
  0
VERTEX
  5
EB5
330
EAA
100
AcDbEntity
  8
0
100
AcDbVertex
100
AcDb2dVertex
 10
168.0108109642832
 20
80.62095364628209
 30
0.0
 42
0.0537676003291976
  0
VERTEX
  5
EB6
330
EAA
100
AcDbEntity
  8
0
100
AcDbVertex
100
AcDb2dVertex
 10
167.8227885576738
 20
80.91290020553234
 30
0.0
 42
0.0521661944945677
 70
     1
  0
VERTEX
  5
EB7
330
EAA
100
AcDbEntity
  8
0
100
AcDbVertex
100
AcDb2dVertex
 10
167.5701434505542
 20
81.1663355189157
 30
0.0
 42
0.0447585967087224
 70
     2
 50
140.8829289517407
  0
VERTEX
  5
EB8
330
EAA
100
AcDbEntity
  8
0
100
AcDbVertex
100
AcDb2dVertex
 10
167.2717311203995
 20
81.36755303375327
 30
0.0
 42
0.0442674013096812
 70
     1
 50
140.8829289517407
  0
VERTEX
  5
EB9
330
EAA
100
AcDbEntity
  8
0
100
AcDbVertex
100
AcDb2dVertex
 10
166.938775808054
 20
81.51438048082244
 30
0.0
 42
0.0411248513730362
 50
140.8829289517407
  0
VERTEX
  5
EBA
330
EAA
100
AcDbEntity
  8
0
100
AcDbVertex
100
AcDb2dVertex
 10
166.5549650418153
 20
81.61019884826433
 30
0.0
 42
0.0406338080844276
 70
     1
 50
140.8829289517407
  0
VERTEX
  5
EBB
330
EAA
100
AcDbEntity
  8
0
100
AcDbVertex
100
AcDb2dVertex
 10
166.1559298881809
 20
81.64268111564613
 30
0.0
 42
0.0406338080844449
  0
VERTEX
  5
EBC
330
EAA
100
AcDbEntity
  8
0
100
AcDbVertex
100
AcDb2dVertex
 10
165.7568947345466
 20
81.61019884826433
 30
0.0
 42
0.0411248513730652
 70
     1
  0
VERTEX
  5
EBD
330
EAA
100
AcDbEntity
  8
0
100
AcDbVertex
100
AcDb2dVertex
 10
165.3730839683078
 20
81.51438048082244
 30
0.0
 42
0.0442674013096709
  0
VERTEX
  5
EBE
330
EAA
100
AcDbEntity
  8
0
100
AcDbVertex
100
AcDb2dVertex
 10
165.0401286559624
 20
81.36755303375327
 30
0.0
 42
0.0447585967086949
 70
     1
  0
VERTEX
  5
EBF
330
EAA
100
AcDbEntity
  8
0
100
AcDbVertex
100
AcDb2dVertex
 10
164.7417163258076
 20
81.1663355189157
 30
0.0
 42
0.0521661944945169
 70
     2
 50
219.1170710482602
  0
VERTEX
  5
EC0
330
EAA
100
AcDbEntity
  8
0
100
AcDbVertex
100
AcDb2dVertex
 10
164.489071218688
 20
80.9129002055322
 30
0.0
 42
0.0537676003291321
 70
     1
 50
219.1170710482602
  0
VERTEX
  5
EC1
330
EAA
100
AcDbEntity
  8
0
100
AcDbVertex
100
AcDb2dVertex
 10
164.3010488120786
 20
80.62095364628209
 30
0.0
 42
0.0573562253948128
 50
219.1170710482602
  0
VERTEX
  5
EC2
330
EAA
100
AcDbEntity
  8
0
100
AcDbVertex
100
AcDb2dVertex
 10
164.1922073755369
 20
80.32291854516774
 30
0.0
 42
0.0589585523190536
 70
     1
 50
219.1170710482602
  0
VERTEX
  5
EC3
330
EAA
100
AcDbEntity
  8
0
100
AcDbVertex
100
AcDb2dVertex
 10
164.1559298881808
 20
80.01633551891234
 30
0.0
 42
0.0589585523190708
  0
VERTEX
  5
EC4
330
EAA
100
AcDbEntity
  8
0
100
AcDbVertex
100
AcDb2dVertex
 10
164.1922073755369
 20
79.70975249265723
 30
0.0
 42
0.0573562253948245
 70
     1
  0
VERTEX
  5
EC5
330
EAA
100
AcDbEntity
  8
0
100
AcDbVertex
100
AcDb2dVertex
 10
164.3010488120786
 20
79.41171739154274
 30
0.0
 42
0.0537676003291127
  0
VERTEX
  5
EC6
330
EAA
100
AcDbEntity
  8
0
100
AcDbVertex
100
AcDb2dVertex
 10
164.489071218688
 20
79.11977083229263
 30
0.0
 42
0.0521661944944973
 70
     1
  0
VERTEX
  5
EC7
330
EAA
100
AcDbEntity
  8
0
100
AcDbVertex
100
AcDb2dVertex
 10
164.7417163258078
 20
78.86633551890913
 30
0.0
 42
0.0447585967086944
 70
     2
 50
320.8829289517407
  0
VERTEX
  5
EC8
330
EAA
100
AcDbEntity
  8
0
100
AcDbVertex
100
AcDb2dVertex
 10
165.0401286559624
 20
78.66511800407156
 30
0.0
 42
0.0442674013096755
 70
     1
 50
320.8829289517407
  0
VERTEX
  5
EC9
330
EAA
100
AcDbEntity
  8
0
100
AcDbVertex
100
AcDb2dVertex
 10
165.3730839683079
 20
78.51829055700239
 30
0.0
 42
0.0411248513730527
 50
320.8829289517407
  0
VERTEX
  5
ECA
330
EAA
100
AcDbEntity
  8
0
100
AcDbVertex
100
AcDb2dVertex
 10
165.7568947345466
 20
78.4224721895605
 30
0.0
 42
0.0406338080844375
 70
     1
 50
320.8829289517407
  0
SEQEND
  5
ECB
330
EAA
100
AcDbEntity
  8
0
  0
POLYLINE
  5
ECC
330
1110
100
AcDbEntity
  8
0
100
AcDb2dPolyline
 66
     1
 10
0.0
 20
0.0
 30
0.0
  0
VERTEX
  5
ECD
330
ECC
100
AcDbEntity
  8
0
100
AcDbVertex
100
AcDb2dVertex
 10
166.1559298881811
 20
78.01357388985625
 30
0.0
 42
0.0406338080844187
  0
VERTEX
  5
ECE
330
ECC
100
AcDbEntity
  8
0
100
AcDbVertex
100
AcDb2dVertex
 10
166.5549650418153
 20
78.0460561572379
 30
0.0
 42
0.0411248513730434
  0
VERTEX
  5
ECF
330
ECC
100
AcDbEntity
  8
0
100
AcDbVertex
100
AcDb2dVertex
 10
166.938775808054
 20
78.14187452467994
 30
0.0
 42
0.0442674013096862
  0
VERTEX
  5
ED0
330
ECC
100
AcDbEntity
  8
0
100
AcDbVertex
100
AcDb2dVertex
 10
167.2717311203996
 20
78.28870197174925
 30
0.0
 42
0.0447585967086941
  0
VERTEX
  5
ED1
330
ECC
100
AcDbEntity
  8
0
100
AcDbVertex
100
AcDb2dVertex
 10
167.5701434505542
 20
78.48991948658667
 30
0.0
 42
0.0521661944945309
 70
     2
 50
39.1170710482602
  0
VERTEX
  5
ED2
330
ECC
100
AcDbEntity
  8
0
100
AcDbVertex
100
AcDb2dVertex
 10
167.8227885576738
 20
78.74335479997018
 30
0.0
 42
0.0537676003291167
 50
39.1170710482602
  0
VERTEX
  5
ED3
330
ECC
100
AcDbEntity
  8
0
100
AcDbVertex
100
AcDb2dVertex
 10
168.0108109642832
 20
79.03530135922029
 30
0.0
 42
0.0573562253947843
 50
39.1170710482602
  0
VERTEX
  5
ED4
330
ECC
100
AcDbEntity
  8
0
100
AcDbVertex
100
AcDb2dVertex
 10
168.1196524008251
 20
79.33333646033478
 30
0.0
 42
0.0589585523189859
 50
39.1170710482602
  0
VERTEX
  5
ED5
330
ECC
100
AcDbEntity
  8
0
100
AcDbVertex
100
AcDb2dVertex
 10
168.1559298881812
 20
79.63991948658989
 30
0.0
 42
0.0589585523190104
  0
SEQEND
  5
ED6
330
ECC
100
AcDbEntity
  8
0
  0
POLYLINE
  5
ED7
330
1110
100
AcDbEntity
  8
0
100
AcDb2dPolyline
 66
     1
 10
0.0
 20
0.0
 30
0.0
  0
VERTEX
  5
ED8
330
ED7
100
AcDbEntity
  8
0
100
AcDbVertex
100
AcDb2dVertex
 10
164.1559298881808
 20
79.63991948658989
 30
0.0
 42
0.0589585523190708
  0
VERTEX
  5
ED9
330
ED7
100
AcDbEntity
  8
0
100
AcDbVertex
100
AcDb2dVertex
 10
164.1922073755369
 20
79.33333646033464
 30
0.0
 42
0.0573562253948245
  0
VERTEX
  5
EDA
330
ED7
100
AcDbEntity
  8
0
100
AcDbVertex
100
AcDb2dVertex
 10
164.3010488120786
 20
79.03530135922029
 30
0.0
 42
0.0537676003291127
  0
VERTEX
  5
EDB
330
ED7
100
AcDbEntity
  8
0
100
AcDbVertex
100
AcDb2dVertex
 10
164.489071218688
 20
78.74335479997018
 30
0.0
 42
0.0521661944944973
  0
VERTEX
  5
EDC
330
ED7
100
AcDbEntity
  8
0
100
AcDbVertex
100
AcDb2dVertex
 10
164.7417163258078
 20
78.48991948658667
 30
0.0
 42
0.0447585967086944
 70
     2
 50
320.8829289517407
  0
VERTEX
  5
EDD
330
ED7
100
AcDbEntity
  8
0
100
AcDbVertex
100
AcDb2dVertex
 10
165.0401286559624
 20
78.28870197174911
 30
0.0
 42
0.0442674013096755
 50
320.8829289517407
  0
VERTEX
  5
EDE
330
ED7
100
AcDbEntity
  8
0
100
AcDbVertex
100
AcDb2dVertex
 10
165.3730839683079
 20
78.14187452467994
 30
0.0
 42
0.0411248513730527
 50
320.8829289517407
  0
VERTEX
  5
EDF
330
ED7
100
AcDbEntity
  8
0
100
AcDbVertex
100
AcDb2dVertex
 10
165.7568947345466
 20
78.0460561572379
 30
0.0
 42
0.0406338080844375
 50
320.8829289517407
  0
VERTEX
  5
EE0
330
ED7
100
AcDbEntity
  8
0
100
AcDbVertex
100
AcDb2dVertex
 10
166.1559298881811
 20
78.01357388985625
 30
0.0
 42
0.0406338080844187
  0
SEQEND
  5
EE1
330
ED7
100
AcDbEntity
  8
0
  0
LINE
  5
EE2
330
1110
100
AcDbEntity
  8
0
100
AcDbLine
 10
164.1559298881802
 20
80.01633551891234
 30
0.0
 11
164.1559298881808
 21
79.63991948658989
 31
0.0
  0
LINE
  5
EE3
330
1110
100
AcDbEntity
  8
0
100
AcDbLine
 10
168.1559298881814
 20
80.01633551891234
 30
0.0
 11
168.1559298881812
 21
79.63991948658989
 31
0.0
  0
LINE
  5
EE4
330
1110
100
AcDbEntity
  8
0
100
AcDbLine
 10
167.3106304256205
 20
80.01633551891234
 30
0.0
 11
166.7332801569004
 21
80.7234422995231
 31
0.0
  0
LINE
  5
EE5
330
1110
100
AcDbEntity
  8
0
100
AcDbLine
 10
166.7332801569004
 20
80.7234422995231
 30
0.0
 11
165.5785796194617
 21
80.7234422995231
 31
0.0
  0
LINE
  5
EE6
330
1110
100
AcDbEntity
  8
0
100
AcDbLine
 10
165.0012293507414
 20
80.01633551891234
 30
0.0
 11
165.5785796194614
 21
80.7234422995231
 31
0.0
  0
LINE
  5
EE7
330
1110
100
AcDbEntity
  8
0
100
AcDbLine
 10
166.7332801569004
 20
79.30922873830173
 30
0.0
 11
165.5785796194617
 21
79.30922873830173
 31
0.0
  0
LINE
  5
EE8
330
1110
100
AcDbEntity
  8
0
100
AcDbLine
 10
165.0012293507414
 20
80.01633551891234
 30
0.0
 11
165.5785796194614
 21
79.30922873830173
 31
0.0
  0
LINE
  5
EE9
330
1110
100
AcDbEntity
  8
0
100
AcDbLine
 10
167.3106304256205
 20
80.01633551891234
 30
0.0
 11
166.7332801569004
 21
79.30922873830173
 31
0.0
  0
LINE
  5
EEA
330
1110
100
AcDbEntity
  8
1
100
AcDbLine
 10
166.1559298881812
 20
85.01909714796955
 30
0.0
 11
166.1559298881809
 21
75.81425399089059
 31
0.0
  0
LINE
  5
EEB
330
1110
100
AcDbEntity
  8
5
  6
PHA-05
100
AcDbLine
 10
195.6559298881811
 20
169.3216629242946
 30
0.0
 11
195.6559298881811
 21
122.3216629242945
 31
0.0
  0
LINE
  5
EEC
330
1110
100
AcDbEntity
  8
5
  6
PHA-05
100
AcDbLine
 10
193.655929888181
 20
169.3216629242946
 30
0.0
 11
195.6559298881811
 21
169.3216629242946
 31
0.0
  0
LINE
  5
EED
330
1110
100
AcDbEntity
  8
5
  6
PHA-05
100
AcDbLine
 10
193.655929888181
 20
122.3216629242945
 30
0.0
 11
195.6559298881811
 21
122.3216629242945
 31
0.0
  0
LINE
  5
EEE
330
1110
100
AcDbEntity
  8
2
100
AcDbLine
 10
169.6559298881811
 20
148.7216629242945
 30
0.0
 11
193.655929888181
 21
148.7216629242945
 31
0.0
  0
LINE
  5
EEF
330
1110
100
AcDbEntity
  8
2
100
AcDbLine
 10
169.6559298881811
 20
128.9216629242946
 30
0.0
 11
193.655929888181
 21
128.9216629242946
 31
0.0
  0
CIRCLE
  5
EF0
330
1110
100
AcDbEntity
  8
0
100
AcDbCircle
 10
111.9615824712405
 20
138.8216629242946
 30
0.0
 40
13.49999999999997
  0
CIRCLE
  5
EF1
330
1110
100
AcDbEntity
  8
0
100
AcDbCircle
 10
111.9615824712405
 20
138.8216629242946
 30
0.0
 40
9.9
  0
LINE
  5
EF2
330
1110
100
AcDbEntity
  8
0
100
AcDbLine
 10
180.2317197425334
 20
202.4669764396929
 30
0.0
 11
180.2317197425334
 21
224.4669764396928
 31
0.0
  0
LINE
  5
EF3
330
1110
100
AcDbEntity
  8
0
100
AcDbLine
 10
171.7744861554602
 20
202.4669764396929
 30
0.0
 11
171.7744861554602
 21
224.4669764396928
 31
0.0
  0
LINE
  5
EF4
330
1110
100
AcDbEntity
  8
0
100
AcDbLine
 10
172.2744861554603
 20
224.9669764396928
 30
0.0
 11
179.7317197425334
 21
224.9669764396928
 31
0.0
  0
LINE
  5
EF5
330
1110
100
AcDbEntity
  8
0
100
AcDbLine
 10
172.2744861554603
 20
201.9669764396929
 30
0.0
 11
179.7317197425334
 21
201.9669764396929
 31
0.0
  0
LINE
  5
EF6
330
1110
100
AcDbEntity
  8
0
100
AcDbLine
 10
162.6559298881811
 20
148.7216629242947
 30
0.0
 11
169.6559298881811
 21
148.7216629242947
 31
0.0
  0
LINE
  5
EF7
330
1110
100
AcDbEntity
  8
0
100
AcDbLine
 10
162.6559298881811
 20
128.9216629242946
 30
0.0
 11
169.6559298881811
 21
128.9216629242946
 31
0.0
  0
CIRCLE
  5
EF8
330
1110
100
AcDbEntity
  8
0
100
AcDbCircle
 10
245.8089020260773
 20
138.8216629242946
 30
0.0
 40
9.899999999999977
  0
LINE
  5
EF9
330
1110
100
AcDbEntity
  8
0
100
AcDbLine
 10
100.4615824712404
 20
153.3216629242946
 30
0.0
 11
123.4615824712405
 21
153.3216629242946
 31
0.0
  0
LINE
  5
EFA
330
1110
100
AcDbEntity
  8
0
100
AcDbLine
 10
100.4615824712404
 20
160.3216629242945
 30
0.0
 11
123.4615824712405
 21
160.3216629242945
 31
0.0
  0
TEXT
  5
EFB
330
1110
100
AcDbEntity
  8
0
100
AcDbText
 10
107.6532677133142
 20
153.804455655928
 30
0.0
 40
6.0
  1
0
 41
0.65
  7
SIM065
 72
     4
 11
108.9532677133142
 21
156.804455655928
 31
0.0
100
AcDbText
  0
TEXT
  5
EFC
330
1110
100
AcDbEntity
  8
0
100
AcDbText
 10
102.6532677133142
 20
153.804455655928
 30
0.0
 40
6.0
  1
0
 41
0.65
  7
SIM065
 72
     4
 11
103.9532677133143
 21
156.804455655928
 31
0.0
100
AcDbText
  0
TEXT
  5
EFD
330
1110
100
AcDbEntity
  8
0
100
AcDbText
 10
112.6532677133142
 20
153.804455655928
 30
0.0
 40
6.0
  1
0
 41
0.65
  7
SIM065
 72
     4
 11
113.9532677133142
 21
156.804455655928
 31
0.0
100
AcDbText
  0
LINE
  5
EFE
330
1110
100
AcDbEntity
  8
0
100
AcDbLine
 10
116.4615824712405
 20
160.3216629242945
 30
0.0
 11
116.4615824712404
 21
153.3216629242946
 31
0.0
  0
LINE
  5
F00
330
1110
100
AcDbEntity
  8
0
100
AcDbLine
 10
122.9615824712405
 20
154.3286337461583
 30
0.0
 11
122.4615824712404
 21
154.3286337461583
 31
0.0
  0
LINE
  5
F01
330
1110
100
AcDbEntity
  8
0
100
AcDbLine
 10
122.9615824712405
 20
153.9286337461583
 30
0.0
 11
122.4615824712404
 21
153.9286337461583
 31
0.0
  0
LINE
  5
F02
330
1110
100
AcDbEntity
  8
0
100
AcDbLine
 10
122.9615824712405
 20
153.7286337461583
 30
0.0
 11
121.9596920917146
 21
153.7286337461583
 31
0.0
  0
LINE
  5
F03
330
1110
100
AcDbEntity
  8
0
100
AcDbLine
 10
122.9615824712405
 20
159.7286337461584
 30
0.0
 11
121.9596920917146
 21
159.7286337461584
 31
0.0
  0
LINE
  5
F04
330
1110
100
AcDbEntity
  8
0
100
AcDbLine
 10
122.9615824712405
 20
159.5286337461583
 30
0.0
 11
122.4615824712404
 21
159.5286337461583
 31
0.0
  0
LINE
  5
F05
330
1110
100
AcDbEntity
  8
0
100
AcDbLine
 10
122.9615824712405
 20
155.7286337461583
 30
0.0
 11
122.4615824712404
 21
155.7286337461583
 31
0.0
  0
LINE
  5
F06
330
1110
100
AcDbEntity
  8
0
100
AcDbLine
 10
122.9615824712405
 20
159.1286337461584
 30
0.0
 11
122.4615824712404
 21
159.1286337461584
 31
0.0
  0
LINE
  5
F07
330
1110
100
AcDbEntity
  8
0
100
AcDbLine
 10
122.9615824712405
 20
158.5286337461583
 30
0.0
 11
122.4615824712404
 21
158.5286337461583
 31
0.0
  0
LINE
  5
F08
330
1110
100
AcDbEntity
  8
0
100
AcDbLine
 10
122.9615824712405
 20
157.7286337461584
 30
0.0
 11
122.4615824712404
 21
157.7286337461584
 31
0.0
  0
LINE
  5
F09
330
1110
100
AcDbEntity
  8
0
100
AcDbLine
 10
122.9615824712405
 20
156.7286337461583
 30
0.0
 11
121.9615824712404
 21
156.7286337461583
 31
0.0
  0
LINE
  5
F0A
330
1110
100
AcDbEntity
  8
0
100
AcDbLine
 10
122.9615824712405
 20
154.9286337461583
 30
0.0
 11
122.4615824712404
 21
154.9286337461583
 31
0.0
  0
ARC
  5
F0B
330
1110
100
AcDbEntity
  8
0
100
AcDbCircle
 10
178.5559298881807
 20
156.8216629242945
 30
0.0
 40
9.099999999999621
100
AcDbArc
 50
157.3801350519583
 51
202.6198649480416
  0
POLYLINE
  5
F0C
330
1110
100
AcDbEntity
  8
3
  6
Continuous
100
AcDb3dPolyline
 66
     1
 10
0.0
 20
0.0
 30
0.0
 70
     8
  0
VERTEX
  5
1046
330
F0C
100
AcDbEntity
  8
3
  6
Continuous
100
AcDbVertex
100
AcDb3dPolylineVertex
 10
119.3454154893274
 20
167.0218074161812
 30
0.0
 70
    32
1001
ACAD
1000
R13OBJECT
1002
{
1005
F0C
1002
}
  0
VERTEX
  5
1047
330
F0C
100
AcDbEntity
  8
3
  6
Continuous
100
AcDbVertex
100
AcDb3dPolylineVertex
 10
116.5566222898593
 20
167.4598055477102
 30
0.0
 70
    32
1001
ACAD
1000
R13OBJECT
1002
{
1005
F0C
1002
}
  0
VERTEX
  5
1048
330
F0C
100
AcDbEntity
  8
3
  6
Continuous
100
AcDbVertex
100
AcDb3dPolylineVertex
 10
113.5586681450121
 20
167.6839772174419
 30
0.0
 70
    32
1001
ACAD
1000
R13OBJECT
1002
{
1005
F0C
1002
}
  0
VERTEX
  5
1049
330
F0C
100
AcDbEntity
  8
3
  6
Continuous
100
AcDbVertex
100
AcDb3dPolylineVertex
 10
110.489904430959
 20
167.6839772174419
 30
0.0
 70
    32
1001
ACAD
1000
R13OBJECT
1002
{
1005
F0C
1002
}
  0
VERTEX
  5
104A
330
F0C
100
AcDbEntity
  8
3
  6
Continuous
100
AcDbVertex
100
AcDb3dPolylineVertex
 10
107.4919502861118
 20
167.4598055477102
 30
0.0
 70
    32
1001
ACAD
1000
R13OBJECT
1002
{
1005
F0C
1002
}
  0
VERTEX
  5
104B
330
F0C
100
AcDbEntity
  8
3
  6
Continuous
100
AcDbVertex
100
AcDb3dPolylineVertex
 10
104.7031570866437
 20
167.0218074161812
 30
0.0
 70
    32
1001
ACAD
1000
R13OBJECT
1002
{
1005
F0C
1002
}
  0
SEQEND
  5
104C
330
F0C
100
AcDbEntity
  8
3
  6
Continuous
  0
LINE
  5
F0D
330
1110
100
AcDbEntity
  8
3
100
AcDbLine
 10
104.7031570866437
 20
167.0218074161812
 30
0.0
 11
104.7031570866437
 21
165.3490098030922
 31
0.0
  0
POLYLINE
  5
F0E
330
1110
100
AcDbEntity
  8
3
  6
Continuous
100
AcDb3dPolyline
 66
     1
 10
0.0
 20
0.0
 30
0.0
 70
     8
  0
VERTEX
  5
104D
330
F0E
100
AcDbEntity
  8
3
  6
Continuous
100
AcDbVertex
100
AcDb3dPolylineVertex
 10
104.7031570866437
 20
165.3490098030922
 30
0.0
 70
    32
1001
ACAD
1000
R13OBJECT
1002
{
1005
F0E
1002
}
  0
VERTEX
  5
104E
330
F0E
100
AcDbEntity
  8
3
  6
Continuous
100
AcDbVertex
100
AcDb3dPolylineVertex
 10
107.4919502861118
 20
164.9110116715632
 30
0.0
 70
    32
1001
ACAD
1000
R13OBJECT
1002
{
1005
F0E
1002
}
  0
VERTEX
  5
104F
330
F0E
100
AcDbEntity
  8
3
  6
Continuous
100
AcDbVertex
100
AcDb3dPolylineVertex
 10
110.489904430959
 20
164.6868400018315
 30
0.0
 70
    32
1001
ACAD
1000
R13OBJECT
1002
{
1005
F0E
1002
}
  0
VERTEX
  5
1050
330
F0E
100
AcDbEntity
  8
3
  6
Continuous
100
AcDbVertex
100
AcDb3dPolylineVertex
 10
113.558668145012
 20
164.6868400018315
 30
0.0
 70
    32
1001
ACAD
1000
R13OBJECT
1002
{
1005
F0E
1002
}
  0
VERTEX
  5
1051
330
F0E
100
AcDbEntity
  8
3
  6
Continuous
100
AcDbVertex
100
AcDb3dPolylineVertex
 10
116.5566222898593
 20
164.9110116715632
 30
0.0
 70
    32
1001
ACAD
1000
R13OBJECT
1002
{
1005
F0E
1002
}
  0
VERTEX
  5
1052
330
F0E
100
AcDbEntity
  8
3
  6
Continuous
100
AcDbVertex
100
AcDb3dPolylineVertex
 10
119.3454154893273
 20
165.3490098030922
 30
0.0
 70
    32
1001
ACAD
1000
R13OBJECT
1002
{
1005
F0E
1002
}
  0
SEQEND
  5
1053
330
F0E
100
AcDbEntity
  8
3
  6
Continuous
  0
LINE
  5
F0F
330
1110
100
AcDbEntity
  8
3
100
AcDbLine
 10
119.3454154893273
 20
165.3490098030922
 30
0.0
 11
119.3454154893273
 21
167.0218074161812
 31
0.0
  0
POLYLINE
  5
F10
330
1110
100
AcDbEntity
  8
3
  6
Continuous
100
AcDb3dPolyline
 66
     1
 10
0.0
 20
0.0
 30
0.0
 70
     8
  0
VERTEX
  5
1054
330
F10
100
AcDbEntity
  8
3
  6
Continuous
100
AcDbVertex
100
AcDb3dPolylineVertex
 10
119.1222103307496
 20
166.9782399265088
 30
0.0
 70
    32
1001
ACAD
1000
R13OBJECT
1002
{
1005
F10
1002
}
  0
VERTEX
  5
1055
330
F10
100
AcDbEntity
  8
3
  6
Continuous
100
AcDbVertex
100
AcDb3dPolylineVertex
 10
116.4138284801689
 20
167.395570532197
 30
0.0
 70
    32
1001
ACAD
1000
R13OBJECT
1002
{
1005
F10
1002
}
  0
VERTEX
  5
1056
330
F10
100
AcDbEntity
  8
3
  6
Continuous
100
AcDbVertex
100
AcDb3dPolylineVertex
 10
113.5095607636549
 20
167.6089979972409
 30
0.0
 70
    32
1001
ACAD
1000
R13OBJECT
1002
{
1005
F10
1002
}
  0
VERTEX
  5
1057
330
F10
100
AcDbEntity
  8
3
  6
Continuous
100
AcDbVertex
100
AcDb3dPolylineVertex
 10
110.5390118123159
 20
167.6089979972409
 30
0.0
 70
    32
1001
ACAD
1000
R13OBJECT
1002
{
1005
F10
1002
}
  0
VERTEX
  5
1058
330
F10
100
AcDbEntity
  8
3
  6
Continuous
100
AcDbVertex
100
AcDb3dPolylineVertex
 10
107.634744095802
 20
167.395570532197
 30
0.0
 70
    32
1001
ACAD
1000
R13OBJECT
1002
{
1005
F10
1002
}
  0
VERTEX
  5
1059
330
F10
100
AcDbEntity
  8
3
  6
Continuous
100
AcDbVertex
100
AcDb3dPolylineVertex
 10
104.9263622452212
 20
166.9782399265088
 30
0.0
 70
    32
1001
ACAD
1000
R13OBJECT
1002
{
1005
F10
1002
}
  0
SEQEND
  5
105A
330
F10
100
AcDbEntity
  8
3
  6
Continuous
  0
LINE
  5
F11
330
1110
100
AcDbEntity
  8
3
100
AcDbLine
 10
104.9263622452212
 20
166.9782399265088
 30
0.0
 11
104.9263622452212
 21
165.3925772927646
 31
0.0
  0
POLYLINE
  5
F12
330
1110
100
AcDbEntity
  8
3
  6
Continuous
100
AcDb3dPolyline
 66
     1
 10
0.0
 20
0.0
 30
0.0
 70
     8
  0
VERTEX
  5
105B
330
F12
100
AcDbEntity
  8
3
  6
Continuous
100
AcDbVertex
100
AcDb3dPolylineVertex
 10
104.9263622452211
 20
165.3925772927646
 30
0.0
 70
    32
1001
ACAD
1000
R13OBJECT
1002
{
1005
F12
1002
}
  0
VERTEX
  5
105C
330
F12
100
AcDbEntity
  8
3
  6
Continuous
100
AcDbVertex
100
AcDb3dPolylineVertex
 10
107.6347440958019
 20
164.9752466870764
 30
0.0
 70
    32
1001
ACAD
1000
R13OBJECT
1002
{
1005
F12
1002
}
  0
VERTEX
  5
105D
330
F12
100
AcDbEntity
  8
3
  6
Continuous
100
AcDbVertex
100
AcDb3dPolylineVertex
 10
110.5390118123159
 20
164.7618192220325
 30
0.0
 70
    32
1001
ACAD
1000
R13OBJECT
1002
{
1005
F12
1002
}
  0
VERTEX
  5
105E
330
F12
100
AcDbEntity
  8
3
  6
Continuous
100
AcDbVertex
100
AcDb3dPolylineVertex
 10
113.509560763655
 20
164.7618192220325
 30
0.0
 70
    32
1001
ACAD
1000
R13OBJECT
1002
{
1005
F12
1002
}
  0
VERTEX
  5
105F
330
F12
100
AcDbEntity
  8
3
  6
Continuous
100
AcDbVertex
100
AcDb3dPolylineVertex
 10
116.413828480169
 20
164.9752466870764
 30
0.0
 70
    32
1001
ACAD
1000
R13OBJECT
1002
{
1005
F12
1002
}
  0
VERTEX
  5
1060
330
F12
100
AcDbEntity
  8
3
  6
Continuous
100
AcDbVertex
100
AcDb3dPolylineVertex
 10
119.1222103307498
 20
165.3925772927646
 30
0.0
 70
    32
1001
ACAD
1000
R13OBJECT
1002
{
1005
F12
1002
}
  0
SEQEND
  5
1061
330
F12
100
AcDbEntity
  8
3
  6
Continuous
  0
LINE
  5
F13
330
1110
100
AcDbEntity
  8
3
100
AcDbLine
 10
119.1222103307498
 20
165.3925772927646
 30
0.0
 11
119.1222103307498
 21
166.9782399265088
 31
0.0
  0
LINE
  5
F14
330
1110
100
AcDbEntity
  8
3
100
AcDbLine
 10
105.5959777209537
 20
165.491338561879
 30
0.0
 11
105.5959777209537
 21
165.8424453352411
 31
0.0
  0
LINE
  5
F15
330
1110
100
AcDbEntity
  8
3
100
AcDbLine
 10
109.2565423216246
 20
165.0316214545129
 30
0.0
 11
109.2565423216246
 21
167.3391957647605
 31
0.0
  0
LINE
  5
F16
330
1110
100
AcDbEntity
  8
3
100
AcDbLine
 10
111.4885939073995
 20
164.9370455762155
 30
0.0
 11
111.4885939073995
 21
167.4337716430579
 31
0.0
  0
LINE
  5
F17
330
1110
100
AcDbEntity
  8
3
100
AcDbLine
 10
115.1491585080704
 20
165.3797950388646
 30
0.0
 11
115.1491585080704
 21
166.9910221804088
 31
0.0
  0
LINE
  5
F18
330
1110
100
AcDbEntity
  8
3
100
AcDbLine
 10
108.2744396238836
 20
165.3662706896087
 30
0.0
 11
108.2744396238836
 21
166.2159453073817
 31
0.0
  0
LINE
  5
F19
330
1110
100
AcDbEntity
  8
3
100
AcDbLine
 10
106.4887983552637
 20
166.4602388893416
 30
0.0
 11
106.4887983552637
 21
166.6551672115875
 31
0.0
  0
LINE
  5
F1A
330
1110
100
AcDbEntity
  8
3
100
AcDbLine
 10
107.3816189895737
 20
165.6332438889029
 30
0.0
 11
107.3816189895737
 21
166.0021884231668
 31
0.0
  0
POLYLINE
  5
F1B
330
1110
100
AcDbEntity
  8
3
  6
Continuous
100
AcDb3dPolyline
 66
     1
 10
0.0
 20
0.0
 30
0.0
 70
     8
  0
VERTEX
  5
1062
330
F1B
100
AcDbEntity
  8
3
  6
Continuous
100
AcDbVertex
100
AcDb3dPolylineVertex
 10
117.8694518672933
 20
166.9814808500328
 30
0.0
 70
    32
1001
ACAD
1000
R13OBJECT
1002
{
1005
F1B
1002
}
  0
VERTEX
  5
1063
330
F1B
100
AcDbEntity
  8
3
  6
Continuous
100
AcDbVertex
100
AcDb3dPolylineVertex
 10
116.9865040248426
 20
167.1137027313372
 30
0.0
 70
    32
1001
ACAD
1000
R13OBJECT
1002
{
1005
F1B
1002
}
  0
VERTEX
  5
1064
330
F1B
100
AcDbEntity
  8
3
  6
Continuous
100
AcDbVertex
100
AcDb3dPolylineVertex
 10
116.078191447828
 20
167.2240096110506
 30
0.0
 70
    32
1001
ACAD
1000
R13OBJECT
1002
{
1005
F1B
1002
}
  0
SEQEND
  5
1065
330
F1B
100
AcDbEntity
  8
3
  6
Continuous
  0
POLYLINE
  5
F1C
330
1110
100
AcDbEntity
  8
3
  6
Continuous
100
AcDb3dPolyline
 66
     1
 10
0.0
 20
0.0
 30
0.0
 70
     8
  0
VERTEX
  5
1066
330
F1C
100
AcDbEntity
  8
3
  6
Continuous
100
AcDbVertex
100
AcDb3dPolylineVertex
 10
105.5959777209537
 20
165.491338561879
 30
0.0
 70
    32
1001
ACAD
1000
R13OBJECT
1002
{
1005
F1C
1002
}
  0
VERTEX
  5
1067
330
F1C
100
AcDbEntity
  8
3
  6
Continuous
100
AcDbVertex
100
AcDb3dPolylineVertex
 10
106.5613034951375
 20
165.3289385973973
 30
0.0
 70
    32
1001
ACAD
1000
R13OBJECT
1002
{
1005
F1C
1002
}
  0
VERTEX
  5
1068
330
F1C
100
AcDbEntity
  8
3
  6
Continuous
100
AcDbVertex
100
AcDb3dPolylineVertex
 10
107.5614145931725
 20
165.193380703182
 30
0.0
 70
    32
1001
ACAD
1000
R13OBJECT
1002
{
1005
F1C
1002
}
  0
SEQEND
  5
1069
330
F1C
100
AcDbEntity
  8
3
  6
Continuous
  0
POLYLINE
  5
F1D
330
1110
100
AcDbEntity
  8
3
  6
Continuous
100
AcDb3dPolyline
 66
     1
 10
0.0
 20
0.0
 30
0.0
 70
     8
  0
VERTEX
  5
106A
330
F1D
100
AcDbEntity
  8
3
  6
Continuous
100
AcDbVertex
100
AcDb3dPolylineVertex
 10
108.2744396238837
 20
166.9365932245258
 30
0.0
 70
    32
1001
ACAD
1000
R13OBJECT
1002
{
1005
F1D
1002
}
  0
VERTEX
  5
106B
330
F1D
100
AcDbEntity
  8
3
  6
Continuous
100
AcDbVertex
100
AcDb3dPolylineVertex
 10
107.4204566857191
 20
166.8337885519339
 30
0.0
 70
    32
1001
ACAD
1000
R13OBJECT
1002
{
1005
F1D
1002
}
  0
VERTEX
  5
106C
330
F1D
100
AcDbEntity
  8
3
  6
Continuous
100
AcDbVertex
100
AcDb3dPolylineVertex
 10
106.5902844417538
 20
166.7102577922191
 30
0.0
 70
    32
1001
ACAD
1000
R13OBJECT
1002
{
1005
F1D
1002
}
  0
SEQEND
  5
106D
330
F1D
100
AcDbEntity
  8
3
  6
Continuous
  0
POLYLINE
  5
F1E
330
1110
100
AcDbEntity
  8
3
  6
Continuous
100
AcDb3dPolyline
 66
     1
 10
0.0
 20
0.0
 30
0.0
 70
     8
  0
VERTEX
  5
106E
330
F1E
100
AcDbEntity
  8
3
  6
Continuous
100
AcDbVertex
100
AcDb3dPolylineVertex
 10
105.5959777209535
 20
165.8424453352411
 30
0.0
 70
    32
1001
ACAD
1000
R13OBJECT
1002
{
1005
F1E
1002
}
  0
VERTEX
  5
106F
330
F1E
100
AcDbEntity
  8
3
  6
Continuous
100
AcDbVertex
100
AcDb3dPolylineVertex
 10
106.3515399123276
 20
165.7007005666925
 30
0.0
 70
    32
1001
ACAD
1000
R13OBJECT
1002
{
1005
F1E
1002
}
  0
VERTEX
  5
1070
330
F1E
100
AcDbEntity
  8
3
  6
Continuous
100
AcDbVertex
100
AcDb3dPolylineVertex
 10
107.1336846263768
 20
165.5769676087204
 30
0.0
 70
    32
1001
ACAD
1000
R13OBJECT
1002
{
1005
F1E
1002
}
  0
SEQEND
  5
1071
330
F1E
100
AcDbEntity
  8
3
  6
Continuous
  0
POLYLINE
  5
F1F
330
1110
100
AcDbEntity
  8
3
  6
Continuous
100
AcDb3dPolyline
 66
     1
 10
0.0
 20
0.0
 30
0.0
 70
     8
  0
VERTEX
  5
1072
330
F1F
100
AcDbEntity
  8
3
  6
Continuous
100
AcDbVertex
100
AcDb3dPolylineVertex
 10
108.2744396238836
 20
167.2554564379577
 30
0.0
 70
    32
1001
ACAD
1000
R13OBJECT
1002
{
1005
F1F
1002
}
  0
VERTEX
  5
1073
330
F1F
100
AcDbEntity
  8
3
  6
Continuous
100
AcDbVertex
100
AcDb3dPolylineVertex
 10
107.0585819567738
 20
167.1132304699829
 30
0.0
 70
    32
1001
ACAD
1000
R13OBJECT
1002
{
1005
F1F
1002
}
  0
VERTEX
  5
1074
330
F1F
100
AcDbEntity
  8
3
  6
Continuous
100
AcDbVertex
100
AcDb3dPolylineVertex
 10
105.8878377076178
 20
166.9320583966048
 30
0.0
 70
    32
1001
ACAD
1000
R13OBJECT
1002
{
1005
F1F
1002
}
  0
SEQEND
  5
1075
330
F1F
100
AcDbEntity
  8
3
  6
Continuous
  0
POLYLINE
  5
F20
330
1110
100
AcDbEntity
  8
3
  6
Continuous
100
AcDb3dPolyline
 66
     1
 10
0.0
 20
0.0
 30
0.0
 70
     8
  0
VERTEX
  5
1076
330
F20
100
AcDbEntity
  8
3
  6
Continuous
100
AcDbVertex
100
AcDb3dPolylineVertex
 10
109.2565423216246
 20
165.0316214545128
 30
0.0
 70
    32
1001
ACAD
1000
R13OBJECT
1002
{
1005
F20
1002
}
  0
VERTEX
  5
1077
330
F20
100
AcDbEntity
  8
3
  6
Continuous
100
AcDbVertex
100
AcDb3dPolylineVertex
 10
109.8126074474679
 20
164.9958756259059
 30
0.0
 70
    32
1001
ACAD
1000
R13OBJECT
1002
{
1005
F20
1002
}
  0
VERTEX
  5
1078
330
F20
100
AcDbEntity
  8
3
  6
Continuous
100
AcDbVertex
100
AcDb3dPolylineVertex
 10
110.3725681145121
 20
164.9681414219914
 30
0.0
 70
    32
1001
ACAD
1000
R13OBJECT
1002
{
1005
F20
1002
}
  0
SEQEND
  5
1079
330
F20
100
AcDbEntity
  8
3
  6
Continuous
  0
LINE
  5
F21
330
1110
100
AcDbEntity
  8
3
100
AcDbLine
 10
106.1316701015397
 20
166.0632618186568
 30
0.0
 11
107.2030548627116
 21
166.0632618186568
 31
0.0
  0
LINE
  5
F22
330
1110
100
AcDbEntity
  8
3
100
AcDbLine
 10
106.6673624821256
 20
166.3991654938516
 30
0.0
 11
107.7387472432976
 21
166.3991654938516
 31
0.0
  0
LINE
  5
F23
330
1110
100
AcDbEntity
  8
3
100
AcDbLine
 10
105.5959777209537
 20
166.2464820051267
 30
0.0
 11
105.5959777209537
 21
166.7689185341312
 31
0.0
  0
LINE
  5
F24
330
1110
100
AcDbEntity
  8
3
100
AcDbLine
 10
108.2744396238837
 20
166.9365932245258
 30
0.0
 11
108.2744396238837
 21
167.2554564379577
 31
0.0
  0
LINE
  5
F25
330
1110
100
AcDbEntity
  8
3
100
AcDbLine
 10
110.3725681145121
 20
164.9681414219914
 30
0.0
 11
110.3725681145121
 21
167.402675797282
 31
0.0
  0
POLYLINE
  5
F26
330
1110
100
AcDbEntity
  8
3
  6
Continuous
100
AcDb3dPolyline
 66
     1
 10
0.0
 20
0.0
 30
0.0
 70
     8
  0
VERTEX
  5
107A
330
F26
100
AcDbEntity
  8
3
  6
Continuous
100
AcDbVertex
100
AcDb3dPolylineVertex
 10
110.3725681145121
 20
167.402675797282
 30
0.0
 70
    32
1001
ACAD
1000
R13OBJECT
1002
{
1005
F26
1002
}
  0
VERTEX
  5
107B
330
F26
100
AcDbEntity
  8
3
  6
Continuous
100
AcDbVertex
100
AcDb3dPolylineVertex
 10
109.812607447468
 20
167.3749415933675
 30
0.0
 70
    32
1001
ACAD
1000
R13OBJECT
1002
{
1005
F26
1002
}
  0
VERTEX
  5
107C
330
F26
100
AcDbEntity
  8
3
  6
Continuous
100
AcDbVertex
100
AcDb3dPolylineVertex
 10
109.2565423216247
 20
167.3391957647606
 30
0.0
 70
    32
1001
ACAD
1000
R13OBJECT
1002
{
1005
F26
1002
}
  0
SEQEND
  5
107D
330
F26
100
AcDbEntity
  8
3
  6
Continuous
  0
POLYLINE
  5
F27
330
1110
100
AcDbEntity
  8
3
  6
Continuous
100
AcDb3dPolyline
 66
     1
 10
0.0
 20
0.0
 30
0.0
 70
     8
  0
VERTEX
  5
107E
330
F27
100
AcDbEntity
  8
3
  6
Continuous
100
AcDbVertex
100
AcDb3dPolylineVertex
 10
111.4885939073995
 20
164.9370455762155
 30
0.0
 70
    32
1001
ACAD
1000
R13OBJECT
1002
{
1005
F27
1002
}
  0
VERTEX
  5
107F
330
F27
100
AcDbEntity
  8
3
  6
Continuous
100
AcDbVertex
100
AcDb3dPolylineVertex
 10
112.0242862879855
 20
164.9334040020922
 30
0.0
 70
    32
1001
ACAD
1000
R13OBJECT
1002
{
1005
F27
1002
}
  0
VERTEX
  5
1080
330
F27
100
AcDbEntity
  8
3
  6
Continuous
100
AcDbVertex
100
AcDb3dPolylineVertex
 10
112.5599786685714
 20
164.9370455762155
 30
0.0
 70
    32
1001
ACAD
1000
R13OBJECT
1002
{
1005
F27
1002
}
  0
SEQEND
  5
1081
330
F27
100
AcDbEntity
  8
3
  6
Continuous
  0
LINE
  5
F28
330
1110
100
AcDbEntity
  8
3
100
AcDbLine
 10
112.5599786685715
 20
164.9370455762155
 30
0.0
 11
112.5599786685715
 21
166.0327251209118
 31
0.0
  0
LINE
  5
F29
330
1110
100
AcDbEntity
  8
3
100
AcDbLine
 10
113.7206454931745
 20
166.1854086096367
 30
0.0
 11
114.7920302543464
 21
167.3391957647605
 31
0.0
  0
LINE
  5
F2A
330
1110
100
AcDbEntity
  8
3
100
AcDbLine
 10
112.7383031825525
 20
166.3380920983616
 30
0.0
 11
113.7249091102974
 21
167.4005799065286
 31
0.0
  0
LINE
  5
F2B
330
1110
100
AcDbEntity
  8
3
100
AcDbLine
 10
113.7206454931745
 20
166.1854086096367
 30
0.0
 11
114.7920302543464
 21
165.0316214545129
 31
0.0
  0
LINE
  5
F2C
330
1110
100
AcDbEntity
  8
3
100
AcDbLine
 10
112.7383031825525
 20
166.0327251209118
 30
0.0
 11
113.7249091102974
 21
164.9702373127449
 31
0.0
  0
LINE
  5
F2D
330
1110
100
AcDbEntity
  8
3
100
AcDbLine
 10
118.2740307281553
 20
165.6094745940005
 30
0.0
 11
118.2740307281553
 21
166.7613426252728
 31
0.0
  0
LINE
  5
F2E
330
1110
100
AcDbEntity
  8
3
100
AcDbLine
 10
116.2205432692424
 20
165.6049746410069
 30
0.0
 11
116.2205432692424
 21
166.7658425782665
 31
0.0
  0
LINE
  5
F2F
330
1110
100
AcDbEntity
  8
3
100
AcDbLine
 10
117.2026459669833
 20
165.7328587123212
 30
0.0
 11
117.2026459669833
 21
166.6379585069522
 31
0.0
  0
POLYLINE
  5
F30
330
1110
100
AcDbEntity
  8
3
  6
Continuous
100
AcDb3dPolyline
 66
     1
 10
0.0
 20
0.0
 30
0.0
 70
     8
  0
VERTEX
  5
1082
330
F30
100
AcDbEntity
  8
3
  6
Continuous
100
AcDbVertex
100
AcDb3dPolylineVertex
 10
116.9873186375322
 20
166.7500639966364
 30
0.0
 70
    32
1001
ACAD
1000
R13OBJECT
1002
{
1005
F30
1002
}
  0
VERTEX
  5
1083
330
F30
100
AcDbEntity
  8
3
  6
Continuous
100
AcDbVertex
100
AcDb3dPolylineVertex
 10
116.7261216219497
 20
166.7875170378874
 30
0.0
 70
    32
1001
ACAD
1000
R13OBJECT
1002
{
1005
F30
1002
}
  0
VERTEX
  5
1084
330
F30
100
AcDbEntity
  8
3
  6
Continuous
100
AcDbVertex
100
AcDb3dPolylineVertex
 10
116.4625106005699
 20
166.8229363568257
 30
0.0
 70
    32
1001
ACAD
1000
R13OBJECT
1002
{
1005
F30
1002
}
  0
SEQEND
  5
1085
330
F30
100
AcDbEntity
  8
3
  6
Continuous
  0
POLYLINE
  5
F31
330
1110
100
AcDbEntity
  8
3
  6
Continuous
100
AcDb3dPolyline
 66
     1
 10
0.0
 20
0.0
 30
0.0
 70
     8
  0
VERTEX
  5
1086
330
F31
100
AcDbEntity
  8
3
  6
Continuous
100
AcDbVertex
100
AcDb3dPolylineVertex
 10
116.4625106005698
 20
165.5478808624477
 30
0.0
 70
    32
1001
ACAD
1000
R13OBJECT
1002
{
1005
F31
1002
}
  0
VERTEX
  5
1087
330
F31
100
AcDbEntity
  8
3
  6
Continuous
100
AcDbVertex
100
AcDb3dPolylineVertex
 10
116.7261216219497
 20
165.583300181386
 30
0.0
 70
    32
1001
ACAD
1000
R13OBJECT
1002
{
1005
F31
1002
}
  0
VERTEX
  5
1088
330
F31
100
AcDbEntity
  8
3
  6
Continuous
100
AcDbVertex
100
AcDb3dPolylineVertex
 10
116.9873186375322
 20
165.6207532226369
 30
0.0
 70
    32
1001
ACAD
1000
R13OBJECT
1002
{
1005
F31
1002
}
  0
SEQEND
  5
1089
330
F31
100
AcDbEntity
  8
3
  6
Continuous
  0
POLYLINE
  5
F32
330
1110
100
AcDbEntity
  8
3
  6
Continuous
100
AcDb3dPolyline
 66
     1
 10
0.0
 20
0.0
 30
0.0
 70
     8
  0
VERTEX
  5
108A
330
F32
100
AcDbEntity
  8
3
  6
Continuous
100
AcDbVertex
100
AcDb3dPolylineVertex
 10
113.7249091102973
 20
164.9702373127448
 30
0.0
 70
    32
1001
ACAD
1000
R13OBJECT
1002
{
1005
F32
1002
}
  0
VERTEX
  5
108B
330
F32
100
AcDbEntity
  8
3
  6
Continuous
100
AcDbVertex
100
AcDb3dPolylineVertex
 10
114.2602710933504
 20
164.9972659691518
 30
0.0
 70
    32
1001
ACAD
1000
R13OBJECT
1002
{
1005
F32
1002
}
  0
VERTEX
  5
108C
330
F32
100
AcDbEntity
  8
3
  6
Continuous
100
AcDbVertex
100
AcDb3dPolylineVertex
 10
114.7920302543464
 20
165.0316214545128
 30
0.0
 70
    32
1001
ACAD
1000
R13OBJECT
1002
{
1005
F32
1002
}
  0
SEQEND
  5
108D
330
F32
100
AcDbEntity
  8
3
  6
Continuous
  0
POLYLINE
  5
F33
330
1110
100
AcDbEntity
  8
3
  6
Continuous
100
AcDb3dPolyline
 66
     1
 10
0.0
 20
0.0
 30
0.0
 70
     8
  0
VERTEX
  5
108E
330
F33
100
AcDbEntity
  8
3
  6
Continuous
100
AcDbVertex
100
AcDb3dPolylineVertex
 10
112.5599786685714
 20
167.4337716430579
 30
0.0
 70
    32
1001
ACAD
1000
R13OBJECT
1002
{
1005
F33
1002
}
  0
VERTEX
  5
108F
330
F33
100
AcDbEntity
  8
3
  6
Continuous
100
AcDbVertex
100
AcDb3dPolylineVertex
 10
112.0242862879855
 20
167.4374132171812
 30
0.0
 70
    32
1001
ACAD
1000
R13OBJECT
1002
{
1005
F33
1002
}
  0
VERTEX
  5
1090
330
F33
100
AcDbEntity
  8
3
  6
Continuous
100
AcDbVertex
100
AcDb3dPolylineVertex
 10
111.4885939073995
 20
167.4337716430579
 30
0.0
 70
    32
1001
ACAD
1000
R13OBJECT
1002
{
1005
F33
1002
}
  0
SEQEND
  5
1091
330
F33
100
AcDbEntity
  8
3
  6
Continuous
  0
POLYLINE
  5
F34
330
1110
100
AcDbEntity
  8
3
  6
Continuous
100
AcDb3dPolyline
 66
     1
 10
0.0
 20
0.0
 30
0.0
 70
     8
  0
VERTEX
  5
1092
330
F34
100
AcDbEntity
  8
3
  6
Continuous
100
AcDbVertex
100
AcDb3dPolylineVertex
 10
116.0781914478279
 20
165.1468076082228
 30
0.0
 70
    32
1001
ACAD
1000
R13OBJECT
1002
{
1005
F34
1002
}
  0
VERTEX
  5
1093
330
F34
100
AcDbEntity
  8
3
  6
Continuous
100
AcDbVertex
100
AcDb3dPolylineVertex
 10
116.9865040248425
 20
165.2571144879362
 30
0.0
 70
    32
1001
ACAD
1000
R13OBJECT
1002
{
1005
F34
1002
}
  0
VERTEX
  5
1094
330
F34
100
AcDbEntity
  8
3
  6
Continuous
100
AcDbVertex
100
AcDb3dPolylineVertex
 10
117.8694518672932
 20
165.3893363692406
 30
0.0
 70
    32
1001
ACAD
1000
R13OBJECT
1002
{
1005
F34
1002
}
  0
SEQEND
  5
1095
330
F34
100
AcDbEntity
  8
3
  6
Continuous
  0
POLYLINE
  5
F35
330
1110
100
AcDbEntity
  8
3
  6
Continuous
100
AcDb3dPolyline
 66
     1
 10
0.0
 20
0.0
 30
0.0
 70
     8
  0
VERTEX
  5
1096
330
F35
100
AcDbEntity
  8
3
  6
Continuous
100
AcDbVertex
100
AcDb3dPolylineVertex
 10
114.7920302543463
 20
167.3391957647606
 30
0.0
 70
    32
1001
ACAD
1000
R13OBJECT
1002
{
1005
F35
1002
}
  0
VERTEX
  5
1097
330
F35
100
AcDbEntity
  8
3
  6
Continuous
100
AcDbVertex
100
AcDb3dPolylineVertex
 10
114.2602710933504
 20
167.3735512501216
 30
0.0
 70
    32
1001
ACAD
1000
R13OBJECT
1002
{
1005
F35
1002
}
  0
VERTEX
  5
1098
330
F35
100
AcDbEntity
  8
3
  6
Continuous
100
AcDbVertex
100
AcDb3dPolylineVertex
 10
113.7249091102974
 20
167.4005799065286
 30
0.0
 70
    32
1001
ACAD
1000
R13OBJECT
1002
{
1005
F35
1002
}
  0
SEQEND
  5
1099
330
F35
100
AcDbEntity
  8
3
  6
Continuous
  0
LINE
  5
F36
330
1110
100
AcDbEntity
  8
3
100
AcDbLine
 10
112.5599786685715
 20
166.3380920983616
 30
0.0
 11
112.7383031825525
 21
166.3380920983616
 31
0.0
  0
LINE
  5
F37
330
1110
100
AcDbEntity
  8
3
100
AcDbLine
 10
112.5599786685715
 20
166.0327251209118
 30
0.0
 11
112.7383031825525
 21
166.0327251209118
 31
0.0
  0
LINE
  5
F38
330
1110
100
AcDbEntity
  8
3
100
AcDbLine
 10
112.5599786685715
 20
166.3380920983616
 30
0.0
 11
112.5599786685715
 21
167.4337716430579
 31
0.0
  0
POLYLINE
  5
F39
330
1110
100
AcDbEntity
  8
3
  6
Continuous
100
AcDb3dPolyline
 66
     1
 10
0.0
 20
0.0
 30
0.0
 70
     8
  0
VERTEX
  5
109A
330
F39
100
AcDbEntity
  8
3
  6
Continuous
100
AcDbVertex
100
AcDb3dPolylineVertex
 10
116.0781914478278
 20
167.2240096110506
 30
0.0
 70
    32
1001
ACAD
1000
R13OBJECT
1002
{
1005
F39
1002
}
  0
VERTEX
  5
109B
330
F39
100
AcDbEntity
  8
3
  6
Continuous
100
AcDbVertex
100
AcDb3dPolylineVertex
 10
115.6387462965343
 20
167.2229157168806
 30
0.0
 70
    32
1001
ACAD
1000
R13OBJECT
1002
{
1005
F39
1002
}
  0
VERTEX
  5
109C
330
F39
100
AcDbEntity
  8
3
  6
Continuous
100
AcDbVertex
100
AcDb3dPolylineVertex
 10
115.2843496250027
 20
167.1340383839093
 30
0.0
 70
    32
1001
ACAD
1000
R13OBJECT
1002
{
1005
F39
1002
}
  0
VERTEX
  5
109D
330
F39
100
AcDbEntity
  8
3
  6
Continuous
100
AcDbVertex
100
AcDb3dPolylineVertex
 10
115.1491585080704
 20
166.9910221804089
 30
0.0
 70
    32
1001
ACAD
1000
R13OBJECT
1002
{
1005
F39
1002
}
  0
SEQEND
  5
109E
330
F39
100
AcDbEntity
  8
3
  6
Continuous
  0
POLYLINE
  5
F3A
330
1110
100
AcDbEntity
  8
3
  6
Continuous
100
AcDb3dPolyline
 66
     1
 10
0.0
 20
0.0
 30
0.0
 70
     8
  0
VERTEX
  5
109F
330
F3A
100
AcDbEntity
  8
3
  6
Continuous
100
AcDbVertex
100
AcDb3dPolylineVertex
 10
115.1491585080704
 20
165.3797950388646
 30
0.0
 70
    32
1001
ACAD
1000
R13OBJECT
1002
{
1005
F3A
1002
}
  0
VERTEX
  5
10A0
330
F3A
100
AcDbEntity
  8
3
  6
Continuous
100
AcDbVertex
100
AcDb3dPolylineVertex
 10
115.2843496250027
 20
165.2367788353642
 30
0.0
 70
    32
1001
ACAD
1000
R13OBJECT
1002
{
1005
F3A
1002
}
  0
VERTEX
  5
10A1
330
F3A
100
AcDbEntity
  8
3
  6
Continuous
100
AcDbVertex
100
AcDb3dPolylineVertex
 10
115.6387462965344
 20
165.1479015023928
 30
0.0
 70
    32
1001
ACAD
1000
R13OBJECT
1002
{
1005
F3A
1002
}
  0
VERTEX
  5
10A2
330
F3A
100
AcDbEntity
  8
3
  6
Continuous
100
AcDbVertex
100
AcDb3dPolylineVertex
 10
116.0781914478279
 20
165.1468076082229
 30
0.0
 70
    32
1001
ACAD
1000
R13OBJECT
1002
{
1005
F3A
1002
}
  0
SEQEND
  5
10A3
330
F3A
100
AcDbEntity
  8
3
  6
Continuous
  0
POLYLINE
  5
F3B
330
1110
100
AcDbEntity
  8
3
  6
Continuous
100
AcDb3dPolyline
 66
     1
 10
0.0
 20
0.0
 30
0.0
 70
     8
  0
VERTEX
  5
10A4
330
F3B
100
AcDbEntity
  8
3
  6
Continuous
100
AcDbVertex
100
AcDb3dPolylineVertex
 10
117.8694518672931
 20
165.3893363692406
 30
0.0
 70
    32
1001
ACAD
1000
R13OBJECT
1002
{
1005
F3B
1002
}
  0
VERTEX
  5
10A5
330
F3B
100
AcDbEntity
  8
3
  6
Continuous
100
AcDbVertex
100
AcDb3dPolylineVertex
 10
118.1644855703266
 20
165.4794661530545
 30
0.0
 70
    32
1001
ACAD
1000
R13OBJECT
1002
{
1005
F3B
1002
}
  0
VERTEX
  5
10A6
330
F3B
100
AcDbEntity
  8
3
  6
Continuous
100
AcDbVertex
100
AcDb3dPolylineVertex
 10
118.2740307281553
 20
165.6094745940006
 30
0.0
 70
    32
1001
ACAD
1000
R13OBJECT
1002
{
1005
F3B
1002
}
  0
SEQEND
  5
10A7
330
F3B
100
AcDbEntity
  8
3
  6
Continuous
  0
POLYLINE
  5
F3C
330
1110
100
AcDbEntity
  8
3
  6
Continuous
100
AcDb3dPolyline
 66
     1
 10
0.0
 20
0.0
 30
0.0
 70
     8
  0
VERTEX
  5
10A8
330
F3C
100
AcDbEntity
  8
3
  6
Continuous
100
AcDbVertex
100
AcDb3dPolylineVertex
 10
118.2740307281553
 20
166.7613426252728
 30
0.0
 70
    32
1001
ACAD
1000
R13OBJECT
1002
{
1005
F3C
1002
}
  0
VERTEX
  5
10A9
330
F3C
100
AcDbEntity
  8
3
  6
Continuous
100
AcDbVertex
100
AcDb3dPolylineVertex
 10
118.1644855703266
 20
166.8913510662189
 30
0.0
 70
    32
1001
ACAD
1000
R13OBJECT
1002
{
1005
F3C
1002
}
  0
VERTEX
  5
10AA
330
F3C
100
AcDbEntity
  8
3
  6
Continuous
100
AcDbVertex
100
AcDb3dPolylineVertex
 10
117.8694518672931
 20
166.9814808500328
 30
0.0
 70
    32
1001
ACAD
1000
R13OBJECT
1002
{
1005
F3C
1002
}
  0
SEQEND
  5
10AB
330
F3C
100
AcDbEntity
  8
3
  6
Continuous
  0
POLYLINE
  5
F3D
330
1110
100
AcDbEntity
  8
3
  6
Continuous
100
AcDb3dPolyline
 66
     1
 10
0.0
 20
0.0
 30
0.0
 70
     8
  0
VERTEX
  5
10AC
330
F3D
100
AcDbEntity
  8
3
  6
Continuous
100
AcDbVertex
100
AcDb3dPolylineVertex
 10
116.4625106005698
 20
166.8229363568256
 30
0.0
 70
    32
1001
ACAD
1000
R13OBJECT
1002
{
1005
F3D
1002
}
  0
VERTEX
  5
10AD
330
F3D
100
AcDbEntity
  8
3
  6
Continuous
100
AcDbVertex
100
AcDb3dPolylineVertex
 10
116.349484925517
 20
166.8245103427765
 30
0.0
 70
    32
1001
ACAD
1000
R13OBJECT
1002
{
1005
F3D
1002
}
  0
VERTEX
  5
10AE
330
F3D
100
AcDbEntity
  8
3
  6
Continuous
100
AcDbVertex
100
AcDb3dPolylineVertex
 10
116.2563734818878
 20
166.8025400870617
 30
0.0
 70
    32
1001
ACAD
1000
R13OBJECT
1002
{
1005
F3D
1002
}
  0
VERTEX
  5
10AF
330
F3D
100
AcDbEntity
  8
3
  6
Continuous
100
AcDbVertex
100
AcDb3dPolylineVertex
 10
116.2205432692424
 20
166.7658425782665
 30
0.0
 70
    32
1001
ACAD
1000
R13OBJECT
1002
{
1005
F3D
1002
}
  0
SEQEND
  5
10B0
330
F3D
100
AcDbEntity
  8
3
  6
Continuous
  0
POLYLINE
  5
F3E
330
1110
100
AcDbEntity
  8
3
  6
Continuous
100
AcDb3dPolyline
 66
     1
 10
0.0
 20
0.0
 30
0.0
 70
     8
  0
VERTEX
  5
10B1
330
F3E
100
AcDbEntity
  8
3
  6
Continuous
100
AcDbVertex
100
AcDb3dPolylineVertex
 10
116.2205432692424
 20
165.6049746410069
 30
0.0
 70
    32
1001
ACAD
1000
R13OBJECT
1002
{
1005
F3E
1002
}
  0
VERTEX
  5
10B2
330
F3E
100
AcDbEntity
  8
3
  6
Continuous
100
AcDbVertex
100
AcDb3dPolylineVertex
 10
116.2563734818878
 20
165.5682771322117
 30
0.0
 70
    32
1001
ACAD
1000
R13OBJECT
1002
{
1005
F3E
1002
}
  0
VERTEX
  5
10B3
330
F3E
100
AcDbEntity
  8
3
  6
Continuous
100
AcDbVertex
100
AcDb3dPolylineVertex
 10
116.3494849255171
 20
165.5463068764969
 30
0.0
 70
    32
1001
ACAD
1000
R13OBJECT
1002
{
1005
F3E
1002
}
  0
VERTEX
  5
10B4
330
F3E
100
AcDbEntity
  8
3
  6
Continuous
100
AcDbVertex
100
AcDb3dPolylineVertex
 10
116.4625106005698
 20
165.5478808624477
 30
0.0
 70
    32
1001
ACAD
1000
R13OBJECT
1002
{
1005
F3E
1002
}
  0
SEQEND
  5
10B5
330
F3E
100
AcDbEntity
  8
3
  6
Continuous
  0
POLYLINE
  5
F3F
330
1110
100
AcDbEntity
  8
3
  6
Continuous
100
AcDb3dPolyline
 66
     1
 10
0.0
 20
0.0
 30
0.0
 70
     8
  0
VERTEX
  5
10B6
330
F3F
100
AcDbEntity
  8
3
  6
Continuous
100
AcDbVertex
100
AcDb3dPolylineVertex
 10
116.9873186375321
 20
165.6207532226369
 30
0.0
 70
    32
1001
ACAD
1000
R13OBJECT
1002
{
1005
F3F
1002
}
  0
VERTEX
  5
10B7
330
F3F
100
AcDbEntity
  8
3
  6
Continuous
100
AcDbVertex
100
AcDb3dPolylineVertex
 10
117.1439986222552
 20
165.6657923831906
 30
0.0
 70
    32
1001
ACAD
1000
R13OBJECT
1002
{
1005
F3F
1002
}
  0
VERTEX
  5
10B8
330
F3F
100
AcDbEntity
  8
3
  6
Continuous
100
AcDbVertex
100
AcDb3dPolylineVertex
 10
117.2026459669834
 20
165.7328587123212
 30
0.0
 70
    32
1001
ACAD
1000
R13OBJECT
1002
{
1005
F3F
1002
}
  0
SEQEND
  5
10B9
330
F3F
100
AcDbEntity
  8
3
  6
Continuous
  0
POLYLINE
  5
F40
330
1110
100
AcDbEntity
  8
3
  6
Continuous
100
AcDb3dPolyline
 66
     1
 10
0.0
 20
0.0
 30
0.0
 70
     8
  0
VERTEX
  5
10BA
330
F40
100
AcDbEntity
  8
3
  6
Continuous
100
AcDbVertex
100
AcDb3dPolylineVertex
 10
117.2026459669834
 20
166.6379585069522
 30
0.0
 70
    32
1001
ACAD
1000
R13OBJECT
1002
{
1005
F40
1002
}
  0
VERTEX
  5
10BB
330
F40
100
AcDbEntity
  8
3
  6
Continuous
100
AcDbVertex
100
AcDb3dPolylineVertex
 10
117.1439986222552
 20
166.7050248360828
 30
0.0
 70
    32
1001
ACAD
1000
R13OBJECT
1002
{
1005
F40
1002
}
  0
VERTEX
  5
10BC
330
F40
100
AcDbEntity
  8
3
  6
Continuous
100
AcDbVertex
100
AcDb3dPolylineVertex
 10
116.9873186375321
 20
166.7500639966364
 30
0.0
 70
    32
1001
ACAD
1000
R13OBJECT
1002
{
1005
F40
1002
}
  0
SEQEND
  5
10BD
330
F40
100
AcDbEntity
  8
3
  6
Continuous
  0
POLYLINE
  5
F41
330
1110
100
AcDbEntity
  8
3
  6
Continuous
100
AcDb3dPolyline
 66
     1
 10
0.0
 20
0.0
 30
0.0
 70
     8
  0
VERTEX
  5
10BE
330
F41
100
AcDbEntity
  8
3
  6
Continuous
100
AcDbVertex
100
AcDb3dPolylineVertex
 10
105.8878377076178
 20
166.9320583966048
 30
0.0
 70
    32
1001
ACAD
1000
R13OBJECT
1002
{
1005
F41
1002
}
  0
VERTEX
  5
10BF
330
F41
100
AcDbEntity
  8
3
  6
Continuous
100
AcDbVertex
100
AcDb3dPolylineVertex
 10
105.6747316581023
 20
166.8645471494864
 30
0.0
 70
    32
1001
ACAD
1000
R13OBJECT
1002
{
1005
F41
1002
}
  0
VERTEX
  5
10C0
330
F41
100
AcDbEntity
  8
3
  6
Continuous
100
AcDbVertex
100
AcDb3dPolylineVertex
 10
105.5959777209537
 20
166.7689185341313
 30
0.0
 70
    32
1001
ACAD
1000
R13OBJECT
1002
{
1005
F41
1002
}
  0
SEQEND
  5
10C1
330
F41
100
AcDbEntity
  8
3
  6
Continuous
  0
POLYLINE
  5
F42
330
1110
100
AcDbEntity
  8
3
  6
Continuous
100
AcDb3dPolyline
 66
     1
 10
0.0
 20
0.0
 30
0.0
 70
     8
  0
VERTEX
  5
10C2
330
F42
100
AcDbEntity
  8
3
  6
Continuous
100
AcDbVertex
100
AcDb3dPolylineVertex
 10
105.5959777209537
 20
166.2464820051267
 30
0.0
 70
    32
1001
ACAD
1000
R13OBJECT
1002
{
1005
F42
1002
}
  0
VERTEX
  5
10C3
330
F42
100
AcDbEntity
  8
3
  6
Continuous
100
AcDbVertex
100
AcDb3dPolylineVertex
 10
105.6677468913384
 20
166.1548719118917
 30
0.0
 70
    32
1001
ACAD
1000
R13OBJECT
1002
{
1005
F42
1002
}
  0
VERTEX
  5
10C4
330
F42
100
AcDbEntity
  8
3
  6
Continuous
100
AcDbVertex
100
AcDb3dPolylineVertex
 10
105.8638239112466
 20
166.0878086691576
 30
0.0
 70
    32
1001
ACAD
1000
R13OBJECT
1002
{
1005
F42
1002
}
  0
VERTEX
  5
10C5
330
F42
100
AcDbEntity
  8
3
  6
Continuous
100
AcDbVertex
100
AcDb3dPolylineVertex
 10
106.1316701015396
 20
166.0632618186568
 30
0.0
 70
    32
1001
ACAD
1000
R13OBJECT
1002
{
1005
F42
1002
}
  0
SEQEND
  5
10C6
330
F42
100
AcDbEntity
  8
3
  6
Continuous
  0
POLYLINE
  5
F43
330
1110
100
AcDbEntity
  8
3
  6
Continuous
100
AcDb3dPolyline
 66
     1
 10
0.0
 20
0.0
 30
0.0
 70
     8
  0
VERTEX
  5
10C7
330
F43
100
AcDbEntity
  8
3
  6
Continuous
100
AcDbVertex
100
AcDb3dPolylineVertex
 10
107.5614145931725
 20
165.193380703182
 30
0.0
 70
    32
1001
ACAD
1000
R13OBJECT
1002
{
1005
F43
1002
}
  0
VERTEX
  5
10C8
330
F43
100
AcDbEntity
  8
3
  6
Continuous
100
AcDbVertex
100
AcDb3dPolylineVertex
 10
107.8963721604
 20
165.1911616681359
 30
0.0
 70
    32
1001
ACAD
1000
R13OBJECT
1002
{
1005
F43
1002
}
  0
VERTEX
  5
10C9
330
F43
100
AcDbEntity
  8
3
  6
Continuous
100
AcDbVertex
100
AcDb3dPolylineVertex
 10
108.1696792528421
 20
165.2574315148697
 30
0.0
 70
    32
1001
ACAD
1000
R13OBJECT
1002
{
1005
F43
1002
}
  0
VERTEX
  5
10CA
330
F43
100
AcDbEntity
  8
3
  6
Continuous
100
AcDbVertex
100
AcDb3dPolylineVertex
 10
108.2744396238836
 20
165.3662706896087
 30
0.0
 70
    32
1001
ACAD
1000
R13OBJECT
1002
{
1005
F43
1002
}
  0
SEQEND
  5
10CB
330
F43
100
AcDbEntity
  8
3
  6
Continuous
  0
POLYLINE
  5
F44
330
1110
100
AcDbEntity
  8
3
  6
Continuous
100
AcDb3dPolyline
 66
     1
 10
0.0
 20
0.0
 30
0.0
 70
     8
  0
VERTEX
  5
10CC
330
F44
100
AcDbEntity
  8
3
  6
Continuous
100
AcDbVertex
100
AcDb3dPolylineVertex
 10
108.2744396238836
 20
166.2159453073817
 30
0.0
 70
    32
1001
ACAD
1000
R13OBJECT
1002
{
1005
F44
1002
}
  0
VERTEX
  5
10CD
330
F44
100
AcDbEntity
  8
3
  6
Continuous
100
AcDbVertex
100
AcDb3dPolylineVertex
 10
108.1175389582399
 20
166.3455015436848
 30
0.0
 70
    32
1001
ACAD
1000
R13OBJECT
1002
{
1005
F44
1002
}
  0
VERTEX
  5
10CE
330
F44
100
AcDbEntity
  8
3
  6
Continuous
100
AcDbVertex
100
AcDb3dPolylineVertex
 10
107.7387472432976
 20
166.3991654938516
 30
0.0
 70
    32
1001
ACAD
1000
R13OBJECT
1002
{
1005
F44
1002
}
  0
SEQEND
  5
10CF
330
F44
100
AcDbEntity
  8
3
  6
Continuous
  0
POLYLINE
  5
F45
330
1110
100
AcDbEntity
  8
3
  6
Continuous
100
AcDb3dPolyline
 66
     1
 10
0.0
 20
0.0
 30
0.0
 70
     8
  0
VERTEX
  5
10D0
330
F45
100
AcDbEntity
  8
3
  6
Continuous
100
AcDbVertex
100
AcDb3dPolylineVertex
 10
107.1336846263767
 20
165.5769676087205
 30
0.0
 70
    32
1001
ACAD
1000
R13OBJECT
1002
{
1005
F45
1002
}
  0
VERTEX
  5
10D1
330
F45
100
AcDbEntity
  8
3
  6
Continuous
100
AcDbVertex
100
AcDb3dPolylineVertex
 10
107.2485467177608
 20
165.5741857293428
 30
0.0
 70
    32
1001
ACAD
1000
R13OBJECT
1002
{
1005
F45
1002
}
  0
VERTEX
  5
10D2
330
F45
100
AcDbEntity
  8
3
  6
Continuous
100
AcDbVertex
100
AcDb3dPolylineVertex
 10
107.344490998084
 20
165.5959632156572
 30
0.0
 70
    32
1001
ACAD
1000
R13OBJECT
1002
{
1005
F45
1002
}
  0
VERTEX
  5
10D3
330
F45
100
AcDbEntity
  8
3
  6
Continuous
100
AcDbVertex
100
AcDb3dPolylineVertex
 10
107.3816189895736
 20
165.6332438889029
 30
0.0
 70
    32
1001
ACAD
1000
R13OBJECT
1002
{
1005
F45
1002
}
  0
SEQEND
  5
10D4
330
F45
100
AcDbEntity
  8
3
  6
Continuous
  0
POLYLINE
  5
F46
330
1110
100
AcDbEntity
  8
3
  6
Continuous
100
AcDb3dPolyline
 66
     1
 10
0.0
 20
0.0
 30
0.0
 70
     8
  0
VERTEX
  5
10D5
330
F46
100
AcDbEntity
  8
3
  6
Continuous
100
AcDbVertex
100
AcDb3dPolylineVertex
 10
107.3816189895736
 20
166.0021884231668
 30
0.0
 70
    32
1001
ACAD
1000
R13OBJECT
1002
{
1005
F46
1002
}
  0
VERTEX
  5
10D6
330
F46
100
AcDbEntity
  8
3
  6
Continuous
100
AcDbVertex
100
AcDb3dPolylineVertex
 10
107.3576959327787
 20
166.0327251209118
 30
0.0
 70
    32
1001
ACAD
1000
R13OBJECT
1002
{
1005
F46
1002
}
  0
VERTEX
  5
10D7
330
F46
100
AcDbEntity
  8
3
  6
Continuous
100
AcDbVertex
100
AcDb3dPolylineVertex
 10
107.2923369261426
 20
166.0550795351565
 30
0.0
 70
    32
1001
ACAD
1000
R13OBJECT
1002
{
1005
F46
1002
}
  0
VERTEX
  5
10D8
330
F46
100
AcDbEntity
  8
3
  6
Continuous
100
AcDbVertex
100
AcDb3dPolylineVertex
 10
107.2030548627116
 20
166.0632618186568
 30
0.0
 70
    32
1001
ACAD
1000
R13OBJECT
1002
{
1005
F46
1002
}
  0
SEQEND
  5
10D9
330
F46
100
AcDbEntity
  8
3
  6
Continuous
  0
POLYLINE
  5
F47
330
1110
100
AcDbEntity
  8
3
  6
Continuous
100
AcDb3dPolyline
 66
     1
 10
0.0
 20
0.0
 30
0.0
 70
     8
  0
VERTEX
  5
10DA
330
F47
100
AcDbEntity
  8
3
  6
Continuous
100
AcDbVertex
100
AcDb3dPolylineVertex
 10
106.4887983552636
 20
166.4602388893416
 30
0.0
 70
    32
1001
ACAD
1000
R13OBJECT
1002
{
1005
F47
1002
}
  0
VERTEX
  5
10DB
330
F47
100
AcDbEntity
  8
3
  6
Continuous
100
AcDbVertex
100
AcDb3dPolylineVertex
 10
106.5410985771448
 20
166.4170534772405
 30
0.0
 70
    32
1001
ACAD
1000
R13OBJECT
1002
{
1005
F47
1002
}
  0
VERTEX
  5
10DC
330
F47
100
AcDbEntity
  8
3
  6
Continuous
100
AcDbVertex
100
AcDb3dPolylineVertex
 10
106.6673624821256
 20
166.3991654938516
 30
0.0
 70
    32
1001
ACAD
1000
R13OBJECT
1002
{
1005
F47
1002
}
  0
SEQEND
  5
10DD
330
F47
100
AcDbEntity
  8
3
  6
Continuous
  0
POLYLINE
  5
F48
330
1110
100
AcDbEntity
  8
3
  6
Continuous
100
AcDb3dPolyline
 66
     1
 10
0.0
 20
0.0
 30
0.0
 70
     8
  0
VERTEX
  5
10DE
330
F48
100
AcDbEntity
  8
3
  6
Continuous
100
AcDbVertex
100
AcDb3dPolylineVertex
 10
106.5902844417536
 20
166.7102577922191
 30
0.0
 70
    32
1001
ACAD
1000
R13OBJECT
1002
{
1005
F48
1002
}
  0
VERTEX
  5
10DF
330
F48
100
AcDbEntity
  8
3
  6
Continuous
100
AcDbVertex
100
AcDb3dPolylineVertex
 10
106.5162854812598
 20
166.6877241241964
 30
0.0
 70
    32
1001
ACAD
1000
R13OBJECT
1002
{
1005
F48
1002
}
  0
VERTEX
  5
10E0
330
F48
100
AcDbEntity
  8
3
  6
Continuous
100
AcDbVertex
100
AcDb3dPolylineVertex
 10
106.4887983552637
 20
166.6551672115875
 30
0.0
 70
    32
1001
ACAD
1000
R13OBJECT
1002
{
1005
F48
1002
}
  0
SEQEND
  5
10E1
330
F48
100
AcDbEntity
  8
3
  6
Continuous
  0
POLYLINE
  5
F49
330
1110
100
AcDbEntity
  8
0
  6
Continuous
100
AcDb3dPolyline
 66
     1
 10
0.0
 20
0.0
 30
0.0
 70
     8
  0
VERTEX
  5
10E2
330
F49
100
AcDbEntity
  8
0
  6
Continuous
100
AcDbVertex
100
AcDb3dPolylineVertex
 10
123.4615824712405
 20
167.5403696211402
 30
0.0
 70
    32
1001
ACAD
1000
R13OBJECT
1002
{
1005
F49
1002
}
  0
VERTEX
  5
10E3
330
F49
100
AcDbEntity
  8
0
  6
Continuous
100
AcDbVertex
100
AcDb3dPolylineVertex
 10
123.3151358618338
 20
167.6612937195579
 30
0.0
 70
    32
1001
ACAD
1000
R13OBJECT
1002
{
1005
F49
1002
}
  0
VERTEX
  5
10E4
330
F49
100
AcDbEntity
  8
0
  6
Continuous
100
AcDbVertex
100
AcDb3dPolylineVertex
 10
122.9615824712405
 20
167.7113821211402
 30
0.0
 70
    32
1001
ACAD
1000
R13OBJECT
1002
{
1005
F49
1002
}
  0
SEQEND
  5
10E5
330
F49
100
AcDbEntity
  8
0
  6
Continuous
  0
POLYLINE
  5
F4A
330
1110
100
AcDbEntity
  8
0
  6
Continuous
100
AcDb3dPolyline
 66
     1
 10
0.0
 20
0.0
 30
0.0
 70
     8
  0
VERTEX
  5
10E6
330
F4A
100
AcDbEntity
  8
0
  6
Continuous
100
AcDbVertex
100
AcDb3dPolylineVertex
 10
122.9615824712405
 20
164.6332008312092
 30
0.0
 70
    32
1001
ACAD
1000
R13OBJECT
1002
{
1005
F4A
1002
}
  0
VERTEX
  5
10E7
330
F4A
100
AcDbEntity
  8
0
  6
Continuous
100
AcDbVertex
100
AcDb3dPolylineVertex
 10
123.3151358618338
 20
164.6832892327915
 30
0.0
 70
    32
1001
ACAD
1000
R13OBJECT
1002
{
1005
F4A
1002
}
  0
VERTEX
  5
10E8
330
F4A
100
AcDbEntity
  8
0
  6
Continuous
100
AcDbVertex
100
AcDb3dPolylineVertex
 10
123.4615824712405
 20
164.8042133312092
 30
0.0
 70
    32
1001
ACAD
1000
R13OBJECT
1002
{
1005
F4A
1002
}
  0
SEQEND
  5
10E9
330
F4A
100
AcDbEntity
  8
0
  6
Continuous
  0
POLYLINE
  5
F4B
330
1110
100
AcDbEntity
  8
0
  6
Continuous
100
AcDb3dPolyline
 66
     1
 10
0.0
 20
0.0
 30
0.0
 70
     8
  0
VERTEX
  5
10EA
330
F4B
100
AcDbEntity
  8
0
  6
Continuous
100
AcDbVertex
100
AcDb3dPolylineVertex
 10
100.4615824712404
 20
164.8042133312092
 30
0.0
 70
    32
1001
ACAD
1000
R13OBJECT
1002
{
1005
F4B
1002
}
  0
VERTEX
  5
10EB
330
F4B
100
AcDbEntity
  8
0
  6
Continuous
100
AcDbVertex
100
AcDb3dPolylineVertex
 10
100.5285697693482
 20
164.7187070812092
 30
0.0
 70
    32
1001
ACAD
1000
R13OBJECT
1002
{
1005
F4B
1002
}
  0
VERTEX
  5
10EC
330
F4B
100
AcDbEntity
  8
0
  6
Continuous
100
AcDbVertex
100
AcDb3dPolylineVertex
 10
100.7115824712404
 20
164.6561121618445
 30
0.0
 70
    32
1001
ACAD
1000
R13OBJECT
1002
{
1005
F4B
1002
}
  0
VERTEX
  5
10ED
330
F4B
100
AcDbEntity
  8
0
  6
Continuous
100
AcDbVertex
100
AcDb3dPolylineVertex
 10
100.9615824712404
 20
164.6332008312092
 30
0.0
 70
    32
1001
ACAD
1000
R13OBJECT
1002
{
1005
F4B
1002
}
  0
SEQEND
  5
10EE
330
F4B
100
AcDbEntity
  8
0
  6
Continuous
  0
POLYLINE
  5
F4C
330
1110
100
AcDbEntity
  8
0
  6
Continuous
100
AcDb3dPolyline
 66
     1
 10
0.0
 20
0.0
 30
0.0
 70
     8
  0
VERTEX
  5
10EF
330
F4C
100
AcDbEntity
  8
0
  6
Continuous
100
AcDbVertex
100
AcDb3dPolylineVertex
 10
100.9615824712404
 20
167.7113821211402
 30
0.0
 70
    32
1001
ACAD
1000
R13OBJECT
1002
{
1005
F4C
1002
}
  0
VERTEX
  5
10F0
330
F4C
100
AcDbEntity
  8
0
  6
Continuous
100
AcDbVertex
100
AcDb3dPolylineVertex
 10
100.6080290806471
 20
167.6612937195579
 30
0.0
 70
    32
1001
ACAD
1000
R13OBJECT
1002
{
1005
F4C
1002
}
  0
VERTEX
  5
10F1
330
F4C
100
AcDbEntity
  8
0
  6
Continuous
100
AcDbVertex
100
AcDb3dPolylineVertex
 10
100.4615824712404
 20
167.5403696211402
 30
0.0
 70
    32
1001
ACAD
1000
R13OBJECT
1002
{
1005
F4C
1002
}
  0
SEQEND
  5
10F2
330
F4C
100
AcDbEntity
  8
0
  6
Continuous
  0
LINE
  5
F4D
330
1110
100
AcDbEntity
  8
0
100
AcDbLine
 10
100.4615824712404
 20
164.8042133312092
 30
0.0
 11
100.4615824712404
 21
167.5403696211402
 31
0.0
  0
LINE
  5
F4E
330
1110
100
AcDbEntity
  8
0
100
AcDbLine
 10
123.4615824712405
 20
164.8042133312092
 30
0.0
 11
123.4615824712405
 21
167.5403696211402
 31
0.0
  0
LINE
  5
F4F
330
1110
100
AcDbEntity
  8
0
100
AcDbLine
 10
100.9615824712404
 20
167.7113821211402
 30
0.0
 11
122.9615824712405
 21
167.7113821211402
 31
0.0
  0
LINE
  5
F50
330
1110
100
AcDbEntity
  8
0
100
AcDbLine
 10
100.9615824712404
 20
164.6332008312092
 30
0.0
 11
122.9615824712405
 21
164.6332008312092
 31
0.0
  0
LINE
  5
F51
330
1110
100
AcDbEntity
  8
3
100
AcDbLine
 10
176.3969241556542
 20
212.7948473774637
 30
0.0
 11
179.3211458191206
 21
211.866120729606
 31
0.0
  0
LINE
  5
F52
330
1110
100
AcDbEntity
  8
3
100
AcDbLine
 10
175.5564808828918
 20
212.7948473774637
 30
0.0
 11
172.6322592194255
 21
211.866120729606
 31
0.0
  0
POLYLINE
  5
F53
330
1110
100
AcDbEntity
  8
3
100
AcDb2dPolyline
 66
     1
 10
0.0
 20
0.0
 30
0.0
 70
     1
  0
VERTEX
  5
F54
330
F53
100
AcDbEntity
  8
3
100
AcDbVertex
100
AcDb2dVertex
 10
178.278672942458
 20
206.5753416030401
 30
0.0
 42
0.2757322443321372
 50
144.7356103172451
  0
VERTEX
  5
F55
330
F53
100
AcDbEntity
  8
3
100
AcDbVertex
100
AcDb2dVertex
 10
178.278672942458
 20
220.3586112763459
 30
0.0
 50
144.7356103172451
  0
VERTEX
  5
F56
330
F53
100
AcDbEntity
  8
3
100
AcDbVertex
100
AcDb2dVertex
 10
173.6747320960881
 20
220.3586112763459
 30
0.0
 42
0.2757322443321373
 50
360.0
  0
VERTEX
  5
F57
330
F53
100
AcDbEntity
  8
3
100
AcDbVertex
100
AcDb2dVertex
 10
173.6747320960881
 20
206.5753416030401
 30
0.0
 50
360.0
  0
SEQEND
  5
F58
330
F53
100
AcDbEntity
  8
3
  0
POLYLINE
  5
F59
330
1110
100
AcDbEntity
  8
3
100
AcDb2dPolyline
 66
     1
 10
0.0
 20
0.0
 30
0.0
 70
     1
  0
VERTEX
  5
F5A
330
F59
100
AcDbEntity
  8
3
100
AcDbVertex
100
AcDb2dVertex
 10
178.1587647457297
 20
206.7854524212307
 30
0.0
 42
0.2709027632264667
 50
144.7356103172451
  0
VERTEX
  5
F5B
330
F59
100
AcDbEntity
  8
3
100
AcDbVertex
100
AcDb2dVertex
 10
178.1587647457297
 20
220.1485004581552
 30
0.0
 50
144.7356103172451
  0
VERTEX
  5
F5C
330
F59
100
AcDbEntity
  8
3
100
AcDbVertex
100
AcDb2dVertex
 10
173.7946402928163
 20
220.1485004581552
 30
0.0
 42
0.2709027632264667
 50
360.0
  0
VERTEX
  5
F5D
330
F59
100
AcDbEntity
  8
3
100
AcDbVertex
100
AcDb2dVertex
 10
173.7946402928163
 20
206.7854524212307
 30
0.0
 50
360.0
  0
SEQEND
  5
F5E
330
F59
100
AcDbEntity
  8
3
  0
LINE
  5
F5F
330
1110
100
AcDbEntity
  8
3
100
AcDbLine
 10
175.976702519273
 20
211.8701342214441
 30
0.0
 11
172.8012031223781
 21
210.8616022941291
 31
0.0
  0
LINE
  5
F60
330
1110
100
AcDbEntity
  8
3
100
AcDbLine
 10
173.759460459716
 20
210.525424985024
 30
0.0
 11
178.19394457883
 21
210.525424985024
 31
0.0
  0
LINE
  5
F61
330
1110
100
AcDbEntity
  8
3
100
AcDbLine
 10
174.3792088141854
 20
209.516893057709
 30
0.0
 11
177.5741962243607
 21
209.516893057709
 31
0.0
  0
LINE
  5
F62
330
1110
100
AcDbEntity
  8
3
100
AcDbLine
 10
174.7311764968967
 20
208.5924054576702
 30
0.0
 11
177.2222285416492
 21
208.5924054576702
 31
0.0
  0
LINE
  5
F63
330
1110
100
AcDbEntity
  8
3
100
AcDbLine
 10
174.3915937657374
 20
207.5838735303551
 30
0.0
 11
177.5618112728086
 21
207.5838735303551
 31
0.0
  0
ARC
  5
F64
330
1110
100
AcDbEntity
  8
3
100
AcDbCircle
 10
174.3915937657374
 20
208.2562281485651
 30
0.0
 40
0.6723546182100372
100
AcDbArc
 50
205.6941088486102
 51
270.0
  0
ARC
  5
F65
330
1110
100
AcDbEntity
  8
3
100
AcDbCircle
 10
185.2215785196609
 20
213.466976439693
 30
0.0
 40
12.69069341871442
100
AcDbArc
 50
187.2468291309767
 51
191.8469450124623
  0
ARC
  5
F66
330
1110
100
AcDbEntity
  8
3
100
AcDbCircle
 10
185.2215785196609
 20
213.466976439693
 30
0.0
 40
12.69069341871442
100
AcDbArc
 50
197.4996095763041
 51
205.6941088486099
  0
ARC
  5
F67
330
1110
100
AcDbEntity
  8
3
100
AcDbCircle
 10
174.3792088141854
 20
209.3488044031564
 30
0.0
 40
0.1680886545525093
100
AcDbArc
 50
90.0
 51
200.7978855815921
  0
ARC
  5
F68
330
1110
100
AcDbEntity
  8
3
100
AcDbCircle
 10
185.2215785196609
 20
213.466976439693
 30
0.0
 40
11.76620581867562
100
AcDbArc
 50
200.7978855815923
 51
203.3944396225938
  0
ARC
  5
F69
330
1110
100
AcDbEntity
  8
3
100
AcDbCircle
 10
174.7311764968967
 20
208.9285827667752
 30
0.0
 40
0.3361773091050186
100
AcDbArc
 50
203.3944396225936
 51
270.0
  0
ARC
  5
F6A
330
1110
100
AcDbEntity
  8
3
100
AcDbCircle
 10
173.759460459716
 20
209.853070366814
 30
0.0
 40
0.6723546182100372
100
AcDbArc
 50
90.0
 51
197.4996095763042
  0
ARC
  5
F6B
330
1110
100
AcDbEntity
  8
3
100
AcDbCircle
 10
177.5618112728086
 20
208.2562281485651
 30
0.0
 40
0.6723546182100372
100
AcDbArc
 50
270.0
 51
334.30589115139
  0
LINE
  5
F6C
330
1110
100
AcDbEntity
  8
3
100
AcDbLine
 10
175.976702519273
 20
211.8701342214441
 30
0.0
 11
179.1522019161678
 21
210.8616022941291
 31
0.0
  0
ARC
  5
F6D
330
1110
100
AcDbEntity
  8
3
100
AcDbCircle
 10
178.19394457883
 20
209.853070366814
 30
0.0
 40
0.6723546182100372
100
AcDbArc
 50
342.5003904236963
 51
90.0
  0
ARC
  5
F6E
330
1110
100
AcDbEntity
  8
3
100
AcDbCircle
 10
166.7318265188851
 20
213.466976439693
 30
0.0
 40
12.69069341871442
100
AcDbArc
 50
334.30589115139
 51
342.5003904236959
  0
ARC
  5
F6F
330
1110
100
AcDbEntity
  8
3
100
AcDbCircle
 10
177.5741962243607
 20
209.3488044031564
 30
0.0
 40
0.1680886545525093
100
AcDbArc
 50
339.2021144184064
 51
90.0
  0
ARC
  5
F70
330
1110
100
AcDbEntity
  8
3
100
AcDbCircle
 10
166.7318265188851
 20
213.466976439693
 30
0.0
 40
11.76620581867562
100
AcDbArc
 50
336.6055603774061
 51
339.2021144184075
  0
ARC
  5
F71
330
1110
100
AcDbEntity
  8
3
100
AcDbCircle
 10
177.2222285416492
 20
208.9285827667752
 30
0.0
 40
0.3361773091050186
100
AcDbArc
 50
270.0
 51
336.6055603774058
  0
ARC
  5
F72
330
1110
100
AcDbEntity
  8
3
100
AcDbCircle
 10
166.7318265188851
 20
213.466976439693
 30
0.0
 40
12.69069341871442
100
AcDbArc
 50
348.1530549875378
 51
352.7531708690232
  0
ARC
  5
F73
330
1110
100
AcDbEntity
  8
3
100
AcDbCircle
 10
176.1447911738256
 20
219.0139020399258
 30
0.0
 40
0.5042659636575277
100
AcDbArc
 50
89.99999999999969
 51
180.0
  0
LINE
  5
F74
330
1110
100
AcDbEntity
  8
3
100
AcDbLine
 10
172.8012031223781
 20
216.0723505852569
 30
0.0
 11
179.1522019161678
 21
216.0723505852569
 31
0.0
  0
ARC
  5
F75
330
1110
100
AcDbEntity
  8
3
100
AcDbCircle
 10
175.4724365556156
 20
218.0053701126108
 30
0.0
 40
0.1680886545525093
100
AcDbArc
 50
270.0
 51
359.9999999999997
  0
LINE
  5
F76
330
1110
100
AcDbEntity
  8
3
100
AcDbLine
 10
173.7222382019409
 20
216.9968381852957
 30
0.0
 11
176.0607468465494
 21
216.9968381852957
 31
0.0
  0
LINE
  5
F77
330
1110
100
AcDbEntity
  8
3
100
AcDbLine
 10
172.5409075876599
 20
213.9712424033505
 30
0.0
 11
179.4124974508863
 21
213.9712424033505
 31
0.0
  0
LINE
  5
F78
330
1110
100
AcDbEntity
  8
3
100
AcDbLine
 10
172.6264908246276
 20
215.0217964943036
 30
0.0
 11
179.3269142139185
 21
215.0217964943036
 31
0.0
  0
ARC
  5
F79
330
1110
100
AcDbEntity
  8
3
100
AcDbCircle
 10
173.7222382019409
 20
217.5011041489531
 30
0.0
 40
0.5042659636575277
100
AcDbArc
 50
160.6684235941325
 51
270.0
  0
LINE
  5
F7A
330
1110
100
AcDbEntity
  8
3
100
AcDbLine
 10
172.5409075876599
 20
212.9627104760354
 30
0.0
 11
175.5564808828918
 21
212.9627104760354
 31
0.0
  0
ARC
  5
F7B
330
1110
100
AcDbEntity
  8
3
100
AcDbCircle
 10
185.2215785196609
 20
213.466976439693
 30
0.0
 40
12.69069341871442
100
AcDbArc
 50
177.7227469902971
 51
182.2772530097029
  0
LINE
  5
F7C
330
1110
100
AcDbEntity
  8
3
100
AcDbLine
 10
175.5564808828918
 20
212.9627104760354
 30
0.0
 11
175.5564808828918
 21
212.7948473774637
 31
0.0
  0
ARC
  5
F7D
330
1110
100
AcDbEntity
  8
3
100
AcDbCircle
 10
185.2215785196609
 20
213.466976439693
 30
0.0
 40
12.69069341871442
100
AcDbArc
 50
168.1530549875377
 51
172.9626374511518
  0
ARC
  5
F7E
330
1110
100
AcDbEntity
  8
3
100
AcDbCircle
 10
185.2215785196609
 20
213.466976439693
 30
0.0
 40
12.69069341871442
100
AcDbArc
 50
151.5220059637752
 51
160.6684235941317
  0
ARC
  5
F7F
330
1110
100
AcDbEntity
  8
3
100
AcDbCircle
 10
185.2215785196609
 20
213.466976439693
 30
0.0
 40
11.85025014595187
100
AcDbArc
 50
149.2936441998581
 51
157.1394738354502
  0
LINE
  5
F80
330
1110
100
AcDbEntity
  8
3
100
AcDbLine
 10
174.066455028417
 20
219.5181680035833
 30
0.0
 11
175.0327852064794
 21
219.5181680035833
 31
0.0
  0
ARC
  5
F81
330
1110
100
AcDbEntity
  8
3
100
AcDbCircle
 10
174.4570125748235
 20
218.0053701126108
 30
0.0
 40
0.1680886545525093
100
AcDbArc
 50
157.1394738354506
 51
270.0
  0
LINE
  5
F82
330
1110
100
AcDbEntity
  8
3
100
AcDbLine
 10
174.4570125748235
 20
217.8372814580582
 30
0.0
 11
175.4724365556156
 21
217.8372814580582
 31
0.0
  0
ARC
  5
F83
330
1110
100
AcDbEntity
  8
3
100
AcDbCircle
 10
166.7318265188851
 20
213.466976439693
 30
0.0
 40
12.69069341871442
100
AcDbArc
 50
16.1495651407125
 51
27.07602818326113
  0
ARC
  5
F84
330
1110
100
AcDbEntity
  8
3
100
AcDbCircle
 10
166.7318265188851
 20
213.466976439693
 30
0.0
 40
11.85025014595187
100
AcDbArc
 50
17.32985568389543
 51
25.57261596800667
  0
ARC
  5
F85
330
1110
100
AcDbEntity
  8
3
100
AcDbCircle
 10
176.0607468465494
 20
217.5011041489531
 30
0.0
 40
0.5042659636575277
100
AcDbArc
 50
270.0
 51
0.0
  0
LINE
  5
F86
330
1110
100
AcDbEntity
  8
3
100
AcDbLine
 10
176.3969241556542
 20
212.9627104760354
 30
0.0
 11
179.4124974508863
 21
212.9627104760354
 31
0.0
  0
LINE
  5
F87
330
1110
100
AcDbEntity
  8
3
100
AcDbLine
 10
178.0441430181068
 20
216.9968381852956
 30
0.0
 11
178.9217311741615
 21
216.9968381852956
 31
0.0
  0
LINE
  5
F88
330
1110
100
AcDbEntity
  8
3
100
AcDbLine
 10
176.3969241556542
 20
212.9627104760354
 30
0.0
 11
176.3969241556542
 21
212.7948473774637
 31
0.0
  0
ARC
  5
F89
330
1110
100
AcDbEntity
  8
3
100
AcDbCircle
 10
166.7318265188851
 20
213.466976439693
 30
0.0
 40
12.69069341871442
100
AcDbArc
 50
357.7227469902971
 51
2.277253009702842
  0
ARC
  5
F8A
330
1110
100
AcDbEntity
  8
3
100
AcDbCircle
 10
166.7318265188851
 20
213.466976439693
 30
0.0
 40
12.69069341871442
100
AcDbArc
 50
7.037362548848178
 51
11.84694501246219
  0
LINE
  5
F8B
330
1110
100
AcDbEntity
  8
3
100
AcDbLine
 10
175.640525210168
 20
219.0139020399258
 30
0.0
 11
175.640525210168
 21
218.0053701126108
 31
0.0
  0
ARC
  5
F8C
330
1110
100
AcDbEntity
  8
3
100
AcDbCircle
 10
176.7331014647593
 20
218.5096360762682
 30
0.0
 40
0.1680886545525093
100
AcDbArc
 50
89.99999999999934
 51
180.0
  0
ARC
  5
F8D
330
1110
100
AcDbEntity
  8
3
100
AcDbCircle
 10
177.2695910304305
 20
218.5096360762682
 30
0.0
 40
0.1680886545525093
100
AcDbArc
 50
25.57261596800529
 51
90.0
  0
LINE
  5
F8E
330
1110
100
AcDbEntity
  8
3
100
AcDbLine
 10
176.7331014647593
 20
218.6777247308208
 30
0.0
 11
177.2695910304305
 21
218.6777247308207
 31
0.0
  0
LINE
  5
F8F
330
1110
100
AcDbEntity
  8
3
100
AcDbLine
 10
176.1447911738256
 20
219.5181680035833
 30
0.0
 11
177.5826619937619
 21
219.5181680035833
 31
0.0
  0
ARC
  5
F90
330
1110
100
AcDbEntity
  8
3
100
AcDbCircle
 10
177.5826619937619
 20
219.0139020399258
 30
0.0
 40
0.5042659636575277
100
AcDbArc
 50
27.07602818326052
 51
90.00000000000055
  0
LINE
  5
F91
330
1110
100
AcDbEntity
  8
3
100
AcDbLine
 10
176.5650128102068
 20
218.5096360762682
 30
0.0
 11
176.5650128102068
 21
217.5011041489531
 31
0.0
  0
ARC
  5
F92
330
1110
100
AcDbEntity
  8
0
100
AcDbCircle
 10
172.2744861554603
 20
224.4669764396928
 30
0.0
 40
0.5
100
AcDbArc
 50
90.0
 51
180.0
  0
ARC
  5
F93
330
1110
100
AcDbEntity
  8
0
100
AcDbCircle
 10
179.7317197425334
 20
224.4669764396928
 30
0.0
 40
0.5
100
AcDbArc
 50
0.0
 51
90.00000000000019
  0
ARC
  5
F94
330
1110
100
AcDbEntity
  8
0
100
AcDbCircle
 10
179.7317197425334
 20
202.4669764396929
 30
0.0
 40
0.5
100
AcDbArc
 50
270.0
 51
0.0
  0
ARC
  5
F95
330
1110
100
AcDbEntity
  8
0
100
AcDbCircle
 10
172.2744861554603
 20
202.4669764396929
 30
0.0
 40
0.5
100
AcDbArc
 50
180.0
 51
270.0
  0
INSERT
  5
102F
330
1110
100
AcDbEntity
  8
0
100
AcDbBlockReference
  2
STDGX5
 10
0.0
 20
0.0
 30
0.0
  0
INSERT
  5
1030
330
1110
100
AcDbEntity
  8
0
100
AcDbBlockReference
  2
STDGX5
 10
0.0
 20
0.0
 30
0.0
  0
INSERT
  5
1031
330
1110
100
AcDbEntity
  8
0
100
AcDbBlockReference
  2
STDGX5
 10
275.0
 20
0.0
 30
0.0
  0
INSERT
  5
1032
330
1110
100
AcDbEntity
  8
0
100
AcDbBlockReference
  2
STDGX5
 10
275.0
 20
0.0
 30
0.0
  0
TEXT
  5
1247
330
1110
100
AcDbEntity
  8
0
100
AcDbText
 10
117.7045638421998
 20
153.8322204278057
 30
0.0
 40
6.0
  1
3
 41
0.7
100
AcDbText
  0
ENDSEC
  0
SECTION
  2
OBJECTS
  0
DICTIONARY
  5
10FE
330
0
100
AcDbDictionary
281
     1
  3
ACAD_GROUP
350
10FF
  3
ACAD_LAYOUT
350
110B
  3
ACAD_MLINESTYLE
350
1108
  3
ACAD_PLOTSETTINGS
350
110A
  3
ACAD_PLOTSTYLENAME
350
1100
  3
AcDbVariableDictionary
350
1137
  3
AcmDictionary
350
1200
  3
AMG
350
1146
  3
AMGSNAPSETTINGS
350
123E
  3
DWGPROPS
350
1203
  3
MAPISURF_MODULE
350
11D2
  3
Simple$CDFRecord
350
112B
  3
Simple$Histroy
350
1129
  3
Simple$System
350
112A
  0
DICTIONARY
  5
1248
330
1110
100
AcDbDictionary
280
     1
281
     1
  3
ACAD_INDEX
360
1249
  0
DICTIONARY
  5
10FF
102
{ACAD_REACTORS
330
10FE
102
}
330
10FE
100
AcDbDictionary
281
     1
  0
DICTIONARY
  5
110B
102
{ACAD_REACTORS
330
10FE
102
}
330
10FE
100
AcDbDictionary
281
     1
  3
Model
350
1113
  3
ﾚｲｱｳﾄ1
350
110F
  0
DICTIONARY
  5
1108
102
{ACAD_REACTORS
330
10FE
102
}
330
10FE
100
AcDbDictionary
281
     1
  3
Standard
350
1109
  0
DICTIONARY
  5
110A
102
{ACAD_REACTORS
330
10FE
102
}
330
10FE
100
AcDbDictionary
281
     1
  0
ACDBDICTIONARYWDFLT
  5
1100
102
{ACAD_REACTORS
330
10FE
102
}
330
10FE
100
AcDbDictionary
281
     1
  3
Normal
350
1101
100
AcDbDictionaryWithDefault
340
1101
  0
DICTIONARY
  5
1137
102
{ACAD_REACTORS
330
10FE
102
}
330
10FE
100
AcDbDictionary
281
     1
  3
DIMASSOC
350
1138
  3
INDEXCTL
350
1251
  0
DICTIONARY
  5
1200
102
{ACAD_REACTORS
330
10FE
102
}
330
10FE
100
AcDbDictionary
281
     1
  3
AcmBOMDATA
350
1201
  3
AcmStdDictionary
350
120F
  0
DICTIONARY
  5
1146
102
{ACAD_REACTORS
330
10FE
102
}
330
10FE
100
AcDbDictionary
281
     1
  3
AcMgSettings
350
1147
  3
AMGLAYCFG
350
1211
  0
DICTIONARY
  5
123E
102
{ACAD_REACTORS
330
10FE
102
}
330
10FE
100
AcDbDictionary
281
     1
  3
DIMENSION
350
1243
  3
FEA
350
1242
  3
HATCH (1)
350
123F
  3
HATCH (2)
350
1240
  3
SIMPLE WELD
350
1244
  3
SYMBOLS
350
1241
  0
XRECORD
  5
1203
102
{ACAD_REACTORS
330
10FE
102
}
330
10FE
100
AcDbXrecord
280
     1
  1
DWGPROPS COOKIE
  2

  3

  4

  6

  7

  8

  9

300
AmdtFileType=84
301
=
302
=
303
=
304
=
305
=
306
=
307
=
308
=
309
=
 40
0.1166303125
 41
2449954.602013888
 42
2453220.79424677
  1

 90
        1
  0
XRECORD
  5
112B
102
{ACAD_REACTORS
330
10FE
102
}
330
10FE
100
AcDbXrecord
280
     1
  1

  0
XRECORD
  5
1129
102
{ACAD_REACTORS
330
10FE
102
}
330
10FE
100
AcDbXrecord
280
     1
  1
2003年01月09日　20:42^J^J^J
  0
XRECORD
  5
112A
102
{ACAD_REACTORS
330
10FE
102
}
330
10FE
100
AcDbXrecord
280
     1
  1
"14Q1FY",0,0,"1.25","0",0,0,0,1,"","",0,0,0,0,"",20,0,0,0,"\x81\x41\x81\x42\x81\x43\x81\x44\x81\x48\x81\x49\x81\x6A\x81\x6C\x81\x6E\x81\x70\x81\x72\x81\x74\x81\x76\x81\x78\x81\x7A\x29\x5D\x7D\xA3\xA4\xA1","\x81\x69\x81\x6B\x81\x6D\x81\x6F\x81\x71\x81\x73\x81\x75\x81\x77\x81\x79\x28\x5B\xA2\x7B","\x81\x69\x28\x81\x6A\x29\x81\x6D\x5B\x81\x6E\x5D\x81\x6F\x7B\x81\x70\x7D\x81\x75\xA2\x81\x76\xA3\x81\x41\xA4\x81\x42\xA1\x81\x43\x2C\x81\x44\x2E\x81\x45\xA5"
  2
50,"0",0,1,0
  3
|><@~^ %$~
  4
0,"0","0"
  6
0,0,0,0,0,"0",0
  8
0,""
 38
1.0
  0
DICTIONARY
  5
1249
102
{ACAD_REACTORS
330
1248
102
}
330
1248
100
AcDbDictionary
281
     1
  3
*A1
350
124A
  0
LAYOUT
  5
1113
102
{ACAD_REACTORS
330
110B
102
}
330
110B
100
AcDbPlotSettings
  1

  2
Canon LASER SHOT LBP-1510
  4

  6

 40
0.0
 41
0.0
 42
0.0
 43
0.0
 44
0.0
 45
0.0
 46
0.0
 47
0.0
 48
0.0
 49
0.0
140
0.0
141
0.0
142
1.0
143
1.0
 70
  1712
 72
     0
 73
     0
 74
     0
  7

 75
     0
147
1.0
148
0.0
149
0.0
100
AcDbLayout
  1
Model
 70
     1
 71
     0
 10
0.0
 20
0.0
 11
12.0
 21
9.0
 12
0.0
 22
0.0
 32
0.0
 14
0.0
 24
0.0
 34
0.0
 15
0.0
 25
0.0
 35
0.0
146
0.0
 13
0.0
 23
0.0
 33
0.0
 16
1.0
 26
0.0
 36
0.0
 17
0.0
 27
1.0
 37
0.0
 76
     0
330
1110
  0
LAYOUT
  5
110F
102
{ACAD_REACTORS
330
110B
102
}
330
110B
100
AcDbPlotSettings
  1

  2
Canon LASER SHOT LBP-1510
  4

  6

 40
0.0
 41
0.0
 42
0.0
 43
0.0
 44
0.0
 45
0.0
 46
0.0
 47
0.0
 48
0.0
 49
0.0
140
0.0
141
0.0
142
1.0
143
1.0
 70
   688
 72
     0
 73
     0
 74
     5
  7

 75
    16
147
1.0
148
0.0
149
0.0
100
AcDbLayout
  1
ﾚｲｱｳﾄ1
 70
     0
 71
     1
 10
0.0
 20
0.0
 11
12.0
 21
9.0
 12
0.0
 22
0.0
 32
0.0
 14
1.000000000000000E+20
 24
1.000000000000000E+20
 34
1.000000000000000E+20
 15
-1.000000000000000E+20
 25
-1.000000000000000E+20
 35
-1.000000000000000E+20
146
0.0
 13
0.0
 23
0.0
 33
0.0
 16
1.0
 26
0.0
 36
0.0
 17
0.0
 27
1.0
 37
0.0
 76
     0
330
110C
  0
MLINESTYLE
  5
1109
102
{ACAD_REACTORS
330
1108
102
}
330
1108
100
AcDbMlineStyle
  2
STANDARD
 70
     0
  3

 62
   256
 51
90.0
 52
90.0
 71
     2
 49
0.5
 62
   256
  6
BYLAYER
 49
-0.5
 62
   256
  6
BYLAYER
  0
ACDBPLACEHOLDER
  5
1101
102
{ACAD_REACTORS
330
1100
102
}
330
1100
  0
DICTIONARYVAR
  5
1138
102
{ACAD_REACTORS
330
1137
102
}
330
1137
100
DictionaryVariables
280
     0
  1
0
  0
DICTIONARYVAR
  5
1251
102
{ACAD_REACTORS
330
1137
102
}
330
1137
100
DictionaryVariables
280
     0
  1
1
  0
ACMDATADICTIONARY
  5
1201
102
{ACAD_REACTORS
330
1200
102
}
330
1200
100
AcDbDictionary
281
     1
  3
*A1
350
1202
100
AcmDataDictionary
  0
DICTIONARY
  5
120F
102
{ACAD_REACTORS
330
1200
102
}
330
1200
100
AcDbDictionary
281
     1
  3
ANSI
350
1210
  0
DICTIONARY
  5
1147
102
{ACAD_REACTORS
330
1146
102
}
330
1146
100
AcDbDictionary
281
     1
  3
DWGSETTINGS
350
1148
  3
TRANSSETTINGS
350
114C
  0
ACAMGFILTERDAT
  5
1243
102
{ACAD_REACTORS
330
123E
102
}
330
123E
100
AcAmgFilterDat
 70
    15
  1
DIMENSION,AMDT_*_DIM
  2
*
  3
*
  4
*
  5
*
290
     1
  0
ACAMGFILTERDAT
  5
1242
102
{ACAD_REACTORS
330
123E
102
}
330
123E
100
AcAmgFilterDat
 70
    15
  1
*
  2
AM_FEA-AM_*
  3
*
  4
*
  5
*
290
     1
  0
ACAMGFILTERDAT
  5
123F
102
{ACAD_REACTORS
330
123E
102
}
330
123E
100
AcAmgFilterDat
 70
    15
  1
HATCH
  2
*
  3
*
  4
*
  5
*
290
     1
  0
ACAMGFILTERDAT
  5
1240
102
{ACAD_REACTORS
330
123E
102
}
330
123E
100
AcAmgFilterDat
 70
    15
  1
LINE
  2
8,8N,*-8,*-8N,AM_8,AM_8N,*-AM_8,*-AM_8N
  3
*
  4
*
  5
INSERT,STDPART2D
290
     1
  0
ACAMGFILTERDAT
  5
1244
102
{ACAD_REACTORS
330
123E
102
}
330
123E
100
AcAmgFilterDat
 70
    15
  1
ARC
  2
AM_5
  3
*
  4
2
  5
INSERT
290
     0
  0
ACAMGFILTERDAT
  5
1241
102
{ACAD_REACTORS
330
123E
102
}
330
123E
100
AcAmgFilterDat
 70
    15
  1
ACMFCFRAME,ACMDATUMTARGET,ACMDATUMID,ACMWELDSYM,ACMSURFSYM,ACMFEATID,ACMPARTREF,ACMBALLOON,AMDTEDGESYM,AMGSCREWCALCTABLE
  2
*
  3
*
  4
*
  5
*
290
     1
  0
LAYER_INDEX
  5
124A
102
{ACAD_REACTORS
330
1249
102
}
330
1249
100
AcDbIndex
 40
2454537.363213426
100
AcDbLayerIndex
  8
0
360
124B
 90
      172
  8
1
360
124C
 90
       12
  8
3
360
124D
 90
      122
  8
2
360
124E
 90
       16
  8
5
360
124F
 90
        9
  0
ACMDATAENTRYBLOCK
  5
1202
102
{ACAD_REACTORS
330
1201
102
}
330
1201
100
AcmDataEntry
100
AcmDataEntryBlock
  0
IDBUFFER
  5
124B
330
0
100
AcDbIdBuffer
330
E7C
330
E7D
330
E7E
330
E7F
330
E80
330
EAA
330
ECC
330
ED7
330
EE2
330
EE3
330
EE4
330
EE5
330
EE6
330
EE7
330
EE8
330
EE9
330
EF0
330
EF1
330
EF2
330
EF3
330
EF4
330
EF5
330
EF6
330
EF7
330
EF8
330
EF9
330
EFA
330
EFB
330
EFC
330
EFD
330
EFE
330
F00
330
F01
330
F02
330
F03
330
F04
330
F05
330
F06
330
F07
330
F08
330
F09
330
F0A
330
F0B
330
F49
330
F4A
330
F4B
330
F4C
330
F4D
330
F4E
330
F4F
330
F50
330
F92
330
F93
330
F94
330
F95
330
102F
330
1030
330
1031
330
1032
330
1247
330
38A
330
38B
330
38C
330
38D
330
452
330
453
330
454
330
455
330
7B1
330
7B2
330
7B3
330
7B4
330
BB4
330
BB5
330
BB6
330
BB7
330
DC4
330
DCF
330
DD0
330
DD1
330
DD2
330
DD3
330
DD4
330
DD5
330
DD6
330
DD7
330
DFC
330
DFD
330
DFE
330
E05
330
E06
330
E07
330
E08
330
E0F
330
E16
330
E17
330
E18
330
E19
330
E1A
330
E1B
330
E1C
330
E1D
330
E20
330
E21
330
E22
330
E23
330
E24
330
E25
330
E26
330
E27
330
E28
330
E29
330
E2A
330
E2B
330
E2D
330
E2E
330
E2F
330
E30
330
E31
330
E32
330
E3A
330
E40
330
E41
330
E42
330
E44
330
E46
330
E47
330
E48
330
E49
330
E4A
330
E4B
330
E4C
330
E4D
330
E4F
330
E52
330
E53
330
E54
330
E56
330
E57
330
E58
330
E59
330
E5A
330
E5B
330
E5C
330
E5D
330
E5E
330
E5F
330
E60
330
E61
330
E62
330
E63
330
E64
330
E65
330
E66
330
E69
330
E6A
330
E6B
330
E6C
330
E6D
330
E6E
330
E6F
330
E70
330
E71
330
E72
330
E73
330
E74
330
E76
330
E77
330
E78
330
E79
330
E7A
330
E7B
  0
IDBUFFER
  5
124C
330
0
100
AcDbIdBuffer
330
DC3
330
DFB
330
E1E
330
E1F
330
E2C
330
E4E
330
E55
330
E67
330
E68
330
E75
330
E81
330
EEA
  0
IDBUFFER
  5
124D
330
0
100
AcDbIdBuffer
330
F88
330
F89
330
F8A
330
F8B
330
F8C
330
F8D
330
F8E
330
F8F
330
F90
330
F91
330
DE9
330
E3B
330
E3D
330
E3E
330
E3F
330
E88
330
F0C
330
F0D
330
F0E
330
F0F
330
F10
330
F11
330
F12
330
F13
330
F14
330
F15
330
F16
330
F17
330
F18
330
F19
330
F1A
330
F1B
330
F1C
330
F1D
330
F1E
330
F1F
330
F20
330
F21
330
F22
330
F23
330
F24
330
F25
330
F26
330
F27
330
F28
330
F29
330
F2A
330
F2B
330
F2C
330
F2D
330
F2E
330
F2F
330
F30
330
F31
330
F32
330
F33
330
F34
330
F35
330
F36
330
F37
330
F38
330
F39
330
F3A
330
F3B
330
F3C
330
F3D
330
F3E
330
F3F
330
F40
330
F41
330
F42
330
F43
330
F44
330
F45
330
F46
330
F47
330
F48
330
F51
330
F52
330
F53
330
F59
330
F5F
330
F60
330
F61
330
F62
330
F63
330
F64
330
F65
330
F66
330
F67
330
F68
330
F69
330
F6A
330
F6B
330
F6C
330
F6D
330
F6E
330
F6F
330
F70
330
F71
330
F72
330
F73
330
F74
330
F75
330
F76
330
F77
330
F78
330
F79
330
F7A
330
F7B
330
F7C
330
F7D
330
F7E
330
F7F
330
F80
330
F81
330
F82
330
F83
330
F84
330
F85
330
F86
330
F87
  0
IDBUFFER
  5
124E
330
0
100
AcDbIdBuffer
330
DC1
330
DC2
330
E33
330
E34
330
E35
330
E36
330
E37
330
E38
330
E39
330
E3C
330
E43
330
E45
330
E50
330
E51
330
EEE
330
EEF
  0
IDBUFFER
  5
124F
330
0
100
AcDbIdBuffer
330
E82
330
E83
330
E84
330
E85
330
E86
330
E87
330
EEB
330
EEC
330
EED
  0
ENDSEC
  0
EOF
