  0
SECTION
  2
HEADER
  9
$ACADVER
  1
AC1014
  9
$ACADMAINTVER
 70
     0
  9
$DWGCODEPAGE
  3
ANSI_932
  9
$INSBASE
 10
0.0
 20
0.0
 30
0.0
  9
$EXTMIN
 10
25.5
 20
106.5
 30
0.0
  9
$EXTMAX
 10
598.381393
 20
376.0
 30
0.0
  9
$LIMMIN
 10
0.0
 20
0.0
  9
$LIMMAX
 10
680.0
 20
470.0
  9
$ORTHOMODE
 70
     0
  9
$REGENMODE
 70
     1
  9
$FILLMODE
 70
     1
  9
$QTEXTMODE
 70
     0
  9
$MIRRTEXT
 70
     1
  9
$DRAGMODE
 70
     1
  9
$LTSCALE
 40
30.0
  9
$OSMODE
 70
    32
  9
$ATTMODE
 70
     1
  9
$TEXTSIZE
 40
2.5
  9
$TRACEWID
 40
0.05
  9
$TEXTSTYLE
  7
BIGFONT
  9
$CLAYER
  8
0
  9
$CELTYPE
  6
BYLAYER
  9
$CECOLOR
 62
   256
  9
$CELTSCALE
 40
1.0
  9
$DELOBJ
 70
     1
  9
$DISPSILH
 70
     0
  9
$DIMSCALE
 40
3.0
  9
$DIMASZ
 40
3.0
  9
$DIMEXO
 40
2.0
  9
$DIMDLI
 40
0.38
  9
$DIMRND
 40
0.0
  9
$DIMDLE
 40
0.0
  9
$DIMEXE
 40
2.0
  9
$DIMTP
 40
0.0
  9
$DIMTM
 40
0.0
  9
$DIMTXT
 40
3.2
  9
$DIMCEN
 40
0.09
  9
$DIMTSZ
 40
0.0
  9
$DIMTOL
 70
     0
  9
$DIMLIM
 70
     0
  9
$DIMTIH
 70
     0
  9
$DIMTOH
 70
     0
  9
$DIMSE1
 70
     0
  9
$DIMSE2
 70
     0
  9
$DIMTAD
 70
     1
  9
$DIMZIN
 70
     0
  9
$DIMBLK
  1

  9
$DIMASO
 70
     0
  9
$DIMSHO
 70
     0
  9
$DIMPOST
  1

  9
$DIMAPOST
  1

  9
$DIMALT
 70
     0
  9
$DIMALTD
 70
     2
  9
$DIMALTF
 40
25.4
  9
$DIMLFAC
 40
1.0
  9
$DIMTOFL
 70
     0
  9
$DIMTVP
 40
1.6
  9
$DIMTIX
 70
     1
  9
$DIMSOXD
 70
     0
  9
$DIMSAH
 70
     0
  9
$DIMBLK1
  1

  9
$DIMBLK2
  1

  9
$DIMSTYLE
  2
STANDARD
  9
$DIMCLRD
 70
     0
  9
$DIMCLRE
 70
     0
  9
$DIMCLRT
 70
     0
  9
$DIMTFAC
 40
1.0
  9
$DIMGAP
 40
0.09
  9
$DIMJUST
 70
     0
  9
$DIMSD1
 70
     0
  9
$DIMSD2
 70
     0
  9
$DIMTOLJ
 70
     1
  9
$DIMTZIN
 70
     0
  9
$DIMALTZ
 70
     0
  9
$DIMALTTZ
 70
     0
  9
$DIMFIT
 70
     5
  9
$DIMUPT
 70
     0
  9
$DIMUNIT
 70
     2
  9
$DIMDEC
 70
     4
  9
$DIMTDEC
 70
     4
  9
$DIMALTU
 70
     2
  9
$DIMALTTD
 70
     2
  9
$DIMTXSTY
  7
BIGFONT
  9
$DIMAUNIT
 70
     0
  9
$LUNITS
 70
     2
  9
$LUPREC
 70
     4
  9
$SKETCHINC
 40
0.1
  9
$FILLETRAD
 40
1.0
  9
$AUNITS
 70
     0
  9
$AUPREC
 70
     0
  9
$MENU
  1
ACAD
  9
$ELEVATION
 40
0.0
  9
$PELEVATION
 40
0.0
  9
$THICKNESS
 40
0.0
  9
$LIMCHECK
 70
     0
  9
$BLIPMODE
 70
     0
  9
$CHAMFERA
 40
0.0
  9
$CHAMFERB
 40
0.0
  9
$CHAMFERC
 40
0.0
  9
$CHAMFERD
 40
0.0
  9
$SKPOLY
 70
     0
  9
$TDCREATE
 40
2450870.983301504
  9
$TDUPDATE
 40
2453550.788855787
  9
$TDINDWG
 40
0.0005439815
  9
$TDUSRTIMER
 40
0.0005439815
  9
$USRTIMER
 70
     1
  9
$ANGBASE
 50
0.0
  9
$ANGDIR
 70
     0
  9
$PDMODE
 70
     0
  9
$PDSIZE
 40
0.0
  9
$PLINEWID
 40
0.0
  9
$COORDS
 70
     2
  9
$SPLFRAME
 70
     0
  9
$SPLINETYPE
 70
     6
  9
$SPLINESEGS
 70
     8
  9
$ATTDIA
 70
     0
  9
$ATTREQ
 70
     1
  9
$HANDLING
 70
     1
  9
$HANDSEED
  5
28A
  9
$SURFTAB1
 70
     6
  9
$SURFTAB2
 70
     6
  9
$SURFTYPE
 70
     6
  9
$SURFU
 70
     6
  9
$SURFV
 70
     6
  9
$UCSNAME
  2

  9
$UCSORG
 10
0.0
 20
0.0
 30
0.0
  9
$UCSXDIR
 10
1.0
 20
0.0
 30
0.0
  9
$UCSYDIR
 10
0.0
 20
1.0
 30
0.0
  9
$PUCSNAME
  2

  9
$PUCSORG
 10
0.0
 20
0.0
 30
0.0
  9
$PUCSXDIR
 10
1.0
 20
0.0
 30
0.0
  9
$PUCSYDIR
 10
0.0
 20
1.0
 30
0.0
  9
$USERI1
 70
     0
  9
$USERI2
 70
     0
  9
$USERI3
 70
     0
  9
$USERI4
 70
     0
  9
$USERI5
 70
     0
  9
$USERR1
 40
0.0
  9
$USERR2
 40
0.0
  9
$USERR3
 40
0.0
  9
$USERR4
 40
0.0
  9
$USERR5
 40
0.0
  9
$WORLDVIEW
 70
     1
  9
$SHADEDGE
 70
     3
  9
$SHADEDIF
 70
    70
  9
$TILEMODE
 70
     1
  9
$MAXACTVP
 70
    16
  9
$PINSBASE
 10
0.0
 20
0.0
 30
0.0
  9
$PLIMCHECK
 70
     0
  9
$PEXTMIN
 10
1.000000E+20
 20
1.000000E+20
 30
1.000000E+20
  9
$PEXTMAX
 10
-1.000000E+20
 20
-1.000000E+20
 30
-1.000000E+20
  9
$PLIMMIN
 10
0.0
 20
0.0
  9
$PLIMMAX
 10
12.0
 20
9.0
  9
$UNITMODE
 70
     0
  9
$VISRETAIN
 70
     0
  9
$PLINEGEN
 70
     1
  9
$PSLTSCALE
 70
     0
  9
$TREEDEPTH
 70
  3020
  9
$PICKSTYLE
 70
     1
  9
$CMLSTYLE
  2
STANDARD
  9
$CMLJUST
 70
     0
  9
$CMLSCALE
 40
1.0
  9
$PROXYGRAPHICS
 70
     1
  9
$MEASUREMENT
 70
     0
  0
ENDSEC
  0
SECTION
  2
CLASSES
  0
CLASS
  1
DICTIONARYVAR
  2
AcDbDictionaryVar
  3
"AutoCAD"
 90
        0
280
     0
281
     0
  0
CLASS
  1
LWPOLYLINE
  2
AcDbPolyline
  3
"AutoCAD"
 90
        0
280
     0
281
     1
  0
ENDSEC
  0
SECTION
  2
TABLES
  0
TABLE
  2
VPORT
  5
259
100
AcDbSymbolTable
 70
     1
  0
VPORT
  5
285
100
AcDbSymbolTableRecord
100
AcDbViewportTableRecord
  2
*ACTIVE
 70
     0
 10
0.0
 20
0.0
 11
1.0
 21
1.0
 12
416.801181
 22
290.465072
 13
0.0
 23
0.0
 14
15.0
 24
15.0
 15
30.0
 25
30.0
 16
0.0
 26
0.0
 36
1.0
 17
0.0
 27
0.0
 37
0.0
 40
580.930144
 41
1.434944
 42
50.0
 43
0.0
 44
0.0
 50
0.0
 51
0.0
 71
     0
 72
   500
 73
     1
 74
     1
 75
     0
 76
     0
 77
     0
 78
     0
  0
ENDTAB
  0
TABLE
  2
LTYPE
  5
256
100
AcDbSymbolTable
 70
     3
  0
LTYPE
  5
262
100
AcDbSymbolTableRecord
100
AcDbLinetypeTableRecord
  2
BYBLOCK
 70
     0
  3

 72
    65
 73
     0
 40
0.0
  0
LTYPE
  5
263
100
AcDbSymbolTableRecord
100
AcDbLinetypeTableRecord
  2
BYLAYER
 70
     0
  3

 72
    65
 73
     0
 40
0.0
  0
LTYPE
  5
264
100
AcDbSymbolTableRecord
100
AcDbLinetypeTableRecord
  2
CONTINUOUS
 70
     0
  3
実線
 72
    65
 73
     0
 40
0.0
  0
LTYPE
  5
270
100
AcDbSymbolTableRecord
100
AcDbLinetypeTableRecord
  2
CENTER
 70
     0
  3
____ _ ____ _ ____ _ ____ _ ____ _ ____ _ ____
 72
    65
 73
     4
 40
2.0
 49
1.25
 74
     0
 49
-0.25
 74
     0
 49
0.25
 74
     0
 49
-0.25
 74
     0
  0
LTYPE
  5
271
100
AcDbSymbolTableRecord
100
AcDbLinetypeTableRecord
  2
HIDDEN
 70
     0
  3
_ _ _ _ _ _ _ _ _ _ _ _ _ _ _ _ _ _ _ _ _ _ _
 72
    65
 73
     2
 40
0.375
 49
0.25
 74
     0
 49
-0.125
 74
     0
  0
ENDTAB
  0
TABLE
  2
LAYER
  5
253
100
AcDbSymbolTable
 70
     6
  0
LAYER
  5
25F
100
AcDbSymbolTableRecord
100
AcDbLayerTableRecord
  2
0
 70
     0
 62
     7
  6
CONTINUOUS
  0
LAYER
  5
275
100
AcDbSymbolTableRecord
100
AcDbLayerTableRecord
  2
1
 70
     0
 62
     1
  6
CENTER
  0
LAYER
  5
276
100
AcDbSymbolTableRecord
100
AcDbLayerTableRecord
  2
3
 70
     0
 62
     3
  6
CONTINUOUS
  0
LAYER
  5
277
100
AcDbSymbolTableRecord
100
AcDbLayerTableRecord
  2
10
 70
     0
 62
     7
  6
CONTINUOUS
  0
LAYER
  5
278
100
AcDbSymbolTableRecord
100
AcDbLayerTableRecord
  2
11
 70
     0
 62
     3
  6
CONTINUOUS
  0
LAYER
  5
279
100
AcDbSymbolTableRecord
100
AcDbLayerTableRecord
  2
2
 70
     0
 62
     2
  6
HIDDEN
  0
ENDTAB
  0
TABLE
  2
STYLE
  5
254
100
AcDbSymbolTable
 70
     3
  0
STYLE
  5
260
100
AcDbSymbolTableRecord
100
AcDbTextStyleTableRecord
  2
STANDARD
 70
     0
 40
0.0
 41
1.0
 50
0.0
 71
     0
 42
0.2
  3
TXT
  4
BIGFONT
  0
STYLE
  5
26E
100
AcDbSymbolTableRecord
100
AcDbTextStyleTableRecord
  2
07500
 70
     0
 40
0.0
 41
0.75
 50
0.0
 71
     0
 42
0.2
  3
TXT
  4
BIGFONT
  0
STYLE
  5
26F
100
AcDbSymbolTableRecord
100
AcDbTextStyleTableRecord
  2
BIGFONT
 70
     0
 40
2.5
 41
1.0
 50
0.0
 71
     0
 42
2.5
  3
txt.shx
  4
bigfont
  0
ENDTAB
  0
TABLE
  2
VIEW
  5
257
100
AcDbSymbolTable
 70
     1
  0
VIEW
  5
272
100
AcDbSymbolTableRecord
100
AcDbViewTableRecord
  2
ALL
 70
     0
 40
810.0
 10
662.97479
 20
405.0
 41
0.0
 11
0.0
 21
0.0
 31
1.0
 12
0.0
 22
0.0
 32
0.0
 42
0.0
 43
0.0
 44
0.0
 50
0.0
 71
     0
  0
ENDTAB
  0
TABLE
  2
UCS
  5
258
100
AcDbSymbolTable
 70
     0
  0
ENDTAB
  0
TABLE
  2
APPID
  5
25A
100
AcDbSymbolTable
 70
     1
  0
APPID
  5
261
100
AcDbSymbolTableRecord
100
AcDbRegAppTableRecord
  2
ACAD
 70
     0
  0
ENDTAB
  0
TABLE
  2
DIMSTYLE
  5
25B
100
AcDbSymbolTable
 70
     1
  0
DIMSTYLE
105
274
100
AcDbSymbolTableRecord
100
AcDbDimStyleTableRecord
  2
STANDARD
 70
     0
  3

  4

  5

  6

  7

 40
1.0
 41
0.18
 42
0.0625
 43
0.38
 44
0.18
 45
0.0
 46
0.0
 47
0.0
 48
0.0
140
0.18
141
0.09
142
0.0
143
25.4
144
1.0
145
0.0
146
1.0
147
0.09
 71
     0
 72
     0
 73
     1
 74
     1
 75
     0
 76
     0
 77
     0
 78
     0
170
     0
171
     2
172
     0
173
     0
174
     0
175
     0
176
     0
177
     0
178
     0
270
     2
271
     4
272
     4
273
     2
274
     2
340
26F
275
     0
280
     0
281
     0
282
     0
283
     1
284
     0
285
     0
286
     0
287
     5
288
     0
  0
ENDTAB
  0
TABLE
  2
BLOCK_RECORD
  5
252
100
AcDbSymbolTable
 70
     1
  0
BLOCK_RECORD
  5
268
100
AcDbSymbolTableRecord
100
AcDbBlockTableRecord
  2
*MODEL_SPACE
  0
BLOCK_RECORD
  5
265
100
AcDbSymbolTableRecord
100
AcDbBlockTableRecord
  2
*PAPER_SPACE
  0
BLOCK_RECORD
  5
26D
100
AcDbSymbolTableRecord
100
AcDbBlockTableRecord
  2
OOO
  0
ENDTAB
  0
ENDSEC
  0
SECTION
  2
BLOCKS
  0
BLOCK
  5
27C
100
AcDbEntity
  8
0
100
AcDbBlockBegin
  2
*MODEL_SPACE
 70
     0
 10
0.0
 20
0.0
 30
0.0
  3
*MODEL_SPACE
  1

  0
ENDBLK
  5
27D
100
AcDbEntity
  8
0
100
AcDbBlockEnd
  0
BLOCK
  5
27A
100
AcDbEntity
 67
     1
  8
0
100
AcDbBlockBegin
  2
*PAPER_SPACE
 70
     0
 10
0.0
 20
0.0
 30
0.0
  3
*PAPER_SPACE
  1

  0
ENDBLK
  5
27B
100
AcDbEntity
 67
     1
  8
0
100
AcDbBlockEnd
  0
BLOCK
  5
35
100
AcDbEntity
  8
0
100
AcDbBlockBegin
  2
OOO
 70
     0
 10
375.0
 20
0.0
 30
0.0
  3
OOO
  1

  0
LINE
  5
36
100
AcDbEntity
  8
11
100
AcDbLine
 10
278.0
 20
12.0
 30
0.0
 11
375.0
 21
12.0
 31
0.0
  0
LINE
  5
37
100
AcDbEntity
  8
11
100
AcDbLine
 10
303.0
 20
0.0
 30
0.0
 11
303.0
 21
12.0
 31
0.0
  0
LINE
  5
38
100
AcDbEntity
  8
11
100
AcDbLine
 10
278.0
 20
36.0
 30
0.0
 11
278.0
 21
0.0
 31
0.0
  0
TEXT
  5
39
100
AcDbEntity
  8
11
100
AcDbText
 10
280.0
 20
8.5
 30
0.0
 40
2.5
  1
尺度
100
AcDbText
  0
TEXT
  5
3A
100
AcDbEntity
  8
11
100
AcDbText
 10
305.0
 20
8.5
 30
0.0
 40
2.5
  1
図番
100
AcDbText
  0
LINE
  5
3B
100
AcDbEntity
  8
11
100
AcDbLine
 10
278.0
 20
24.0
 30
0.0
 11
375.0
 21
24.0
 31
0.0
  0
LINE
  5
3C
100
AcDbEntity
  8
11
100
AcDbLine
 10
278.0
 20
36.0
 30
0.0
 11
375.0
 21
36.0
 31
0.0
  0
TEXT
  5
3D
100
AcDbEntity
  8
11
100
AcDbText
 10
280.0
 20
20.5
 30
0.0
 40
2.5
  1
品番
100
AcDbText
  0
TEXT
  5
3E
100
AcDbEntity
  8
11
100
AcDbText
 10
280.0
 20
32.5
 30
0.0
 40
2.5
  1
部品名称
100
AcDbText
  0
ENDBLK
  5
3F
100
AcDbEntity
  8
0
100
AcDbBlockEnd
  0
ENDSEC
  0
SECTION
  2
ENTITIES
  0
LINE
  5
40
100
AcDbEntity
  8
1
100
AcDbLine
 10
556.381393
 20
345.0
 30
0.0
 11
503.203399
 21
345.0
 31
0.0
  0
LINE
  5
41
100
AcDbEntity
  8
1
100
AcDbLine
 10
598.381393
 20
240.0
 30
0.0
 11
506.381393
 21
240.0
 31
0.0
  0
LINE
  5
42
100
AcDbEntity
  8
2
100
AcDbLine
 10
528.381393
 20
202.15
 30
0.0
 11
548.981393
 21
202.15
 31
0.0
  0
LINE
  5
43
100
AcDbEntity
  8
2
100
AcDbLine
 10
528.381393
 20
283.0
 30
0.0
 11
528.381393
 21
277.85
 31
0.0
  0
LINE
  5
45
100
AcDbEntity
  8
2
100
AcDbLine
 10
552.381393
 20
269.500004
 30
0.0
 11
552.381393
 21
210.5
 31
0.0
  0
ARC
  5
46
100
AcDbEntity
  8
2
100
AcDbCircle
 10
549.381393
 20
210.5
 30
0.0
 40
3.0
100
AcDbArc
 50
270.0
 51
0.0
  0
ARC
  5
48
100
AcDbEntity
  8
2
100
AcDbCircle
 10
529.381393
 20
197.0
 30
0.0
 40
1.0
100
AcDbArc
 50
180.0
 51
248.466
  0
ARC
  5
49
100
AcDbEntity
  8
2
100
AcDbCircle
 10
528.280231
 20
194.209401
 30
0.0
 40
2.0
100
AcDbArc
 50
356.987103
 51
68.465973
  0
ARC
  5
4A
100
AcDbEntity
  8
2
100
AcDbCircle
 10
528.280231
 20
285.790599
 30
0.0
 40
2.0
100
AcDbArc
 50
291.534027
 51
3.012897
  0
ARC
  5
4B
100
AcDbEntity
  8
2
100
AcDbCircle
 10
529.381393
 20
283.0
 30
0.0
 40
1.0
100
AcDbArc
 50
111.534
 51
180.0
  0
ARC
  5
4C
100
AcDbEntity
  8
2
100
AcDbCircle
 10
549.381393
 20
269.5
 30
0.0
 40
3.0
100
AcDbArc
 50
0.0
 51
90.0
  0
LINE
  5
4D
100
AcDbEntity
  8
2
100
AcDbLine
 10
528.381393
 20
277.85
 30
0.0
 11
548.981393
 21
277.85
 31
0.0
  0
LINE
  5
4F
100
AcDbEntity
  8
1
100
AcDbLine
 10
538.381393
 20
252.5
 30
0.0
 11
538.381393
 21
227.5
 31
0.0
  0
LWPOLYLINE
  5
50
100
AcDbEntity
  8
2
100
AcDbPolyline
 90
       16
 70
     1
 43
0.0
 10
535.994627
 20
240.0
 42
0.111998
 10
536.170606
 20
239.224217
 42
0.103098
 10
536.693695
 20
238.53841
 42
0.092589
 10
537.525081
 20
238.052322
 42
0.10335
 10
538.381393
 20
237.933
 42
0.086319
 10
539.309819
 20
238.094484
 42
0.092589
 10
540.069092
 20
238.53841
 42
0.103098
 10
540.59218
 20
239.224217
 42
0.111998
 10
540.768159
 20
240.0
 42
0.111998
 10
540.59218
 20
240.775783
 42
0.103098
 10
540.069092
 20
241.46159
 42
0.092589
 10
539.309819
 20
241.905516
 42
0.086319
 10
538.381393
 20
242.067
 42
0.086319
 10
537.452968
 20
241.905516
 42
0.092589
 10
536.693695
 20
241.46159
 42
0.103098
 10
536.170606
 20
240.775783
 42
0.111998
  0
LWPOLYLINE
  5
62
100
AcDbEntity
  8
2
100
AcDbPolyline
 90
       16
 70
     1
 43
0.0
 10
538.381393
 20
242.5
 42
0.086319
 10
537.258479
 20
242.304688
 42
0.092589
 10
536.340152
 20
241.767767
 42
0.103098
 10
535.657292
 20
240.872489
 42
0.131666
 10
535.494642
 20
240.0
 42
0.111998
 10
535.707485
 20
239.061704
 42
0.103098
 10
536.340152
 20
238.232233
 42
0.092589
 10
537.258479
 20
237.695312
 42
0.086319
 10
538.381393
 20
237.5
 42
0.086319
 10
539.504307
 20
237.695312
 42
0.092589
 10
540.422635
 20
238.232233
 42
0.103098
 10
541.055301
 20
239.061704
 42
0.111998
 10
541.268144
 20
240.0
 42
0.111998
 10
541.055301
 20
240.938296
 42
0.103098
 10
540.422635
 20
241.767767
 42
0.092589
 10
539.504307
 20
242.304688
 42
0.086319
  0
LINE
  5
74
100
AcDbEntity
  8
2
100
AcDbLine
 10
528.381393
 20
202.15
 30
0.0
 11
528.381393
 21
197.0
 31
0.0
  0
LINE
  5
9B
100
AcDbEntity
  8
2
100
AcDbLine
 10
142.232653
 20
242.5
 30
0.0
 11
136.07108
 21
242.5
 31
0.0
  0
LINE
  5
9C
100
AcDbEntity
  8
2
100
AcDbLine
 10
142.206482
 20
242.067
 30
0.0
 11
136.048578
 21
242.067
 31
0.0
  0
LINE
  5
9D
100
AcDbEntity
  8
2
100
AcDbLine
 10
142.206482
 20
237.933
 30
0.0
 11
136.048578
 21
237.933
 31
0.0
  0
LINE
  5
9E
100
AcDbEntity
  8
2
100
AcDbLine
 10
142.232653
 20
237.5
 30
0.0
 11
136.07108
 21
237.5
 31
0.0
  0
CIRCLE
  5
9F
100
AcDbEntity
  8
0
100
AcDbCircle
 10
180.0
 20
240.0
 30
0.0
 40
44.0
  0
CIRCLE
  5
A6
100
AcDbEntity
  8
0
100
AcDbCircle
 10
180.0
 20
240.0
 30
0.0
 40
125.0
  0
CIRCLE
  5
A7
100
AcDbEntity
  8
0
100
AcDbCircle
 10
180.0
 20
240.0
 30
0.0
 40
117.5
  0
LINE
  5
A8
100
AcDbEntity
  8
1
100
AcDbLine
 10
328.0
 20
240.0
 30
0.0
 11
25.5
 21
240.0
 31
0.0
  0
LINE
  5
A9
100
AcDbEntity
  8
1
100
AcDbLine
 10
180.0
 20
376.0
 30
0.0
 11
180.0
 21
106.5
 31
0.0
  0
ARC
  5
AA
100
AcDbEntity
  8
0
100
AcDbCircle
 10
180.0
 20
346.0
 30
0.0
 40
13.0
100
AcDbArc
 50
180.0
 51
0.0
  0
LINE
  5
AB
100
AcDbEntity
  8
1
100
AcDbLine
 10
199.0
 20
344.5
 30
0.0
 11
159.5
 21
344.5
 31
0.0
  0
ARC
  5
AC
100
AcDbEntity
  8
0
100
AcDbCircle
 10
161.5
 20
344.5
 30
0.0
 40
5.700877
100
AcDbArc
 50
15.255119
 51
51.79452
  0
ARC
  5
AE
100
AcDbEntity
  8
0
100
AcDbCircle
 10
180.0
 20
240.0
 30
0.0
 40
110.0
100
AcDbArc
 50
97.827274
 51
82.181597
  0
ARC
  5
AF
100
AcDbEntity
  8
0
100
AcDbCircle
 10
198.5
 20
344.5
 30
0.0
 40
5.700877
100
AcDbArc
 50
128.101293
 51
164.744881
  0
LINE
  5
C3
100
AcDbEntity
  8
0
100
AcDbLine
 10
582.5
 20
240.0
 30
0.0
 11
582.5
 21
264.0
 31
0.0
  0
LINE
  5
C4
100
AcDbEntity
  8
0
100
AcDbLine
 10
582.5
 20
240.0
 30
0.0
 11
582.5
 21
216.0
 31
0.0
  0
LINE
  5
C5
100
AcDbEntity
  8
0
100
AcDbLine
 10
581.5
 20
265.0
 30
0.0
 11
556.5
 21
265.0
 31
0.0
  0
LINE
  5
C6
100
AcDbEntity
  8
0
100
AcDbLine
 10
581.5
 20
215.0
 30
0.0
 11
556.5
 21
215.0
 31
0.0
  0
LINE
  5
C7
100
AcDbEntity
  8
0
100
AcDbLine
 10
556.5
 20
240.0
 30
0.0
 11
556.5
 21
279.5
 31
0.0
  0
LINE
  5
C8
100
AcDbEntity
  8
0
100
AcDbLine
 10
556.5
 20
240.0
 30
0.0
 11
556.5
 21
200.5
 31
0.0
  0
LINE
  5
C9
100
AcDbEntity
  8
0
100
AcDbLine
 10
553.5
 20
282.5
 30
0.0
 11
546.5
 21
282.5
 31
0.0
  0
LINE
  5
CA
100
AcDbEntity
  8
0
100
AcDbLine
 10
553.5
 20
197.5
 30
0.0
 11
546.5
 21
197.5
 31
0.0
  0
ARC
  5
CB
100
AcDbEntity
  8
0
100
AcDbCircle
 10
553.0
 20
201.0
 30
0.0
 40
3.535534
100
AcDbArc
 50
278.130102
 51
351.869898
  0
ARC
  5
CC
100
AcDbEntity
  8
0
100
AcDbCircle
 10
553.0
 20
279.0
 30
0.0
 40
3.535534
100
AcDbArc
 50
8.130102
 51
81.869898
  0
ARC
  5
CD
100
AcDbEntity
  8
0
100
AcDbCircle
 10
581.560748
 20
215.939252
 30
0.0
 40
0.941215
100
AcDbArc
 50
266.299467
 51
3.700533
  0
ARC
  5
CE
100
AcDbEntity
  8
0
100
AcDbCircle
 10
581.56812
 20
264.06812
 30
0.0
 40
0.934366
100
AcDbArc
 50
355.819142
 51
94.180858
  0
LINE
  5
CF
100
AcDbEntity
  8
0
100
AcDbLine
 10
521.5
 20
240.0
 30
0.0
 11
521.5
 21
350.0
 31
0.0
  0
LINE
  5
D0
100
AcDbEntity
  8
0
100
AcDbLine
 10
546.5
 20
240.0
 30
0.0
 11
546.5
 21
350.0
 31
0.0
  0
LINE
  5
D1
100
AcDbEntity
  8
0
100
AcDbLine
 10
521.5
 20
350.0
 30
0.0
 11
521.5
 21
356.0
 31
0.0
  0
LINE
  5
D2
100
AcDbEntity
  8
0
100
AcDbLine
 10
546.5
 20
350.0
 30
0.0
 11
546.5
 21
356.0
 31
0.0
  0
LINE
  5
D3
100
AcDbEntity
  8
0
100
AcDbLine
 10
546.5
 20
356.0
 30
0.0
 11
538.0
 21
365.0
 31
0.0
  0
LINE
  5
D4
100
AcDbEntity
  8
0
100
AcDbLine
 10
538.0
 20
365.0
 30
0.0
 11
530.0
 21
365.0
 31
0.0
  0
LINE
  5
D5
100
AcDbEntity
  8
0
100
AcDbLine
 10
530.0
 20
365.0
 30
0.0
 11
521.5
 21
356.0
 31
0.0
  0
LINE
  5
D6
100
AcDbEntity
  8
0
100
AcDbLine
 10
538.0
 20
365.0
 30
0.0
 11
538.0
 21
240.0
 31
0.0
  0
LINE
  5
D7
100
AcDbEntity
  8
0
100
AcDbLine
 10
530.0
 20
365.0
 30
0.0
 11
530.0
 21
240.0
 31
0.0
  0
LINE
  5
D8
100
AcDbEntity
  8
0
100
AcDbLine
 10
546.5
 20
240.0
 30
0.0
 11
546.5
 21
124.0
 31
0.0
  0
LINE
  5
D9
100
AcDbEntity
  8
0
100
AcDbLine
 10
538.0
 20
240.0
 30
0.0
 11
538.0
 21
115.0
 31
0.0
  0
LINE
  5
DA
100
AcDbEntity
  8
0
100
AcDbLine
 10
530.0
 20
240.0
 30
0.0
 11
530.0
 21
115.0
 31
0.0
  0
LINE
  5
DB
100
AcDbEntity
  8
0
100
AcDbLine
 10
521.5
 20
240.0
 30
0.0
 11
521.5
 21
124.0
 31
0.0
  0
LINE
  5
DC
100
AcDbEntity
  8
0
100
AcDbLine
 10
521.5
 20
124.0
 30
0.0
 11
530.0
 21
115.0
 31
0.0
  0
LINE
  5
DD
100
AcDbEntity
  8
0
100
AcDbLine
 10
530.0
 20
115.0
 30
0.0
 11
538.0
 21
115.0
 31
0.0
  0
LINE
  5
DE
100
AcDbEntity
  8
0
100
AcDbLine
 10
538.0
 20
115.0
 30
0.0
 11
546.5
 21
124.0
 31
0.0
  0
LINE
  5
DF
100
AcDbEntity
  8
2
100
AcDbLine
 10
521.5
 20
130.5
 30
0.0
 11
525.5
 21
133.5
 31
0.0
  0
LINE
  5
E0
100
AcDbEntity
  8
2
100
AcDbLine
 10
525.5
 20
133.5
 30
0.0
 11
530.430823
 21
193.656047
 31
0.0
  0
LINE
  5
E1
100
AcDbEntity
  8
2
100
AcDbLine
 10
546.5
 20
130.5
 30
0.0
 11
534.5
 21
132.5
 31
0.0
  0
LINE
  5
E2
100
AcDbEntity
  8
2
100
AcDbLine
 10
534.5
 20
132.5
 30
0.0
 11
539.5
 21
197.5
 31
0.0
  0
LINE
  5
E3
100
AcDbEntity
  8
2
100
AcDbLine
 10
546.5
 20
197.5
 30
0.0
 11
539.5
 21
197.5
 31
0.0
  0
LINE
  5
E4
100
AcDbEntity
  8
2
100
AcDbLine
 10
530.0
 20
284.5
 30
0.0
 11
526.5
 21
347.5
 31
0.0
  0
LINE
  5
E5
100
AcDbEntity
  8
2
100
AcDbLine
 10
526.5
 20
347.5
 30
0.0
 11
521.5
 21
350.0
 31
0.0
  0
LINE
  5
E6
100
AcDbEntity
  8
2
100
AcDbLine
 10
546.5
 20
350.0
 30
0.0
 11
534.0
 21
348.5
 31
0.0
  0
LINE
  5
E7
100
AcDbEntity
  8
2
100
AcDbLine
 10
534.0
 20
348.5
 30
0.0
 11
538.5
 21
282.5
 31
0.0
  0
LINE
  5
E8
100
AcDbEntity
  8
2
100
AcDbLine
 10
546.5
 20
282.5
 30
0.0
 11
538.5
 21
282.5
 31
0.0
  0
CIRCLE
  5
1C8
100
AcDbEntity
  8
0
100
AcDbCircle
 10
180.0
 20
240.0
 30
0.0
 40
37.5
  0
LINE
  5
217
100
AcDbEntity
  8
2
100
AcDbLine
 10
549.141898
 20
277.868795
 30
0.0
 11
549.141898
 21
272.249195
 31
0.0
  0
LINE
  5
218
100
AcDbEntity
  8
2
100
AcDbLine
 10
528.394606
 20
277.868795
 30
0.0
 11
528.394606
 21
240.081828
 31
0.0
  0
LINE
  5
219
100
AcDbEntity
  8
2
100
AcDbLine
 10
549.141898
 20
202.294861
 30
0.0
 11
549.141898
 21
207.914462
 31
0.0
  0
LINE
  5
21A
100
AcDbEntity
  8
2
100
AcDbLine
 10
528.394606
 20
202.294861
 30
0.0
 11
528.394606
 21
240.081828
 31
0.0
  0
CIRCLE
  5
283
100
AcDbEntity
  8
0
100
AcDbCircle
 10
180.0
 20
344.5
 30
0.0
 40
5.0
  0
CIRCLE
  5
284
100
AcDbEntity
  8
0
100
AcDbCircle
 10
180.0
 20
344.5
 30
0.0
 40
4.0
  0
ENDSEC
  0
SECTION
  2
OBJECTS
  0
DICTIONARY
  5
25D
100
AcDbDictionary
  3
ACAD_GROUP
350
25E
  3
ACAD_MLINESTYLE
350
26B
  3
ACDBVARIABLEDICTIONARY
350
27E
  0
DICTIONARY
  5
25E
102
{ACAD_REACTORS
330
25D
102
}
100
AcDbDictionary
  0
DICTIONARY
  5
26B
102
{ACAD_REACTORS
330
25D
102
}
100
AcDbDictionary
  3
STANDARD
350
26C
  0
DICTIONARY
  5
27E
102
{ACAD_REACTORS
330
25D
102
}
100
AcDbDictionary
  3
DIMADEC
350
27F
  0
MLINESTYLE
  5
26C
102
{ACAD_REACTORS
330
26B
102
}
100
AcDbMlineStyle
  2
STANDARD
 70
     0
  3

 62
   256
 51
90.0
 52
90.0
 71
     2
 49
0.5
 62
   256
  6
BYLAYER
 49
-0.5
 62
   256
  6
BYLAYER
  0
DICTIONARYVAR
  5
27F
102
{ACAD_REACTORS
330
27E
102
}
100
DictionaryVariables
280
     0
  1
0
  0
ENDSEC
  0
EOF
