  0
SECTION
  2
HEADER
  9
$ACADVER
  1
AC1014
  9
$ACADMAINTVER
 70
     0
  9
$DWGCODEPAGE
  3
ANSI_932
  9
$INSBASE
 10
0.0
 20
0.0
 30
0.0
  9
$EXTMIN
 10
85.008866
 20
105.202052
 30
0.0
  9
$EXTMAX
 10
634.390259
 20
335.202052
 30
0.0
  9
$LIMMIN
 10
0.0
 20
0.0
  9
$LIMMAX
 10
680.0
 20
420.0
  9
$ORTHOMODE
 70
     0
  9
$REGENMODE
 70
     1
  9
$FILLMODE
 70
     1
  9
$QTEXTMODE
 70
     0
  9
$MIRRTEXT
 70
     1
  9
$DRAGMODE
 70
     1
  9
$LTSCALE
 40
30.0
  9
$OSMODE
 70
    32
  9
$ATTMODE
 70
     1
  9
$TEXTSIZE
 40
2.5
  9
$TRACEWID
 40
0.05
  9
$TEXTSTYLE
  7
BIGFONT
  9
$CLAYER
  8
0
  9
$CELTYPE
  6
BYLAYER
  9
$CECOLOR
 62
   256
  9
$CELTSCALE
 40
1.0
  9
$DELOBJ
 70
     1
  9
$DISPSILH
 70
     0
  9
$DIMSCALE
 40
3.0
  9
$DIMASZ
 40
3.0
  9
$DIMEXO
 40
2.0
  9
$DIMDLI
 40
0.38
  9
$DIMRND
 40
0.0
  9
$DIMDLE
 40
0.0
  9
$DIMEXE
 40
2.0
  9
$DIMTP
 40
0.0
  9
$DIMTM
 40
0.0
  9
$DIMTXT
 40
3.2
  9
$DIMCEN
 40
0.09
  9
$DIMTSZ
 40
0.0
  9
$DIMTOL
 70
     0
  9
$DIMLIM
 70
     0
  9
$DIMTIH
 70
     0
  9
$DIMTOH
 70
     0
  9
$DIMSE1
 70
     0
  9
$DIMSE2
 70
     0
  9
$DIMTAD
 70
     1
  9
$DIMZIN
 70
     0
  9
$DIMBLK
  1

  9
$DIMASO
 70
     0
  9
$DIMSHO
 70
     0
  9
$DIMPOST
  1

  9
$DIMAPOST
  1

  9
$DIMALT
 70
     0
  9
$DIMALTD
 70
     2
  9
$DIMALTF
 40
25.4
  9
$DIMLFAC
 40
1.0
  9
$DIMTOFL
 70
     0
  9
$DIMTVP
 40
1.6
  9
$DIMTIX
 70
     1
  9
$DIMSOXD
 70
     0
  9
$DIMSAH
 70
     0
  9
$DIMBLK1
  1

  9
$DIMBLK2
  1

  9
$DIMSTYLE
  2
STANDARD
  9
$DIMCLRD
 70
     0
  9
$DIMCLRE
 70
     0
  9
$DIMCLRT
 70
     0
  9
$DIMTFAC
 40
1.0
  9
$DIMGAP
 40
0.09
  9
$DIMJUST
 70
     0
  9
$DIMSD1
 70
     0
  9
$DIMSD2
 70
     0
  9
$DIMTOLJ
 70
     1
  9
$DIMTZIN
 70
     0
  9
$DIMALTZ
 70
     0
  9
$DIMALTTZ
 70
     0
  9
$DIMFIT
 70
     5
  9
$DIMUPT
 70
     0
  9
$DIMUNIT
 70
     2
  9
$DIMDEC
 70
     4
  9
$DIMTDEC
 70
     4
  9
$DIMALTU
 70
     2
  9
$DIMALTTD
 70
     2
  9
$DIMTXSTY
  7
BIGFONT
  9
$DIMAUNIT
 70
     0
  9
$LUNITS
 70
     2
  9
$LUPREC
 70
     4
  9
$SKETCHINC
 40
0.1
  9
$FILLETRAD
 40
1.0
  9
$AUNITS
 70
     0
  9
$AUPREC
 70
     0
  9
$MENU
  1
ACAD
  9
$ELEVATION
 40
0.0
  9
$PELEVATION
 40
0.0
  9
$THICKNESS
 40
0.0
  9
$LIMCHECK
 70
     0
  9
$BLIPMODE
 70
     0
  9
$CHAMFERA
 40
0.0
  9
$CHAMFERB
 40
0.0
  9
$CHAMFERC
 40
0.0
  9
$CHAMFERD
 40
0.0
  9
$SKPOLY
 70
     0
  9
$TDCREATE
 40
2450870.981681829
  9
$TDUPDATE
 40
2453550.789950984
  9
$TDINDWG
 40
0.0007751042
  9
$TDUSRTIMER
 40
0.0007751042
  9
$USRTIMER
 70
     1
  9
$ANGBASE
 50
0.0
  9
$ANGDIR
 70
     0
  9
$PDMODE
 70
     0
  9
$PDSIZE
 40
0.0
  9
$PLINEWID
 40
0.0
  9
$COORDS
 70
     2
  9
$SPLFRAME
 70
     0
  9
$SPLINETYPE
 70
     6
  9
$SPLINESEGS
 70
     8
  9
$ATTDIA
 70
     0
  9
$ATTREQ
 70
     1
  9
$HANDLING
 70
     1
  9
$HANDSEED
  5
2A3
  9
$SURFTAB1
 70
     6
  9
$SURFTAB2
 70
     6
  9
$SURFTYPE
 70
     6
  9
$SURFU
 70
     6
  9
$SURFV
 70
     6
  9
$UCSNAME
  2

  9
$UCSORG
 10
0.0
 20
0.0
 30
0.0
  9
$UCSXDIR
 10
1.0
 20
0.0
 30
0.0
  9
$UCSYDIR
 10
0.0
 20
1.0
 30
0.0
  9
$PUCSNAME
  2

  9
$PUCSORG
 10
0.0
 20
0.0
 30
0.0
  9
$PUCSXDIR
 10
1.0
 20
0.0
 30
0.0
  9
$PUCSYDIR
 10
0.0
 20
1.0
 30
0.0
  9
$USERI1
 70
     0
  9
$USERI2
 70
     0
  9
$USERI3
 70
     0
  9
$USERI4
 70
     0
  9
$USERI5
 70
     0
  9
$USERR1
 40
0.0
  9
$USERR2
 40
0.0
  9
$USERR3
 40
0.0
  9
$USERR4
 40
0.0
  9
$USERR5
 40
0.0
  9
$WORLDVIEW
 70
     1
  9
$SHADEDGE
 70
     3
  9
$SHADEDIF
 70
    70
  9
$TILEMODE
 70
     1
  9
$MAXACTVP
 70
    16
  9
$PINSBASE
 10
0.0
 20
0.0
 30
0.0
  9
$PLIMCHECK
 70
     0
  9
$PEXTMIN
 10
1.000000E+20
 20
1.000000E+20
 30
1.000000E+20
  9
$PEXTMAX
 10
-1.000000E+20
 20
-1.000000E+20
 30
-1.000000E+20
  9
$PLIMMIN
 10
0.0
 20
0.0
  9
$PLIMMAX
 10
12.0
 20
9.0
  9
$UNITMODE
 70
     0
  9
$VISRETAIN
 70
     0
  9
$PLINEGEN
 70
     1
  9
$PSLTSCALE
 70
     0
  9
$TREEDEPTH
 70
  3020
  9
$PICKSTYLE
 70
     1
  9
$CMLSTYLE
  2
STANDARD
  9
$CMLJUST
 70
     0
  9
$CMLSCALE
 40
1.0
  9
$PROXYGRAPHICS
 70
     1
  9
$MEASUREMENT
 70
     0
  0
ENDSEC
  0
SECTION
  2
CLASSES
  0
CLASS
  1
DICTIONARYVAR
  2
AcDbDictionaryVar
  3
"AutoCAD"
 90
        0
280
     0
281
     0
  0
CLASS
  1
LWPOLYLINE
  2
AcDbPolyline
  3
"AutoCAD"
 90
        0
280
     0
281
     1
  0
ENDSEC
  0
SECTION
  2
TABLES
  0
TABLE
  2
VPORT
  5
26F
100
AcDbSymbolTable
 70
     1
  0
VPORT
  5
29D
100
AcDbSymbolTableRecord
100
AcDbViewportTableRecord
  2
*ACTIVE
 70
     0
 10
0.0
 20
0.0
 11
1.0
 21
1.0
 12
372.46063
 22
259.564532
 13
0.0
 23
0.0
 14
10.0
 24
10.0
 15
20.0
 25
20.0
 16
0.0
 26
0.0
 36
1.0
 17
0.0
 27
0.0
 37
0.0
 40
519.129065
 41
1.434944
 42
50.0
 43
0.0
 44
0.0
 50
0.0
 51
0.0
 71
     0
 72
   500
 73
     1
 74
     1
 75
     0
 76
     0
 77
     0
 78
     0
  0
ENDTAB
  0
TABLE
  2
LTYPE
  5
26C
100
AcDbSymbolTable
 70
     3
  0
LTYPE
  5
278
100
AcDbSymbolTableRecord
100
AcDbLinetypeTableRecord
  2
BYBLOCK
 70
     0
  3

 72
    65
 73
     0
 40
0.0
  0
LTYPE
  5
279
100
AcDbSymbolTableRecord
100
AcDbLinetypeTableRecord
  2
BYLAYER
 70
     0
  3

 72
    65
 73
     0
 40
0.0
  0
LTYPE
  5
27A
100
AcDbSymbolTableRecord
100
AcDbLinetypeTableRecord
  2
CONTINUOUS
 70
     0
  3
実線
 72
    65
 73
     0
 40
0.0
  0
LTYPE
  5
287
100
AcDbSymbolTableRecord
100
AcDbLinetypeTableRecord
  2
CENTER
 70
     0
  3
____ _ ____ _ ____ _ ____ _ ____ _ ____ _ ____
 72
    65
 73
     4
 40
2.0
 49
1.25
 74
     0
 49
-0.25
 74
     0
 49
0.25
 74
     0
 49
-0.25
 74
     0
  0
LTYPE
  5
288
100
AcDbSymbolTableRecord
100
AcDbLinetypeTableRecord
  2
HIDDEN
 70
     0
  3
_ _ _ _ _ _ _ _ _ _ _ _ _ _ _ _ _ _ _ _ _ _ _
 72
    65
 73
     2
 40
0.375
 49
0.25
 74
     0
 49
-0.125
 74
     0
  0
ENDTAB
  0
TABLE
  2
LAYER
  5
269
100
AcDbSymbolTable
 70
     6
  0
LAYER
  5
275
100
AcDbSymbolTableRecord
100
AcDbLayerTableRecord
  2
0
 70
     0
 62
     7
  6
CONTINUOUS
  0
LAYER
  5
28C
100
AcDbSymbolTableRecord
100
AcDbLayerTableRecord
  2
1
 70
     0
 62
     1
  6
CENTER
  0
LAYER
  5
28D
100
AcDbSymbolTableRecord
100
AcDbLayerTableRecord
  2
3
 70
     0
 62
     3
  6
CONTINUOUS
  0
LAYER
  5
28E
100
AcDbSymbolTableRecord
100
AcDbLayerTableRecord
  2
10
 70
     0
 62
     7
  6
CONTINUOUS
  0
LAYER
  5
28F
100
AcDbSymbolTableRecord
100
AcDbLayerTableRecord
  2
11
 70
     0
 62
     3
  6
CONTINUOUS
  0
LAYER
  5
290
100
AcDbSymbolTableRecord
100
AcDbLayerTableRecord
  2
2
 70
     0
 62
     2
  6
HIDDEN
  0
ENDTAB
  0
TABLE
  2
STYLE
  5
26A
100
AcDbSymbolTable
 70
     4
  0
STYLE
  5
276
100
AcDbSymbolTableRecord
100
AcDbTextStyleTableRecord
  2
STANDARD
 70
     0
 40
0.0
 41
1.0
 50
0.0
 71
     0
 42
0.2
  3
TXT
  4
BIGFONT
  0
STYLE
  5
284
100
AcDbSymbolTableRecord
100
AcDbTextStyleTableRecord
  2
07500
 70
     0
 40
0.0
 41
0.75
 50
0.0
 71
     0
 42
0.2
  3
TXT
  4
BIGFONT
  0
STYLE
  5
285
100
AcDbSymbolTableRecord
100
AcDbTextStyleTableRecord
  2
BIGFONT
 70
     0
 40
2.5
 41
1.0
 50
0.0
 71
     0
 42
2.5
  3
txt.shx
  4
bigfont
  0
STYLE
  5
286
100
AcDbSymbolTableRecord
100
AcDbTextStyleTableRecord
  2
EXTFONT
 70
     0
 40
15.0
 41
1.0
 50
0.0
 71
     0
 42
15.0
  3
txt.shx
  4
extfont
  0
ENDTAB
  0
TABLE
  2
VIEW
  5
26D
100
AcDbSymbolTable
 70
     1
  0
VIEW
  5
289
100
AcDbSymbolTableRecord
100
AcDbViewTableRecord
  2
ALL
 70
     0
 40
810.0
 10
662.97479
 20
405.0
 41
0.0
 11
0.0
 21
0.0
 31
1.0
 12
0.0
 22
0.0
 32
0.0
 42
0.0
 43
0.0
 44
0.0
 50
0.0
 71
     0
  0
ENDTAB
  0
TABLE
  2
UCS
  5
26E
100
AcDbSymbolTable
 70
     0
  0
ENDTAB
  0
TABLE
  2
APPID
  5
270
100
AcDbSymbolTable
 70
     1
  0
APPID
  5
277
100
AcDbSymbolTableRecord
100
AcDbRegAppTableRecord
  2
ACAD
 70
     0
  0
ENDTAB
  0
TABLE
  2
DIMSTYLE
  5
271
100
AcDbSymbolTable
 70
     1
  0
DIMSTYLE
105
28B
100
AcDbSymbolTableRecord
100
AcDbDimStyleTableRecord
  2
STANDARD
 70
     0
  3

  4

  5

  6

  7

 40
1.0
 41
0.18
 42
0.0625
 43
0.38
 44
0.18
 45
0.0
 46
0.0
 47
0.0
 48
0.0
140
0.18
141
0.09
142
0.0
143
25.4
144
1.0
145
0.0
146
1.0
147
0.09
 71
     0
 72
     0
 73
     1
 74
     1
 75
     0
 76
     0
 77
     0
 78
     0
170
     0
171
     2
172
     0
173
     0
174
     0
175
     0
176
     0
177
     0
178
     0
270
     2
271
     4
272
     4
273
     2
274
     2
340
285
275
     0
280
     0
281
     0
282
     0
283
     1
284
     0
285
     0
286
     0
287
     5
288
     0
  0
ENDTAB
  0
TABLE
  2
BLOCK_RECORD
  5
268
100
AcDbSymbolTable
 70
     1
  0
BLOCK_RECORD
  5
27E
100
AcDbSymbolTableRecord
100
AcDbBlockTableRecord
  2
*MODEL_SPACE
  0
BLOCK_RECORD
  5
27B
100
AcDbSymbolTableRecord
100
AcDbBlockTableRecord
  2
*PAPER_SPACE
  0
BLOCK_RECORD
  5
283
100
AcDbSymbolTableRecord
100
AcDbBlockTableRecord
  2
OOO
  0
ENDTAB
  0
ENDSEC
  0
SECTION
  2
BLOCKS
  0
BLOCK
  5
293
100
AcDbEntity
  8
0
100
AcDbBlockBegin
  2
*MODEL_SPACE
 70
     0
 10
0.0
 20
0.0
 30
0.0
  3
*MODEL_SPACE
  1

  0
ENDBLK
  5
294
100
AcDbEntity
  8
0
100
AcDbBlockEnd
  0
BLOCK
  5
291
100
AcDbEntity
 67
     1
  8
0
100
AcDbBlockBegin
  2
*PAPER_SPACE
 70
     0
 10
0.0
 20
0.0
 30
0.0
  3
*PAPER_SPACE
  1

  0
ENDBLK
  5
292
100
AcDbEntity
 67
     1
  8
0
100
AcDbBlockEnd
  0
BLOCK
  5
36
100
AcDbEntity
  8
0
100
AcDbBlockBegin
  2
OOO
 70
     0
 10
375.0
 20
0.0
 30
0.0
  3
OOO
  1

  0
LINE
  5
37
100
AcDbEntity
  8
11
100
AcDbLine
 10
278.0
 20
12.0
 30
0.0
 11
375.0
 21
12.0
 31
0.0
  0
LINE
  5
38
100
AcDbEntity
  8
11
100
AcDbLine
 10
303.0
 20
0.0
 30
0.0
 11
303.0
 21
12.0
 31
0.0
  0
LINE
  5
39
100
AcDbEntity
  8
11
100
AcDbLine
 10
278.0
 20
36.0
 30
0.0
 11
278.0
 21
0.0
 31
0.0
  0
TEXT
  5
3A
100
AcDbEntity
  8
11
100
AcDbText
 10
280.0
 20
8.5
 30
0.0
 40
2.5
  1
尺度
100
AcDbText
  0
TEXT
  5
3B
100
AcDbEntity
  8
11
100
AcDbText
 10
305.0
 20
8.5
 30
0.0
 40
2.5
  1
図番
100
AcDbText
  0
LINE
  5
3C
100
AcDbEntity
  8
11
100
AcDbLine
 10
278.0
 20
24.0
 30
0.0
 11
375.0
 21
24.0
 31
0.0
  0
LINE
  5
3D
100
AcDbEntity
  8
11
100
AcDbLine
 10
278.0
 20
36.0
 30
0.0
 11
375.0
 21
36.0
 31
0.0
  0
TEXT
  5
3E
100
AcDbEntity
  8
11
100
AcDbText
 10
280.0
 20
20.5
 30
0.0
 40
2.5
  1
品番
100
AcDbText
  0
TEXT
  5
3F
100
AcDbEntity
  8
11
100
AcDbText
 10
280.0
 20
32.5
 30
0.0
 40
2.5
  1
部品名称
100
AcDbText
  0
ENDBLK
  5
40
100
AcDbEntity
  8
0
100
AcDbBlockEnd
  0
ENDSEC
  0
SECTION
  2
ENTITIES
  0
LINE
  5
41
100
AcDbEntity
  8
1
100
AcDbLine
 10
592.390259
 20
305.202052
 30
0.0
 11
535.805512
 21
305.202052
 31
0.0
  0
LINE
  5
42
100
AcDbEntity
  8
0
100
AcDbLine
 10
619.390259
 20
242.202052
 30
0.0
 11
619.390259
 21
198.202052
 31
0.0
  0
LINE
  5
43
100
AcDbEntity
  8
0
100
AcDbLine
 10
592.390259
 20
258.671693
 30
0.0
 11
592.390259
 21
181.732412
 31
0.0
  0
LINE
  5
44
100
AcDbEntity
  8
0
100
AcDbLine
 10
582.390259
 20
125.358917
 30
0.0
 11
582.390259
 21
315.045187
 31
0.0
  0
LINE
  5
45
100
AcDbEntity
  8
0
100
AcDbLine
 10
557.390259
 20
315.045194
 30
0.0
 11
557.390259
 21
125.358917
 31
0.0
  0
LINE
  5
46
100
AcDbEntity
  8
1
100
AcDbLine
 10
634.390259
 20
220.202052
 30
0.0
 11
542.390259
 21
220.202052
 31
0.0
  0
LINE
  5
47
100
AcDbEntity
  8
2
100
AcDbLine
 10
564.390259
 20
182.352052
 30
0.0
 11
584.990259
 21
182.352052
 31
0.0
  0
LINE
  5
48
100
AcDbEntity
  8
0
100
AcDbLine
 10
616.390259
 20
195.202052
 30
0.0
 11
595.390259
 21
195.202052
 31
0.0
  0
ARC
  5
49
100
AcDbEntity
  8
0
100
AcDbCircle
 10
595.390259
 20
192.202052
 30
0.0
 40
3.0
100
AcDbArc
 50
90.0
 51
180.0
  0
ARC
  5
4A
100
AcDbEntity
  8
0
100
AcDbCircle
 10
616.390259
 20
198.202052
 30
0.0
 40
3.0
100
AcDbArc
 50
270.0
 51
0.0
  0
LINE
  5
4B
100
AcDbEntity
  8
2
100
AcDbLine
 10
564.390259
 20
263.202052
 30
0.0
 11
564.390259
 21
258.052052
 31
0.0
  0
LINE
  5
4D
100
AcDbEntity
  8
2
100
AcDbLine
 10
588.390259
 20
249.702056
 30
0.0
 11
588.390259
 21
190.702052
 31
0.0
  0
ARC
  5
4E
100
AcDbEntity
  8
2
100
AcDbCircle
 10
585.390259
 20
190.702052
 30
0.0
 40
3.0
100
AcDbArc
 50
270.0
 51
0.0
  0
ARC
  5
51
100
AcDbEntity
  8
2
100
AcDbCircle
 10
565.390259
 20
177.202052
 30
0.0
 40
1.0
100
AcDbArc
 50
180.0
 51
248.466
  0
LINE
  5
52
100
AcDbEntity
  8
2
100
AcDbLine
 10
580.098236
 20
176.343391
 30
0.0
 11
582.390259
 21
176.463511
 31
0.0
  0
ARC
  5
53
100
AcDbEntity
  8
2
100
AcDbCircle
 10
564.289096
 20
174.411454
 30
0.0
 40
2.0
100
AcDbArc
 50
356.987103
 51
68.465973
  0
ARC
  5
54
100
AcDbEntity
  8
2
100
AcDbCircle
 10
580.255244
 20
173.347502
 30
0.0
 40
3.0
100
AcDbArc
 50
93.0
 51
176.987212
  0
LINE
  5
55
100
AcDbEntity
  8
1
100
AcDbLine
 10
609.390259
 20
232.702052
 30
0.0
 11
609.390259
 21
185.202052
 31
0.0
  0
ARC
  5
56
100
AcDbEntity
  8
0
100
AcDbCircle
 10
587.390259
 20
181.732412
 30
0.0
 40
5.0
100
AcDbArc
 50
273.0
 51
0.0
  0
ARC
  5
57
100
AcDbEntity
  8
0
100
AcDbCircle
 10
587.390259
 20
258.671693
 30
0.0
 40
5.0
100
AcDbArc
 50
0.0
 51
87.0
  0
ARC
  5
58
100
AcDbEntity
  8
2
100
AcDbCircle
 10
580.255244
 20
267.056602
 30
0.0
 40
3.0
100
AcDbArc
 50
183.012788
 51
267.0
  0
ARC
  5
59
100
AcDbEntity
  8
2
100
AcDbCircle
 10
564.289096
 20
265.992651
 30
0.0
 40
2.0
100
AcDbArc
 50
291.534027
 51
3.012897
  0
LINE
  5
5A
100
AcDbEntity
  8
2
100
AcDbLine
 10
580.098236
 20
264.060713
 30
0.0
 11
582.390259
 21
263.940594
 31
0.0
  0
ARC
  5
5B
100
AcDbEntity
  8
2
100
AcDbCircle
 10
565.390259
 20
263.202052
 30
0.0
 40
1.0
100
AcDbArc
 50
111.534
 51
180.0
  0
ARC
  5
5D
100
AcDbEntity
  8
2
100
AcDbCircle
 10
585.390259
 20
249.702052
 30
0.0
 40
3.0
100
AcDbArc
 50
0.0
 51
90.0
  0
ARC
  5
5E
100
AcDbEntity
  8
0
100
AcDbCircle
 10
595.390259
 20
248.202052
 30
0.0
 40
3.0
100
AcDbArc
 50
180.0
 51
270.0
  0
LINE
  5
5F
100
AcDbEntity
  8
2
100
AcDbLine
 10
564.390259
 20
258.052052
 30
0.0
 11
584.990259
 21
258.052052
 31
0.0
  0
LINE
  5
60
100
AcDbEntity
  8
0
100
AcDbLine
 10
616.390259
 20
245.202052
 30
0.0
 11
595.390259
 21
245.202052
 31
0.0
  0
ARC
  5
61
100
AcDbEntity
  8
0
100
AcDbCircle
 10
616.390259
 20
242.202052
 30
0.0
 40
3.0
100
AcDbArc
 50
0.0
 51
90.0
  0
LINE
  5
63
100
AcDbEntity
  8
1
100
AcDbLine
 10
574.390259
 20
232.702052
 30
0.0
 11
574.390259
 21
207.702052
 31
0.0
  0
LWPOLYLINE
  5
64
100
AcDbEntity
  8
2
100
AcDbPolyline
 90
       16
 70
     1
 43
0.0
 10
572.003493
 20
220.202052
 42
0.111998
 10
572.179472
 20
219.426269
 42
0.103098
 10
572.70256
 20
218.740463
 42
0.092589
 10
573.533947
 20
218.254374
 42
0.10335
 10
574.390259
 20
218.135052
 42
0.086319
 10
575.318684
 20
218.296537
 42
0.092589
 10
576.077957
 20
218.740463
 42
0.103098
 10
576.601046
 20
219.426269
 42
0.111998
 10
576.777025
 20
220.202052
 42
0.111998
 10
576.601046
 20
220.977836
 42
0.103098
 10
576.077957
 20
221.663642
 42
0.092589
 10
575.318684
 20
222.107568
 42
0.086319
 10
574.390259
 20
222.269052
 42
0.086319
 10
573.461833
 20
222.107568
 42
0.092589
 10
572.70256
 20
221.663642
 42
0.103098
 10
572.179472
 20
220.977836
 42
0.111998
  0
LWPOLYLINE
  5
76
100
AcDbEntity
  8
2
100
AcDbPolyline
 90
       16
 70
     1
 43
0.0
 10
574.390259
 20
222.702052
 42
0.086319
 10
573.267345
 20
222.50674
 42
0.092589
 10
572.349017
 20
221.969819
 42
0.103098
 10
571.666158
 20
221.074541
 42
0.131666
 10
571.503508
 20
220.202052
 42
0.111998
 10
571.716351
 20
219.263756
 42
0.103098
 10
572.349017
 20
218.434285
 42
0.092589
 10
573.267345
 20
217.897365
 42
0.086319
 10
574.390259
 20
217.702052
 42
0.086319
 10
575.513173
 20
217.897365
 42
0.092589
 10
576.4315
 20
218.434285
 42
0.103098
 10
577.064167
 20
219.263756
 42
0.111998
 10
577.27701
 20
220.202052
 42
0.111998
 10
577.064167
 20
221.140348
 42
0.103098
 10
576.4315
 20
221.969819
 42
0.092589
 10
575.513173
 20
222.50674
 42
0.086319
  0
LINE
  5
88
100
AcDbEntity
  8
2
100
AcDbLine
 10
569.890259
 20
310.202052
 30
0.0
 11
579.379654
 21
310.202052
 31
0.0
  0
LINE
  5
89
100
AcDbEntity
  8
2
100
AcDbLine
 10
570.702259
 20
309.390052
 30
0.0
 11
578.215647
 21
309.390052
 31
0.0
  0
LINE
  5
8A
100
AcDbEntity
  8
2
100
AcDbLine
 10
564.390259
 20
182.352052
 30
0.0
 11
564.390259
 21
177.202052
 31
0.0
  0
LINE
  5
DF
100
AcDbEntity
  8
0
100
AcDbLine
 10
582.390259
 20
263.940594
 30
0.0
 11
587.651939
 21
263.664841
 31
0.0
  0
LINE
  5
E0
100
AcDbEntity
  8
0
100
AcDbLine
 10
582.390259
 20
176.463511
 30
0.0
 11
587.651939
 21
176.739264
 31
0.0
  0
ARC
  5
13F
100
AcDbEntity
  8
0
100
AcDbCircle
 10
200.008866
 20
305.202052
 30
0.0
 40
12.0
100
AcDbArc
 50
189.80065
 51
350.19935
  0
ARC
  5
140
100
AcDbEntity
  8
0
100
AcDbCircle
 10
184.24237
 20
302.478521
 30
0.0
 40
4.0
100
AcDbArc
 50
9.80065
 51
100.847981
  0
ARC
  5
141
100
AcDbEntity
  8
0
100
AcDbCircle
 10
215.775361
 20
302.478521
 30
0.0
 40
4.0
100
AcDbArc
 50
79.152019
 51
170.19935
  0
ARC
  5
142
100
AcDbEntity
  8
0
100
AcDbCircle
 10
200.008866
 20
305.202052
 30
0.0
 40
14.030083
100
AcDbArc
 50
199.958
 51
340.042
  0
ARC
  5
143
100
AcDbEntity
  8
0
100
AcDbCircle
 10
184.001557
 20
299.389153
 30
0.0
 40
3.0
100
AcDbArc
 50
19.958
 51
101.428079
  0
ARC
  5
144
100
AcDbEntity
  8
0
100
AcDbCircle
 10
216.016175
 20
299.389153
 30
0.0
 40
3.0
100
AcDbArc
 50
78.571921
 51
160.042
  0
ARC
  5
145
100
AcDbEntity
  8
0
100
AcDbCircle
 10
200.008866
 20
220.202052
 30
0.0
 40
83.788804
100
AcDbArc
 50
101.428079
 51
104.243087
  0
LINE
  5
146
100
AcDbEntity
  8
2
100
AcDbLine
 10
162.241519
 20
222.702052
 30
0.0
 11
156.079946
 21
222.702052
 31
0.0
  0
LINE
  5
147
100
AcDbEntity
  8
2
100
AcDbLine
 10
162.215348
 20
222.269052
 30
0.0
 11
156.057444
 21
222.269052
 31
0.0
  0
LINE
  5
148
100
AcDbEntity
  8
2
100
AcDbLine
 10
162.215348
 20
218.135052
 30
0.0
 11
156.057444
 21
218.135052
 31
0.0
  0
LINE
  5
149
100
AcDbEntity
  8
2
100
AcDbLine
 10
162.241519
 20
217.702052
 30
0.0
 11
156.079946
 21
217.702052
 31
0.0
  0
ARC
  5
14A
100
AcDbEntity
  8
0
100
AcDbCircle
 10
200.008866
 20
220.202052
 30
0.0
 40
83.788804
100
AcDbArc
 50
75.756913
 51
78.571921
  0
ARC
  5
14B
100
AcDbEntity
  8
0
100
AcDbCircle
 10
200.008866
 20
220.202052
 30
0.0
 40
87.773503
100
AcDbArc
 50
100.847981
 51
79.152019
  0
CIRCLE
  5
14C
100
AcDbEntity
  8
0
100
AcDbCircle
 10
200.008866
 20
220.202052
 30
0.0
 40
44.0
  0
LINE
  5
14D
100
AcDbEntity
  8
1
100
AcDbLine
 10
179.008866
 20
305.202052
 30
0.0
 11
221.008866
 21
305.202052
 31
0.0
  0
LINE
  5
14E
100
AcDbEntity
  8
1
100
AcDbLine
 10
200.008866
 20
335.202052
 30
0.0
 11
200.008866
 21
105.202052
 31
0.0
  0
LINE
  5
14F
100
AcDbEntity
  8
1
100
AcDbLine
 10
85.008866
 20
220.202052
 30
0.0
 11
315.008866
 21
220.202052
 31
0.0
  0
CIRCLE
  5
150
100
AcDbEntity
  8
0
100
AcDbCircle
 10
200.008866
 20
220.202052
 30
0.0
 40
100.0
  0
LINE
  5
151
100
AcDbEntity
  8
2
100
AcDbLine
 10
560.390259
 20
300.202052
 30
0.0
 11
557.390259
 21
300.202052
 31
0.0
  0
LINE
  5
152
100
AcDbEntity
  8
2
100
AcDbLine
 10
560.243371
 20
301.014052
 30
0.0
 11
557.537146
 21
301.014052
 31
0.0
  0
LINE
  5
153
100
AcDbEntity
  8
2
100
AcDbLine
 10
560.243371
 20
309.390052
 30
0.0
 11
557.537146
 21
309.390052
 31
0.0
  0
LINE
  5
154
100
AcDbEntity
  8
2
100
AcDbLine
 10
560.390259
 20
310.202052
 30
0.0
 11
557.390259
 21
310.202052
 31
0.0
  0
LINE
  5
159
100
AcDbEntity
  8
2
100
AcDbLine
 10
569.890259
 20
310.202052
 30
0.0
 11
560.390259
 21
310.202052
 31
0.0
  0
LINE
  5
15A
100
AcDbEntity
  8
2
100
AcDbLine
 10
569.890259
 20
300.202052
 30
0.0
 11
560.390259
 21
300.202052
 31
0.0
  0
LINE
  5
15B
100
AcDbEntity
  8
0
100
AcDbLine
 10
557.390259
 20
313.202052
 30
0.0
 11
557.390259
 21
297.202052
 31
0.0
  0
LINE
  5
165
100
AcDbEntity
  8
2
100
AcDbLine
 10
570.702259
 20
309.390052
 30
0.0
 11
560.390259
 21
309.390052
 31
0.0
  0
LINE
  5
166
100
AcDbEntity
  8
2
100
AcDbLine
 10
570.702259
 20
301.014052
 30
0.0
 11
560.390259
 21
301.014052
 31
0.0
  0
LINE
  5
16E
100
AcDbEntity
  8
2
100
AcDbLine
 10
570.702259
 20
301.014052
 30
0.0
 11
575.463858
 21
301.014052
 31
0.0
  0
LINE
  5
16F
100
AcDbEntity
  8
2
100
AcDbLine
 10
569.890259
 20
300.202052
 30
0.0
 11
575.506595
 21
300.202052
 31
0.0
  0
CIRCLE
  5
197
100
AcDbEntity
  8
0
100
AcDbCircle
 10
200.0
 20
220.0
 30
0.0
 40
96.826522
  0
ARC
  5
198
100
AcDbEntity
  8
0
100
AcDbCircle
 10
200.000002
 20
220.027344
 30
0.0
 40
83.67803
100
AcDbArc
 50
103.982302
 51
76.017698
  0
LINE
  5
1A5
100
AcDbEntity
  8
0
100
AcDbLine
 10
582.408693
 20
315.070501
 30
0.0
 11
577.353086
 21
320.122857
 31
0.0
  0
LINE
  5
1A6
100
AcDbEntity
  8
0
100
AcDbLine
 10
577.353086
 20
320.122857
 30
0.0
 11
562.413496
 21
320.122857
 31
0.0
  0
LINE
  5
1A7
100
AcDbEntity
  8
0
100
AcDbLine
 10
562.413496
 20
320.122857
 30
0.0
 11
557.414694
 21
314.956965
 31
0.0
  0
LINE
  5
1AA
100
AcDbEntity
  8
0
100
AcDbLine
 10
582.38213
 20
125.423202
 30
0.0
 11
577.400699
 21
120.318409
 31
0.0
  0
LINE
  5
1AB
100
AcDbEntity
  8
0
100
AcDbLine
 10
577.400699
 20
120.318409
 30
0.0
 11
562.414201
 21
120.276222
 31
0.0
  0
LINE
  5
1AC
100
AcDbEntity
  8
0
100
AcDbLine
 10
562.414201
 20
120.276222
 30
0.0
 11
557.390559
 21
125.381014
 31
0.0
  0
LINE
  5
1AD
100
AcDbEntity
  8
2
100
AcDbLine
 10
582.370705
 20
310.48982
 30
0.0
 11
579.544876
 21
309.875907
 31
0.0
  0
LINE
  5
1AE
100
AcDbEntity
  8
2
100
AcDbLine
 10
579.544876
 20
309.875907
 30
0.0
 11
579.544876
 21
297.720385
 31
0.0
  0
LINE
  5
1AF
100
AcDbEntity
  8
2
100
AcDbLine
 10
579.544876
 20
297.720385
 30
0.0
 11
575.859022
 21
296.24699
 31
0.0
  0
LINE
  5
1B0
100
AcDbEntity
  8
2
100
AcDbLine
 10
575.859022
 20
296.24699
 30
0.0
 11
577.210503
 21
266.779058
 31
0.0
  0
LINE
  5
1B1
100
AcDbEntity
  8
2
100
AcDbLine
 10
557.429725
 20
294.036895
 30
0.0
 11
564.924304
 21
291.826798
 31
0.0
  0
LINE
  5
1B2
100
AcDbEntity
  8
2
100
AcDbLine
 10
564.924304
 20
291.826798
 30
0.0
 11
566.152925
 21
265.919578
 31
0.0
  0
LINE
  5
1B3
100
AcDbEntity
  8
2
100
AcDbLine
 10
577.824809
 20
309.384774
 30
0.0
 11
579.544876
 21
309.384774
 31
0.0
  0
LINE
  5
1B4
100
AcDbEntity
  8
2
100
AcDbLine
 10
575.244711
 20
301.035526
 30
0.0
 11
579.422016
 21
301.035526
 31
0.0
  0
LINE
  5
1B5
100
AcDbEntity
  8
2
100
AcDbLine
 10
575.121846
 20
300.176046
 30
0.0
 11
579.544876
 21
300.176046
 31
0.0
  0
LINE
  5
1B6
100
AcDbEntity
  8
2
100
AcDbLine
 10
582.370709
 20
130.489882
 30
0.0
 11
574.016094
 21
131.840494
 31
0.0
  0
LINE
  5
1B7
100
AcDbEntity
  8
2
100
AcDbLine
 10
574.016094
 20
131.840494
 30
0.0
 11
577.210503
 21
173.586728
 31
0.0
  0
LINE
  5
1B8
100
AcDbEntity
  8
2
100
AcDbLine
 10
557.42973
 20
131.840494
 30
0.0
 11
558.412626
 21
132.577193
 31
0.0
  0
LINE
  5
1B9
100
AcDbEntity
  8
2
100
AcDbLine
 10
558.412626
 20
132.577193
 30
0.0
 11
562.34421
 21
133.191109
 31
0.0
  0
LINE
  5
1BA
100
AcDbEntity
  8
2
100
AcDbLine
 10
562.34421
 20
133.191109
 30
0.0
 11
566.27579
 21
174.323428
 31
0.0
  0
CIRCLE
  5
1D7
100
AcDbEntity
  8
0
100
AcDbCircle
 10
200.008866
 20
220.202052
 30
0.0
 40
37.5
  0
LINE
  5
229
100
AcDbEntity
  8
2
100
AcDbLine
 10
585.158066
 20
258.094097
 30
0.0
 11
585.158066
 21
252.653369
 31
0.0
  0
LINE
  5
22A
100
AcDbEntity
  8
2
100
AcDbLine
 10
564.470435
 20
258.094097
 30
0.0
 11
564.470435
 21
220.190366
 31
0.0
  0
LINE
  5
22B
100
AcDbEntity
  8
2
100
AcDbLine
 10
585.158066
 20
182.286636
 30
0.0
 11
585.158066
 21
187.727363
 31
0.0
  0
LINE
  5
22C
100
AcDbEntity
  8
2
100
AcDbLine
 10
564.470435
 20
182.286636
 30
0.0
 11
564.470435
 21
220.190366
 31
0.0
  0
CIRCLE
  5
29B
100
AcDbEntity
  8
0
100
AcDbCircle
 10
200.008866
 20
305.202052
 30
0.0
 40
5.0
  0
CIRCLE
  5
29C
100
AcDbEntity
  8
0
100
AcDbCircle
 10
200.008866
 20
305.202052
 30
0.0
 40
4.0
  0
ENDSEC
  0
SECTION
  2
OBJECTS
  0
DICTIONARY
  5
273
100
AcDbDictionary
  3
ACAD_GROUP
350
274
  3
ACAD_MLINESTYLE
350
281
  3
ACDBVARIABLEDICTIONARY
350
295
  0
DICTIONARY
  5
274
102
{ACAD_REACTORS
330
273
102
}
100
AcDbDictionary
  0
DICTIONARY
  5
281
102
{ACAD_REACTORS
330
273
102
}
100
AcDbDictionary
  3
STANDARD
350
282
  0
DICTIONARY
  5
295
102
{ACAD_REACTORS
330
273
102
}
100
AcDbDictionary
  3
DIMADEC
350
296
  0
MLINESTYLE
  5
282
102
{ACAD_REACTORS
330
281
102
}
100
AcDbMlineStyle
  2
STANDARD
 70
     0
  3

 62
   256
 51
90.0
 52
90.0
 71
     2
 49
0.5
 62
   256
  6
BYLAYER
 49
-0.5
 62
   256
  6
BYLAYER
  0
DICTIONARYVAR
  5
296
102
{ACAD_REACTORS
330
295
102
}
100
DictionaryVariables
280
     0
  1
0
  0
ENDSEC
  0
EOF
