  0
SECTION
  2
HEADER
  9
$ACADVER
  1
AC1014
  9
$ACADMAINTVER
 70
     0
  9
$DWGCODEPAGE
  3
ANSI_932
  9
$INSBASE
 10
0.0
 20
0.0
 30
0.0
  9
$EXTMIN
 10
53.5
 20
60.5
 30
0.0
  9
$EXTMAX
 10
449.5
 20
262.5
 30
0.0
  9
$LIMMIN
 10
0.0
 20
0.0
  9
$LIMMAX
 10
500.0
 20
320.0
  9
$ORTHOMODE
 70
     1
  9
$REGENMODE
 70
     1
  9
$FILLMODE
 70
     1
  9
$QTEXTMODE
 70
     0
  9
$MIRRTEXT
 70
     1
  9
$DRAGMODE
 70
     2
  9
$LTSCALE
 40
1.0
  9
$OSMODE
 70
    32
  9
$ATTMODE
 70
     1
  9
$TEXTSIZE
 40
2.5
  9
$TRACEWID
 40
0.05
  9
$TEXTSTYLE
  7
BIGFONT
  9
$CLAYER
  8
2
  9
$CELTYPE
  6
BYLAYER
  9
$CECOLOR
 62
   256
  9
$CELTSCALE
 40
1.0
  9
$DELOBJ
 70
     1
  9
$DISPSILH
 70
     0
  9
$DIMSCALE
 40
1.0
  9
$DIMASZ
 40
0.18
  9
$DIMEXO
 40
0.0625
  9
$DIMDLI
 40
0.38
  9
$DIMRND
 40
0.0
  9
$DIMDLE
 40
0.0
  9
$DIMEXE
 40
0.18
  9
$DIMTP
 40
0.0
  9
$DIMTM
 40
0.0
  9
$DIMTXT
 40
0.18
  9
$DIMCEN
 40
0.09
  9
$DIMTSZ
 40
0.0
  9
$DIMTOL
 70
     0
  9
$DIMLIM
 70
     0
  9
$DIMTIH
 70
     1
  9
$DIMTOH
 70
     1
  9
$DIMSE1
 70
     0
  9
$DIMSE2
 70
     0
  9
$DIMTAD
 70
     0
  9
$DIMZIN
 70
     0
  9
$DIMBLK
  1

  9
$DIMASO
 70
     1
  9
$DIMSHO
 70
     1
  9
$DIMPOST
  1

  9
$DIMAPOST
  1

  9
$DIMALT
 70
     0
  9
$DIMALTD
 70
     2
  9
$DIMALTF
 40
25.4
  9
$DIMLFAC
 40
1.0
  9
$DIMTOFL
 70
     0
  9
$DIMTVP
 40
0.0
  9
$DIMTIX
 70
     0
  9
$DIMSOXD
 70
     0
  9
$DIMSAH
 70
     0
  9
$DIMBLK1
  1

  9
$DIMBLK2
  1

  9
$DIMSTYLE
  2
STANDARD
  9
$DIMCLRD
 70
     0
  9
$DIMCLRE
 70
     0
  9
$DIMCLRT
 70
     0
  9
$DIMTFAC
 40
1.0
  9
$DIMGAP
 40
0.09
  9
$DIMJUST
 70
     0
  9
$DIMSD1
 70
     0
  9
$DIMSD2
 70
     0
  9
$DIMTOLJ
 70
     1
  9
$DIMTZIN
 70
     0
  9
$DIMALTZ
 70
     0
  9
$DIMALTTZ
 70
     0
  9
$DIMFIT
 70
     5
  9
$DIMUPT
 70
     0
  9
$DIMUNIT
 70
     2
  9
$DIMDEC
 70
     4
  9
$DIMTDEC
 70
     4
  9
$DIMALTU
 70
     2
  9
$DIMALTTD
 70
     2
  9
$DIMTXSTY
  7
BIGFONT
  9
$DIMAUNIT
 70
     0
  9
$LUNITS
 70
     2
  9
$LUPREC
 70
     4
  9
$SKETCHINC
 40
0.1
  9
$FILLETRAD
 40
0.0
  9
$AUNITS
 70
     0
  9
$AUPREC
 70
     0
  9
$MENU
  1
acad
  9
$ELEVATION
 40
0.0
  9
$PELEVATION
 40
0.0
  9
$THICKNESS
 40
0.0
  9
$LIMCHECK
 70
     0
  9
$BLIPMODE
 70
     0
  9
$CHAMFERA
 40
0.0
  9
$CHAMFERB
 40
0.0
  9
$CHAMFERC
 40
0.0
  9
$CHAMFERD
 40
0.0
  9
$SKPOLY
 70
     0
  9
$TDCREATE
 40
2450870.980542129
  9
$TDUPDATE
 40
2453593.672673969
  9
$TDINDWG
 40
0.0010089352
  9
$TDUSRTIMER
 40
0.0010089352
  9
$USRTIMER
 70
     1
  9
$ANGBASE
 50
0.0
  9
$ANGDIR
 70
     0
  9
$PDMODE
 70
     0
  9
$PDSIZE
 40
0.0
  9
$PLINEWID
 40
0.0
  9
$COORDS
 70
     2
  9
$SPLFRAME
 70
     0
  9
$SPLINETYPE
 70
     6
  9
$SPLINESEGS
 70
     8
  9
$ATTDIA
 70
     0
  9
$ATTREQ
 70
     1
  9
$HANDLING
 70
     1
  9
$HANDSEED
  5
258
  9
$SURFTAB1
 70
     6
  9
$SURFTAB2
 70
     6
  9
$SURFTYPE
 70
     6
  9
$SURFU
 70
     6
  9
$SURFV
 70
     6
  9
$UCSNAME
  2

  9
$UCSORG
 10
0.0
 20
0.0
 30
0.0
  9
$UCSXDIR
 10
1.0
 20
0.0
 30
0.0
  9
$UCSYDIR
 10
0.0
 20
1.0
 30
0.0
  9
$PUCSNAME
  2

  9
$PUCSORG
 10
0.0
 20
0.0
 30
0.0
  9
$PUCSXDIR
 10
1.0
 20
0.0
 30
0.0
  9
$PUCSYDIR
 10
0.0
 20
1.0
 30
0.0
  9
$USERI1
 70
     0
  9
$USERI2
 70
     0
  9
$USERI3
 70
     0
  9
$USERI4
 70
     0
  9
$USERI5
 70
     0
  9
$USERR1
 40
0.0
  9
$USERR2
 40
0.0
  9
$USERR3
 40
0.0
  9
$USERR4
 40
0.0
  9
$USERR5
 40
0.0
  9
$WORLDVIEW
 70
     1
  9
$SHADEDGE
 70
     3
  9
$SHADEDIF
 70
    70
  9
$TILEMODE
 70
     1
  9
$MAXACTVP
 70
    16
  9
$PINSBASE
 10
0.0
 20
0.0
 30
0.0
  9
$PLIMCHECK
 70
     0
  9
$PEXTMIN
 10
1.000000E+20
 20
1.000000E+20
 30
1.000000E+20
  9
$PEXTMAX
 10
-1.000000E+20
 20
-1.000000E+20
 30
-1.000000E+20
  9
$PLIMMIN
 10
0.0
 20
0.0
  9
$PLIMMAX
 10
12.0
 20
9.0
  9
$UNITMODE
 70
     0
  9
$VISRETAIN
 70
     0
  9
$PLINEGEN
 70
     0
  9
$PSLTSCALE
 70
     1
  9
$TREEDEPTH
 70
  3020
  9
$PICKSTYLE
 70
     1
  9
$CMLSTYLE
  2
STANDARD
  9
$CMLJUST
 70
     0
  9
$CMLSCALE
 40
1.0
  9
$PROXYGRAPHICS
 70
     1
  9
$MEASUREMENT
 70
     0
  0
ENDSEC
  0
SECTION
  2
CLASSES
  0
CLASS
  1
DICTIONARYVAR
  2
AcDbDictionaryVar
  3
"AutoCAD"
 90
        0
280
     0
281
     0
  0
ENDSEC
  0
SECTION
  2
TABLES
  0
TABLE
  2
VPORT
  5
227
100
AcDbSymbolTable
 70
     4
  0
VPORT
  5
257
100
AcDbSymbolTableRecord
100
AcDbViewportTableRecord
  2
*ACTIVE
 70
     0
 10
0.0
 20
0.0
 11
1.0
 21
1.0
 12
283.779528
 22
197.763453
 13
0.0
 23
0.0
 14
10.0
 24
10.0
 15
20.0
 25
20.0
 16
0.0
 26
0.0
 36
1.0
 17
0.0
 27
0.0
 37
0.0
 40
395.526906
 41
1.434944
 42
50.0
 43
0.0
 44
0.0
 50
0.0
 51
0.0
 71
     0
 72
 20000
 73
     1
 74
     1
 75
     0
 76
     0
 77
     0
 78
     0
  0
ENDTAB
  0
TABLE
  2
LTYPE
  5
224
100
AcDbSymbolTable
 70
     4
  0
LTYPE
  5
230
100
AcDbSymbolTableRecord
100
AcDbLinetypeTableRecord
  2
BYBLOCK
 70
     0
  3

 72
    65
 73
     0
 40
0.0
  0
LTYPE
  5
231
100
AcDbSymbolTableRecord
100
AcDbLinetypeTableRecord
  2
BYLAYER
 70
     0
  3

 72
    65
 73
     0
 40
0.0
  0
LTYPE
  5
232
100
AcDbSymbolTableRecord
100
AcDbLinetypeTableRecord
  2
CONTINUOUS
 70
     0
  3
Solid line
 72
    65
 73
     0
 40
0.0
  0
LTYPE
  5
23C
100
AcDbSymbolTableRecord
100
AcDbLinetypeTableRecord
  2
TENSEN1
 70
     0
  3

 72
    65
 73
     2
 40
0.4
 49
0.3
 74
     0
 49
-0.1
 74
     0
  0
LTYPE
  5
23D
100
AcDbSymbolTableRecord
100
AcDbLinetypeTableRecord
  2
ITTEN1
 70
     0
  3

 72
    65
 73
     4
 40
8.2
 49
5.0
 74
     0
 49
-1.0
 74
     0
 49
1.2
 74
     0
 49
-1.0
 74
     0
  0
LTYPE
  5
23E
100
AcDbSymbolTableRecord
100
AcDbLinetypeTableRecord
  2
TENSEN2
 70
     0
  3

 72
    65
 73
     2
 40
2.1
 49
1.5
 74
     0
 49
-0.6
 74
     0
  0
ENDTAB
  0
TABLE
  2
LAYER
  5
221
100
AcDbSymbolTable
 70
     4
  0
LAYER
  5
22D
100
AcDbSymbolTableRecord
100
AcDbLayerTableRecord
  2
0
 70
     0
 62
     7
  6
CONTINUOUS
  0
LAYER
  5
241
100
AcDbSymbolTableRecord
100
AcDbLayerTableRecord
  2
1
 70
     0
 62
     1
  6
ITTEN1
  0
LAYER
  5
242
100
AcDbSymbolTableRecord
100
AcDbLayerTableRecord
  2
2
 70
     0
 62
     2
  6
TENSEN2
  0
LAYER
  5
243
100
AcDbSymbolTableRecord
100
AcDbLayerTableRecord
  2
3
 70
     0
 62
     3
  6
CONTINUOUS
  0
ENDTAB
  0
TABLE
  2
STYLE
  5
222
100
AcDbSymbolTable
 70
     2
  0
STYLE
  5
22E
100
AcDbSymbolTableRecord
100
AcDbTextStyleTableRecord
  2
STANDARD
 70
     0
 40
0.0
 41
1.0
 50
0.0
 71
     0
 42
0.2
  3
txt
  4

  0
STYLE
  5
23B
100
AcDbSymbolTableRecord
100
AcDbTextStyleTableRecord
  2
BIGFONT
 70
     0
 40
2.5
 41
1.0
 50
0.0
 71
     0
 42
2.5
  3

  4
bigfont
  0
ENDTAB
  0
TABLE
  2
VIEW
  5
225
100
AcDbSymbolTable
 70
     0
  0
ENDTAB
  0
TABLE
  2
UCS
  5
226
100
AcDbSymbolTable
 70
     0
  0
ENDTAB
  0
TABLE
  2
APPID
  5
228
100
AcDbSymbolTable
 70
     1
  0
APPID
  5
22F
100
AcDbSymbolTableRecord
100
AcDbRegAppTableRecord
  2
ACAD
 70
     0
  0
ENDTAB
  0
TABLE
  2
DIMSTYLE
  5
229
100
AcDbSymbolTable
 70
     1
  0
DIMSTYLE
105
240
100
AcDbSymbolTableRecord
100
AcDbDimStyleTableRecord
  2
STANDARD
 70
     0
  3

  4

  5

  6

  7

 40
1.0
 41
0.18
 42
0.0625
 43
0.38
 44
0.18
 45
0.0
 46
0.0
 47
0.0
 48
0.0
140
0.18
141
0.09
142
0.0
143
25.4
144
1.0
145
0.0
146
1.0
147
0.09
 71
     0
 72
     0
 73
     1
 74
     1
 75
     0
 76
     0
 77
     0
 78
     0
170
     0
171
     2
172
     0
173
     0
174
     0
175
     0
176
     0
177
     0
178
     0
270
     2
271
     4
272
     4
273
     2
274
     2
340
23B
275
     0
280
     0
281
     0
282
     0
283
     1
284
     0
285
     0
286
     0
287
     5
288
     0
  0
ENDTAB
  0
TABLE
  2
BLOCK_RECORD
  5
220
100
AcDbSymbolTable
 70
     0
  0
BLOCK_RECORD
  5
236
100
AcDbSymbolTableRecord
100
AcDbBlockTableRecord
  2
*MODEL_SPACE
  0
BLOCK_RECORD
  5
233
100
AcDbSymbolTableRecord
100
AcDbBlockTableRecord
  2
*PAPER_SPACE
  0
ENDTAB
  0
ENDSEC
  0
SECTION
  2
BLOCKS
  0
BLOCK
  5
246
100
AcDbEntity
  8
0
100
AcDbBlockBegin
  2
*MODEL_SPACE
 70
     0
 10
0.0
 20
0.0
 30
0.0
  3
*MODEL_SPACE
  1

  0
ENDBLK
  5
247
100
AcDbEntity
  8
0
100
AcDbBlockEnd
  0
BLOCK
  5
244
100
AcDbEntity
 67
     1
  8
0
100
AcDbBlockBegin
  2
*PAPER_SPACE
 70
     0
 10
0.0
 20
0.0
 30
0.0
  3
*PAPER_SPACE
  1

  0
ENDBLK
  5
245
100
AcDbEntity
 67
     1
  8
0
100
AcDbBlockEnd
  0
ENDSEC
  0
SECTION
  2
ENTITIES
  0
LINE
  5
46
100
AcDbEntity
  8
1
100
AcDbLine
 10
53.5
 20
160.0
 30
0.0
 11
267.5
 21
160.0
 31
0.0
  0
CIRCLE
  5
47
100
AcDbEntity
  8
0
100
AcDbCircle
 10
160.0
 20
160.0
 30
0.0
 40
90.0
  0
CIRCLE
  5
48
100
AcDbEntity
  8
0
100
AcDbCircle
 10
160.0
 20
160.0
 30
0.0
 40
87.0
  0
LINE
  5
4A
100
AcDbEntity
  8
1
100
AcDbLine
 10
140.5
 20
232.0
 30
0.0
 11
181.5
 21
232.0
 31
0.0
  0
ARC
  5
4B
100
AcDbEntity
  8
0
100
AcDbCircle
 10
160.0
 20
232.0
 30
0.0
 40
13.0
100
AcDbArc
 50
180.0
 51
0.0
  0
ARC
  5
4C
100
AcDbEntity
  8
0
100
AcDbCircle
 10
176.5
 20
232.5
 30
0.0
 40
3.535534
100
AcDbArc
 50
81.869898
 51
188.130102
  0
ARC
  5
4D
100
AcDbEntity
  8
0
100
AcDbCircle
 10
142.75
 20
231.75
 30
0.0
 40
4.257347
100
AcDbArc
 50
3.366461
 51
86.633539
  0
ARC
  5
4F
100
AcDbEntity
  8
0
100
AcDbCircle
 10
160.0
 20
160.0
 30
0.0
 40
78.0
100
AcDbArc
 50
102.681664
 51
77.412286
  0
CIRCLE
  5
50
100
AcDbEntity
  8
0
100
AcDbCircle
 10
160.0
 20
160.0
 30
0.0
 40
42.0
  0
LINE
  5
51
100
AcDbEntity
  8
1
100
AcDbLine
 10
160.0
 20
262.5
 30
0.0
 11
160.0
 21
60.5
 31
0.0
  0
CIRCLE
  5
59
100
AcDbEntity
  8
2
100
AcDbCircle
 10
160.0
 20
160.0
 30
0.0
 40
43.0
  0
LINE
  5
5A
100
AcDbEntity
  8
2
100
AcDbLine
 10
202.5
 20
163.0
 30
0.0
 11
197.0
 21
163.0
 31
0.0
  0
LINE
  5
5B
100
AcDbEntity
  8
2
100
AcDbLine
 10
202.5
 20
162.5
 30
0.0
 11
197.5
 21
162.5
 31
0.0
  0
LINE
  5
5C
100
AcDbEntity
  8
2
100
AcDbLine
 10
202.5
 20
157.5
 30
0.0
 11
197.5
 21
157.5
 31
0.0
  0
LINE
  5
5D
100
AcDbEntity
  8
2
100
AcDbLine
 10
202.5
 20
157.0
 30
0.0
 11
197.0
 21
157.0
 31
0.0
  0
LINE
  5
CB
100
AcDbEntity
  8
1
100
AcDbLine
 10
416.5
 20
232.0
 30
0.0
 11
374.37351
 21
232.0
 31
0.0
  0
LINE
  5
CE
100
AcDbEntity
  8
1
100
AcDbLine
 10
356.0
 20
160.0
 30
0.0
 11
396.0
 21
160.0
 31
0.0
  0
LINE
  5
D0
100
AcDbEntity
  8
0
100
AcDbLine
 10
443.0
 20
160.0
 30
0.0
 11
443.0
 21
138.5
 31
0.0
  0
LINE
  5
D3
100
AcDbEntity
  8
0
100
AcDbLine
 10
421.0
 20
160.0
 30
0.0
 11
421.0
 21
120.0
 31
0.0
  0
LINE
  5
D4
100
AcDbEntity
  8
1
100
AcDbLine
 10
403.5
 20
172.0
 30
0.0
 11
403.5
 21
147.5
 31
0.0
  0
LINE
  5
D5
100
AcDbEntity
  8
2
100
AcDbLine
 10
390.0
 20
160.0
 30
0.0
 11
390.0
 21
123.0
 31
0.0
  0
LINE
  5
D8
100
AcDbEntity
  8
1
100
AcDbLine
 10
396.0
 20
160.0
 30
0.0
 11
396.0
 21
62.5
 31
0.0
  0
LINE
  5
D9
100
AcDbEntity
  8
0
100
AcDbLine
 10
407.0
 20
160.0
 30
0.0
 11
407.0
 21
73.0
 31
0.0
  0
LINE
  5
DA
100
AcDbEntity
  8
0
100
AcDbLine
 10
401.5
 20
70.0
 30
0.0
 11
401.5
 21
160.0
 31
0.0
  0
LINE
  5
DB
100
AcDbEntity
  8
0
100
AcDbLine
 10
390.5
 20
70.0
 30
0.0
 11
390.5
 21
160.0
 31
0.0
  0
LINE
  5
DC
100
AcDbEntity
  8
0
100
AcDbLine
 10
385.0
 20
160.0
 30
0.0
 11
385.0
 21
73.0
 31
0.0
  0
LINE
  5
DD
100
AcDbEntity
  8
2
100
AcDbLine
 10
416.5
 20
124.0
 30
0.0
 11
416.5
 21
196.0
 31
0.0
  0
LINE
  5
DE
100
AcDbEntity
  8
0
100
AcDbLine
 10
442.0
 20
137.5
 30
0.0
 11
421.0
 21
137.5
 31
0.0
  0
LINE
  5
DF
100
AcDbEntity
  8
2
100
AcDbLine
 10
401.0
 20
117.0
 30
0.0
 11
396.0
 21
82.0
 31
0.0
  0
LINE
  5
E0
100
AcDbEntity
  8
2
100
AcDbLine
 10
394.5
 20
116.0
 30
0.0
 11
389.5
 21
81.0
 31
0.0
  0
LINE
  5
E1
100
AcDbEntity
  8
0
100
AcDbLine
 10
396.0
 20
70.0
 30
0.0
 11
401.5
 21
70.0
 31
0.0
  0
LINE
  5
E2
100
AcDbEntity
  8
2
100
AcDbLine
 10
396.0
 20
82.0
 30
0.0
 11
407.0
 21
79.5
 31
0.0
  0
LINE
  5
E3
100
AcDbEntity
  8
0
100
AcDbLine
 10
396.0
 20
70.0
 30
0.0
 11
390.5
 21
70.0
 31
0.0
  0
LINE
  5
E4
100
AcDbEntity
  8
0
100
AcDbLine
 10
390.5
 20
70.0
 30
0.0
 11
385.0
 21
73.0
 31
0.0
  0
LINE
  5
E5
100
AcDbEntity
  8
2
100
AcDbLine
 10
389.5
 20
81.0
 30
0.0
 11
385.0
 21
79.5
 31
0.0
  0
LINE
  5
E6
100
AcDbEntity
  8
0
100
AcDbLine
 10
401.5
 20
70.0
 30
0.0
 11
407.0
 21
73.0
 31
0.0
  0
LINE
  5
E7
100
AcDbEntity
  8
2
100
AcDbLine
 10
390.0
 20
123.0
 30
0.0
 11
410.0
 21
123.0
 31
0.0
  0
LINE
  5
E8
100
AcDbEntity
  8
2
100
AcDbLine
 10
390.0
 20
123.0
 30
0.0
 11
390.0
 21
118.0
 31
0.0
  0
LINE
  5
E9
100
AcDbEntity
  8
2
100
AcDbLine
 10
390.0
 20
118.0
 30
0.0
 11
394.5
 21
116.0
 31
0.0
  0
LINE
  5
EA
100
AcDbEntity
  8
0
100
AcDbLine
 10
418.0
 20
117.0
 30
0.0
 11
407.0
 21
117.0
 31
0.0
  0
LINE
  5
EB
100
AcDbEntity
  8
2
100
AcDbLine
 10
416.5
 20
124.0
 30
0.0
 11
415.0
 21
123.0
 31
0.0
  0
LINE
  5
EC
100
AcDbEntity
  8
2
100
AcDbLine
 10
407.0
 20
117.0
 30
0.0
 11
401.0
 21
117.0
 31
0.0
  0
LINE
  5
ED
100
AcDbEntity
  8
2
100
AcDbLine
 10
410.0
 20
123.0
 30
0.0
 11
415.0
 21
123.0
 31
0.0
  0
ARC
  5
F0
100
AcDbEntity
  8
0
100
AcDbCircle
 10
417.935339
 20
120.064661
 30
0.0
 40
3.065343
100
AcDbArc
 50
271.208705
 51
358.791295
  0
ARC
  5
F3
100
AcDbEntity
  8
0
100
AcDbCircle
 10
442.019737
 20
138.480263
 30
0.0
 40
0.980462
100
AcDbArc
 50
268.846562
 51
1.153438
  0
LINE
  5
F4
100
AcDbEntity
  8
1
100
AcDbLine
 10
396.0
 20
160.0
 30
0.0
 11
396.0
 21
257.5
 31
0.0
  0
LINE
  5
F5
100
AcDbEntity
  8
0
100
AcDbLine
 10
442.0
 20
182.5
 30
0.0
 11
421.0
 21
182.5
 31
0.0
  0
LINE
  5
F6
100
AcDbEntity
  8
1
100
AcDbLine
 10
396.0
 20
160.0
 30
0.0
 11
449.5
 21
160.0
 31
0.0
  0
ARC
  5
F7
100
AcDbEntity
  8
0
100
AcDbCircle
 10
417.935339
 20
199.935339
 30
0.0
 40
3.065343
100
AcDbArc
 50
1.208705
 51
88.791295
  0
LINE
  5
F8
100
AcDbEntity
  8
2
100
AcDbLine
 10
390.0
 20
202.0
 30
0.0
 11
394.5
 21
204.0
 31
0.0
  0
LINE
  5
F9
100
AcDbEntity
  8
2
100
AcDbLine
 10
401.0
 20
203.0
 30
0.0
 11
396.0
 21
238.0
 31
0.0
  0
LINE
  5
FA
100
AcDbEntity
  8
0
100
AcDbLine
 10
385.0
 20
160.0
 30
0.0
 11
385.0
 21
247.0
 31
0.0
  0
LINE
  5
FB
100
AcDbEntity
  8
0
100
AcDbLine
 10
390.5
 20
250.0
 30
0.0
 11
390.5
 21
160.0
 31
0.0
  0
LINE
  5
FC
100
AcDbEntity
  8
0
100
AcDbLine
 10
401.5
 20
250.0
 30
0.0
 11
401.5
 21
160.0
 31
0.0
  0
LINE
  5
FD
100
AcDbEntity
  8
0
100
AcDbLine
 10
407.0
 20
160.0
 30
0.0
 11
407.0
 21
247.0
 31
0.0
  0
LINE
  5
FE
100
AcDbEntity
  8
2
100
AcDbLine
 10
390.0
 20
197.0
 30
0.0
 11
410.0
 21
197.0
 31
0.0
  0
LINE
  5
FF
100
AcDbEntity
  8
2
100
AcDbLine
 10
390.0
 20
160.0
 30
0.0
 11
390.0
 21
197.0
 31
0.0
  0
LINE
  5
108
100
AcDbEntity
  8
0
100
AcDbLine
 10
421.0
 20
160.0
 30
0.0
 11
421.0
 21
200.0
 31
0.0
  0
CIRCLE
  5
10A
100
AcDbEntity
  8
2
100
AcDbCircle
 10
403.5
 20
160.0
 30
0.0
 40
2.5
  0
CIRCLE
  5
10B
100
AcDbEntity
  8
2
100
AcDbCircle
 10
403.5
 20
160.0
 30
0.0
 40
3.0
  0
LINE
  5
112
100
AcDbEntity
  8
2
100
AcDbLine
 10
416.5
 20
196.0
 30
0.0
 11
415.0
 21
197.0
 31
0.0
  0
LINE
  5
113
100
AcDbEntity
  8
0
100
AcDbLine
 10
418.0
 20
203.0
 30
0.0
 11
407.0
 21
203.0
 31
0.0
  0
LINE
  5
114
100
AcDbEntity
  8
2
100
AcDbLine
 10
407.0
 20
203.0
 30
0.0
 11
401.0
 21
203.0
 31
0.0
  0
LINE
  5
115
100
AcDbEntity
  8
2
100
AcDbLine
 10
410.0
 20
197.0
 30
0.0
 11
415.0
 21
197.0
 31
0.0
  0
LINE
  5
118
100
AcDbEntity
  8
0
100
AcDbLine
 10
396.0
 20
250.0
 30
0.0
 11
401.5
 21
250.0
 31
0.0
  0
LINE
  5
119
100
AcDbEntity
  8
2
100
AcDbLine
 10
396.0
 20
238.0
 30
0.0
 11
407.0
 21
240.5
 31
0.0
  0
LINE
  5
11E
100
AcDbEntity
  8
2
100
AcDbLine
 10
394.5
 20
204.0
 30
0.0
 11
392.5
 21
219.0
 31
0.0
  0
LINE
  5
11F
100
AcDbEntity
  8
2
100
AcDbLine
 10
392.5
 20
219.0
 30
0.0
 11
385.0
 21
219.0
 31
0.0
  0
LINE
  5
125
100
AcDbEntity
  8
0
100
AcDbLine
 10
396.0
 20
250.0
 30
0.0
 11
390.5
 21
250.0
 31
0.0
  0
LINE
  5
126
100
AcDbEntity
  8
0
100
AcDbLine
 10
390.5
 20
250.0
 30
0.0
 11
385.0
 21
247.0
 31
0.0
  0
LINE
  5
127
100
AcDbEntity
  8
0
100
AcDbLine
 10
401.5
 20
250.0
 30
0.0
 11
407.0
 21
247.0
 31
0.0
  0
LINE
  5
128
100
AcDbEntity
  8
0
100
AcDbLine
 10
443.0
 20
160.0
 30
0.0
 11
443.0
 21
181.5
 31
0.0
  0
ARC
  5
129
100
AcDbEntity
  8
0
100
AcDbCircle
 10
442.019737
 20
181.519737
 30
0.0
 40
0.980462
100
AcDbArc
 50
358.846562
 51
91.153438
  0
CIRCLE
  5
19B
100
AcDbEntity
  8
0
100
AcDbCircle
 10
160.0
 20
160.0
 30
0.0
 40
37.5
  0
CIRCLE
  5
24E
100
AcDbEntity
  8
0
100
AcDbCircle
 10
160.0
 20
232.0
 30
0.0
 40
5.0
  0
CIRCLE
  5
24F
100
AcDbEntity
  8
0
100
AcDbCircle
 10
160.0
 20
232.0
 30
0.0
 40
4.0
  0
LINE
  5
251
100
AcDbEntity
  8
2
100
AcDbLine
 10
385.0
 20
237.0
 30
0.0
 11
396.142857
 21
237.0
 31
0.0
  0
LINE
  5
253
100
AcDbEntity
  8
2
100
AcDbLine
 10
396.285714
 20
236.0
 30
0.0
 11
385.0
 21
236.0
 31
0.0
  0
LINE
  5
254
100
AcDbEntity
  8
2
100
AcDbLine
 10
396.285714
 20
228.0
 30
0.0
 11
385.0
 21
228.0
 31
0.0
  0
LINE
  5
255
100
AcDbEntity
  8
2
100
AcDbLine
 10
385.0
 20
227.0
 30
0.0
 11
396.142857
 21
227.0
 31
0.0
  0
ENDSEC
  0
SECTION
  2
OBJECTS
  0
DICTIONARY
  5
22B
100
AcDbDictionary
  3
ACAD_GROUP
350
22C
  3
ACAD_MLINESTYLE
350
239
  3
ACDBVARIABLEDICTIONARY
350
248
  0
DICTIONARY
  5
22C
102
{ACAD_REACTORS
330
22B
102
}
100
AcDbDictionary
  0
DICTIONARY
  5
239
102
{ACAD_REACTORS
330
22B
102
}
100
AcDbDictionary
  3
STANDARD
350
23A
  0
DICTIONARY
  5
248
102
{ACAD_REACTORS
330
22B
102
}
100
AcDbDictionary
  3
DIMADEC
350
249
  0
MLINESTYLE
  5
23A
102
{ACAD_REACTORS
330
239
102
}
100
AcDbMlineStyle
  2
STANDARD
 70
     0
  3

 62
   256
 51
90.0
 52
90.0
 71
     2
 49
0.5
 62
   256
  6
BYLAYER
 49
-0.5
 62
   256
  6
BYLAYER
  0
DICTIONARYVAR
  5
249
102
{ACAD_REACTORS
330
248
102
}
100
DictionaryVariables
280
     0
  1
0
  0
ENDSEC
  0
EOF
