  0
SECTION
  2
HEADER
  9
$ACADVER
  1
AC1014
  9
$ACADMAINTVER
 70
     0
  9
$DWGCODEPAGE
  3
ANSI_932
  9
$INSBASE
 10
0.0
 20
0.0
 30
0.0
  9
$EXTMIN
 10
39.099438
 20
62.628377
 30
0.0
  9
$EXTMAX
 10
369.5
 20
213.641892
 30
0.0
  9
$LIMMIN
 10
0.0
 20
0.0
  9
$LIMMAX
 10
400.0
 20
280.0
  9
$ORTHOMODE
 70
     0
  9
$REGENMODE
 70
     1
  9
$FILLMODE
 70
     1
  9
$QTEXTMODE
 70
     0
  9
$MIRRTEXT
 70
     1
  9
$DRAGMODE
 70
     2
  9
$LTSCALE
 40
1.0
  9
$OSMODE
 70
    32
  9
$ATTMODE
 70
     1
  9
$TEXTSIZE
 40
10.0
  9
$TRACEWID
 40
0.05
  9
$TEXTSTYLE
  7
BIGFONT
  9
$CLAYER
  8
0
  9
$CELTYPE
  6
BYLAYER
  9
$CECOLOR
 62
   256
  9
$CELTSCALE
 40
1.0
  9
$DELOBJ
 70
     1
  9
$DISPSILH
 70
     0
  9
$DIMSCALE
 40
1.0
  9
$DIMASZ
 40
0.18
  9
$DIMEXO
 40
0.0625
  9
$DIMDLI
 40
0.38
  9
$DIMRND
 40
0.0
  9
$DIMDLE
 40
0.0
  9
$DIMEXE
 40
0.18
  9
$DIMTP
 40
0.0
  9
$DIMTM
 40
0.0
  9
$DIMTXT
 40
0.18
  9
$DIMCEN
 40
0.09
  9
$DIMTSZ
 40
0.0
  9
$DIMTOL
 70
     0
  9
$DIMLIM
 70
     0
  9
$DIMTIH
 70
     1
  9
$DIMTOH
 70
     1
  9
$DIMSE1
 70
     0
  9
$DIMSE2
 70
     0
  9
$DIMTAD
 70
     0
  9
$DIMZIN
 70
     0
  9
$DIMBLK
  1

  9
$DIMASO
 70
     1
  9
$DIMSHO
 70
     1
  9
$DIMPOST
  1

  9
$DIMAPOST
  1

  9
$DIMALT
 70
     0
  9
$DIMALTD
 70
     2
  9
$DIMALTF
 40
25.4
  9
$DIMLFAC
 40
1.0
  9
$DIMTOFL
 70
     0
  9
$DIMTVP
 40
0.0
  9
$DIMTIX
 70
     0
  9
$DIMSOXD
 70
     0
  9
$DIMSAH
 70
     0
  9
$DIMBLK1
  1

  9
$DIMBLK2
  1

  9
$DIMSTYLE
  2
STANDARD
  9
$DIMCLRD
 70
     0
  9
$DIMCLRE
 70
     0
  9
$DIMCLRT
 70
     0
  9
$DIMTFAC
 40
1.0
  9
$DIMGAP
 40
0.09
  9
$DIMJUST
 70
     0
  9
$DIMSD1
 70
     0
  9
$DIMSD2
 70
     0
  9
$DIMTOLJ
 70
     1
  9
$DIMTZIN
 70
     0
  9
$DIMALTZ
 70
     0
  9
$DIMALTTZ
 70
     0
  9
$DIMFIT
 70
     5
  9
$DIMUPT
 70
     0
  9
$DIMUNIT
 70
     2
  9
$DIMDEC
 70
     4
  9
$DIMTDEC
 70
     4
  9
$DIMALTU
 70
     2
  9
$DIMALTTD
 70
     2
  9
$DIMTXSTY
  7
BIGFONT
  9
$DIMAUNIT
 70
     0
  9
$LUNITS
 70
     2
  9
$LUPREC
 70
     4
  9
$SKETCHINC
 40
0.1
  9
$FILLETRAD
 40
0.0
  9
$AUNITS
 70
     0
  9
$AUPREC
 70
     0
  9
$MENU
  1
acad
  9
$ELEVATION
 40
0.0
  9
$PELEVATION
 40
0.0
  9
$THICKNESS
 40
0.0
  9
$LIMCHECK
 70
     0
  9
$BLIPMODE
 70
     0
  9
$CHAMFERA
 40
0.0
  9
$CHAMFERB
 40
0.0
  9
$CHAMFERC
 40
0.0
  9
$CHAMFERD
 40
0.0
  9
$SKPOLY
 70
     0
  9
$TDCREATE
 40
2450870.978377083
  9
$TDUPDATE
 40
2453550.787196354
  9
$TDINDWG
 40
0.0010698727
  9
$TDUSRTIMER
 40
0.0010698727
  9
$USRTIMER
 70
     1
  9
$ANGBASE
 50
0.0
  9
$ANGDIR
 70
     0
  9
$PDMODE
 70
     0
  9
$PDSIZE
 40
0.0
  9
$PLINEWID
 40
0.0
  9
$COORDS
 70
     2
  9
$SPLFRAME
 70
     0
  9
$SPLINETYPE
 70
     6
  9
$SPLINESEGS
 70
     8
  9
$ATTDIA
 70
     0
  9
$ATTREQ
 70
     1
  9
$HANDLING
 70
     1
  9
$HANDSEED
  5
232
  9
$SURFTAB1
 70
     6
  9
$SURFTAB2
 70
     6
  9
$SURFTYPE
 70
     6
  9
$SURFU
 70
     6
  9
$SURFV
 70
     6
  9
$UCSNAME
  2

  9
$UCSORG
 10
0.0
 20
0.0
 30
0.0
  9
$UCSXDIR
 10
1.0
 20
0.0
 30
0.0
  9
$UCSYDIR
 10
0.0
 20
1.0
 30
0.0
  9
$PUCSNAME
  2

  9
$PUCSORG
 10
0.0
 20
0.0
 30
0.0
  9
$PUCSXDIR
 10
1.0
 20
0.0
 30
0.0
  9
$PUCSYDIR
 10
0.0
 20
1.0
 30
0.0
  9
$USERI1
 70
     0
  9
$USERI2
 70
     0
  9
$USERI3
 70
     0
  9
$USERI4
 70
     0
  9
$USERI5
 70
     0
  9
$USERR1
 40
0.0
  9
$USERR2
 40
0.0
  9
$USERR3
 40
0.0
  9
$USERR4
 40
0.0
  9
$USERR5
 40
0.0
  9
$WORLDVIEW
 70
     1
  9
$SHADEDGE
 70
     3
  9
$SHADEDIF
 70
    70
  9
$TILEMODE
 70
     1
  9
$MAXACTVP
 70
    16
  9
$PINSBASE
 10
0.0
 20
0.0
 30
0.0
  9
$PLIMCHECK
 70
     0
  9
$PEXTMIN
 10
1.000000E+20
 20
1.000000E+20
 30
1.000000E+20
  9
$PEXTMAX
 10
-1.000000E+20
 20
-1.000000E+20
 30
-1.000000E+20
  9
$PLIMMIN
 10
0.0
 20
0.0
  9
$PLIMMAX
 10
12.0
 20
9.0
  9
$UNITMODE
 70
     0
  9
$VISRETAIN
 70
     0
  9
$PLINEGEN
 70
     0
  9
$PSLTSCALE
 70
     1
  9
$TREEDEPTH
 70
  3020
  9
$PICKSTYLE
 70
     1
  9
$CMLSTYLE
  2
STANDARD
  9
$CMLJUST
 70
     0
  9
$CMLSCALE
 40
1.0
  9
$PROXYGRAPHICS
 70
     1
  9
$MEASUREMENT
 70
     0
  0
ENDSEC
  0
SECTION
  2
CLASSES
  0
CLASS
  1
DICTIONARYVAR
  2
AcDbDictionaryVar
  3
"AutoCAD"
 90
        0
280
     0
281
     0
  0
ENDSEC
  0
SECTION
  2
TABLES
  0
TABLE
  2
VPORT
  5
207
100
AcDbSymbolTable
 70
     2
  0
VPORT
  5
231
100
AcDbSymbolTableRecord
100
AcDbViewportTableRecord
  2
*ACTIVE
 70
     0
 10
0.0
 20
0.0
 11
1.0
 21
1.0
 12
248.307087
 22
173.043022
 13
0.0
 23
0.0
 14
10.0
 24
10.0
 15
20.0
 25
20.0
 16
0.0
 26
0.0
 36
1.0
 17
0.0
 27
0.0
 37
0.0
 40
346.086043
 41
1.434944
 42
50.0
 43
0.0
 44
0.0
 50
0.0
 51
0.0
 71
     0
 72
 20000
 73
     1
 74
     1
 75
     0
 76
     0
 77
     0
 78
     0
  0
ENDTAB
  0
TABLE
  2
LTYPE
  5
204
100
AcDbSymbolTable
 70
     4
  0
LTYPE
  5
210
100
AcDbSymbolTableRecord
100
AcDbLinetypeTableRecord
  2
BYBLOCK
 70
     0
  3

 72
    65
 73
     0
 40
0.0
  0
LTYPE
  5
211
100
AcDbSymbolTableRecord
100
AcDbLinetypeTableRecord
  2
BYLAYER
 70
     0
  3

 72
    65
 73
     0
 40
0.0
  0
LTYPE
  5
212
100
AcDbSymbolTableRecord
100
AcDbLinetypeTableRecord
  2
CONTINUOUS
 70
     0
  3
Solid line
 72
    65
 73
     0
 40
0.0
  0
LTYPE
  5
21C
100
AcDbSymbolTableRecord
100
AcDbLinetypeTableRecord
  2
TENSEN1
 70
     0
  3

 72
    65
 73
     2
 40
0.4
 49
0.3
 74
     0
 49
-0.1
 74
     0
  0
LTYPE
  5
21D
100
AcDbSymbolTableRecord
100
AcDbLinetypeTableRecord
  2
ITTEN1
 70
     0
  3

 72
    65
 73
     4
 40
8.2
 49
5.0
 74
     0
 49
-1.0
 74
     0
 49
1.2
 74
     0
 49
-1.0
 74
     0
  0
LTYPE
  5
21E
100
AcDbSymbolTableRecord
100
AcDbLinetypeTableRecord
  2
TENSEN2
 70
     0
  3

 72
    65
 73
     2
 40
2.1
 49
1.5
 74
     0
 49
-0.6
 74
     0
  0
ENDTAB
  0
TABLE
  2
LAYER
  5
201
100
AcDbSymbolTable
 70
     4
  0
LAYER
  5
20D
100
AcDbSymbolTableRecord
100
AcDbLayerTableRecord
  2
0
 70
     0
 62
     7
  6
CONTINUOUS
  0
LAYER
  5
221
100
AcDbSymbolTableRecord
100
AcDbLayerTableRecord
  2
1
 70
     0
 62
     1
  6
ITTEN1
  0
LAYER
  5
222
100
AcDbSymbolTableRecord
100
AcDbLayerTableRecord
  2
2
 70
     0
 62
     2
  6
TENSEN2
  0
LAYER
  5
223
100
AcDbSymbolTableRecord
100
AcDbLayerTableRecord
  2
3
 70
     0
 62
     3
  6
CONTINUOUS
  0
ENDTAB
  0
TABLE
  2
STYLE
  5
202
100
AcDbSymbolTable
 70
     2
  0
STYLE
  5
20E
100
AcDbSymbolTableRecord
100
AcDbTextStyleTableRecord
  2
STANDARD
 70
     0
 40
0.0
 41
1.0
 50
0.0
 71
     0
 42
0.2
  3
txt
  4

  0
STYLE
  5
21B
100
AcDbSymbolTableRecord
100
AcDbTextStyleTableRecord
  2
BIGFONT
 70
     0
 40
10.0
 41
1.0
 50
0.0
 71
     0
 42
10.0
  3

  4
bigfont
  0
ENDTAB
  0
TABLE
  2
VIEW
  5
205
100
AcDbSymbolTable
 70
     0
  0
ENDTAB
  0
TABLE
  2
UCS
  5
206
100
AcDbSymbolTable
 70
     0
  0
ENDTAB
  0
TABLE
  2
APPID
  5
208
100
AcDbSymbolTable
 70
     1
  0
APPID
  5
20F
100
AcDbSymbolTableRecord
100
AcDbRegAppTableRecord
  2
ACAD
 70
     0
  0
ENDTAB
  0
TABLE
  2
DIMSTYLE
  5
209
100
AcDbSymbolTable
 70
     1
  0
DIMSTYLE
105
220
100
AcDbSymbolTableRecord
100
AcDbDimStyleTableRecord
  2
STANDARD
 70
     0
  3

  4

  5

  6

  7

 40
1.0
 41
0.18
 42
0.0625
 43
0.38
 44
0.18
 45
0.0
 46
0.0
 47
0.0
 48
0.0
140
0.18
141
0.09
142
0.0
143
25.4
144
1.0
145
0.0
146
1.0
147
0.09
 71
     0
 72
     0
 73
     1
 74
     1
 75
     0
 76
     0
 77
     0
 78
     0
170
     0
171
     2
172
     0
173
     0
174
     0
175
     0
176
     0
177
     0
178
     0
270
     2
271
     4
272
     4
273
     2
274
     2
340
21B
275
     0
280
     0
281
     0
282
     0
283
     1
284
     0
285
     0
286
     0
287
     5
288
     0
  0
ENDTAB
  0
TABLE
  2
BLOCK_RECORD
  5
200
100
AcDbSymbolTable
 70
     0
  0
BLOCK_RECORD
  5
216
100
AcDbSymbolTableRecord
100
AcDbBlockTableRecord
  2
*MODEL_SPACE
  0
BLOCK_RECORD
  5
213
100
AcDbSymbolTableRecord
100
AcDbBlockTableRecord
  2
*PAPER_SPACE
  0
ENDTAB
  0
ENDSEC
  0
SECTION
  2
BLOCKS
  0
BLOCK
  5
226
100
AcDbEntity
  8
0
100
AcDbBlockBegin
  2
*MODEL_SPACE
 70
     0
 10
0.0
 20
0.0
 30
0.0
  3
*MODEL_SPACE
  1

  0
ENDBLK
  5
227
100
AcDbEntity
  8
0
100
AcDbBlockEnd
  0
BLOCK
  5
224
100
AcDbEntity
 67
     1
  8
0
100
AcDbBlockBegin
  2
*PAPER_SPACE
 70
     0
 10
0.0
 20
0.0
 30
0.0
  3
*PAPER_SPACE
  1

  0
ENDBLK
  5
225
100
AcDbEntity
 67
     1
  8
0
100
AcDbBlockEnd
  0
ENDSEC
  0
SECTION
  2
ENTITIES
  0
CIRCLE
  5
3C
100
AcDbEntity
  8
0
100
AcDbCircle
 10
120.0
 20
140.0
 30
0.0
 40
31.0
  0
LINE
  5
3D
100
AcDbEntity
  8
1
100
AcDbLine
 10
120.0
 20
140.0
 30
0.0
 11
196.303113
 21
140.0
 31
0.0
  0
LINE
  5
3E
100
AcDbEntity
  8
1
100
AcDbLine
 10
120.0
 20
140.0
 30
0.0
 11
120.0
 21
213.641892
 31
0.0
  0
LINE
  5
3F
100
AcDbEntity
  8
1
100
AcDbLine
 10
120.0
 20
140.0
 30
0.0
 11
39.099438
 21
140.0
 31
0.0
  0
LINE
  5
41
100
AcDbEntity
  8
1
100
AcDbLine
 10
120.0
 20
140.0
 30
0.0
 11
120.0
 21
62.628377
 31
0.0
  0
CIRCLE
  5
42
100
AcDbEntity
  8
2
100
AcDbCircle
 10
120.0
 20
140.0
 30
0.0
 40
31.5
  0
CIRCLE
  5
4F
100
AcDbEntity
  8
0
100
AcDbCircle
 10
120.0
 20
140.0
 30
0.0
 40
27.0
  0
CIRCLE
  5
AB
100
AcDbEntity
  8
0
100
AcDbCircle
 10
120.0
 20
140.0
 30
0.0
 40
62.5
  0
ARC
  5
AD
100
AcDbEntity
  8
0
100
AcDbCircle
 10
120.0
 20
140.0
 30
0.0
 40
52.5
100
AcDbArc
 50
103.24052
 51
76.75948
  0
LINE
  5
AE
100
AcDbEntity
  8
1
100
AcDbLine
 10
103.0
 20
190.0
 30
0.0
 11
134.0
 21
190.0
 31
0.0
  0
ARC
  5
AF
100
AcDbEntity
  8
0
100
AcDbCircle
 10
120.0
 20
189.5
 30
0.0
 40
10.0
100
AcDbArc
 50
180.0
 51
0.0
  0
ARC
  5
B0
100
AcDbEntity
  8
0
100
AcDbCircle
 10
131.75
 20
189.25
 30
0.0
 40
1.767767
100
AcDbArc
 50
81.869898
 51
171.869898
  0
ARC
  5
B1
100
AcDbEntity
  8
0
100
AcDbCircle
 10
108.25
 20
189.25
 30
0.0
 40
1.767767
100
AcDbArc
 50
8.130102
 51
98.130102
  0
LINE
  5
C9
100
AcDbEntity
  8
1
100
AcDbLine
 10
321.0
 20
140.0
 30
0.0
 11
321.0
 21
209.5
 31
0.0
  0
LINE
  5
CA
100
AcDbEntity
  8
0
100
AcDbLine
 10
312.5
 20
140.0
 30
0.0
 11
312.5
 21
198.5
 31
0.0
  0
LINE
  5
CB
100
AcDbEntity
  8
0
100
AcDbLine
 10
321.0
 20
202.5
 30
0.0
 11
318.5
 21
202.5
 31
0.0
  0
LINE
  5
CC
100
AcDbEntity
  8
0
100
AcDbLine
 10
318.5
 20
202.5
 30
0.0
 11
312.5
 21
198.5
 31
0.0
  0
LINE
  5
CD
100
AcDbEntity
  8
0
100
AcDbLine
 10
329.5
 20
140.0
 30
0.0
 11
329.5
 21
198.5
 31
0.0
  0
LINE
  5
CE
100
AcDbEntity
  8
0
100
AcDbLine
 10
323.5
 20
202.5
 30
0.0
 11
329.5
 21
198.5
 31
0.0
  0
LINE
  5
CF
100
AcDbEntity
  8
0
100
AcDbLine
 10
321.0
 20
202.5
 30
0.0
 11
323.5
 21
202.5
 31
0.0
  0
LINE
  5
D0
100
AcDbEntity
  8
0
100
AcDbLine
 10
362.5
 20
140.0
 30
0.0
 11
362.5
 21
156.0
 31
0.0
  0
LINE
  5
D1
100
AcDbEntity
  8
0
100
AcDbLine
 10
362.5
 20
156.0
 30
0.0
 11
361.5
 21
157.0
 31
0.0
  0
LINE
  5
D2
100
AcDbEntity
  8
0
100
AcDbLine
 10
361.5
 20
157.0
 30
0.0
 11
345.5
 21
157.0
 31
0.0
  0
LINE
  5
D3
100
AcDbEntity
  8
0
100
AcDbLine
 10
345.5
 20
140.0
 30
0.0
 11
345.5
 21
169.5
 31
0.0
  0
LINE
  5
D4
100
AcDbEntity
  8
0
100
AcDbLine
 10
343.5
 20
171.5
 30
0.0
 11
329.5
 21
171.5
 31
0.0
  0
ARC
  5
D5
100
AcDbEntity
  8
0
100
AcDbCircle
 10
343.621384
 20
169.621384
 30
0.0
 40
1.882534
100
AcDbArc
 50
356.303064
 51
93.696936
  0
LINE
  5
D6
100
AcDbEntity
  8
1
100
AcDbLine
 10
305.5
 20
140.0
 30
0.0
 11
369.5
 21
140.0
 31
0.0
  0
LINE
  5
D7
100
AcDbEntity
  8
2
100
AcDbLine
 10
314.5
 20
140.0
 30
0.0
 11
314.5
 21
171.0
 31
0.0
  0
LINE
  5
D8
100
AcDbEntity
  8
2
100
AcDbLine
 10
314.5
 20
171.0
 30
0.0
 11
316.5
 21
174.0
 31
0.0
  0
LINE
  5
D9
100
AcDbEntity
  8
2
100
AcDbLine
 10
329.5
 20
171.5
 30
0.0
 11
327.0
 21
171.5
 31
0.0
  0
LINE
  5
DA
100
AcDbEntity
  8
2
100
AcDbLine
 10
327.0
 20
171.5
 30
0.0
 11
327.0
 21
172.5
 31
0.0
  0
LINE
  5
DB
100
AcDbEntity
  8
2
100
AcDbLine
 10
327.0
 20
172.5
 30
0.0
 11
323.0
 21
174.5
 31
0.0
  0
LINE
  5
DC
100
AcDbEntity
  8
2
100
AcDbLine
 10
314.5
 20
167.0
 30
0.0
 11
334.5
 21
167.0
 31
0.0
  0
LINE
  5
DD
100
AcDbEntity
  8
2
100
AcDbLine
 10
334.5
 20
167.0
 30
0.0
 11
334.5
 21
159.5
 31
0.0
  0
LINE
  5
DE
100
AcDbEntity
  8
2
100
AcDbLine
 10
334.5
 20
159.5
 30
0.0
 11
337.5
 21
155.0
 31
0.0
  0
LINE
  5
DF
100
AcDbEntity
  8
2
100
AcDbLine
 10
337.5
 20
155.0
 30
0.0
 11
337.5
 21
140.0
 31
0.0
  0
ARC
  5
EC
100
AcDbEntity
  8
0
100
AcDbCircle
 10
343.621384
 20
110.378616
 30
0.0
 40
1.882534
100
AcDbArc
 50
266.303064
 51
3.696936
  0
LINE
  5
ED
100
AcDbEntity
  8
0
100
AcDbLine
 10
361.5
 20
123.0
 30
0.0
 11
345.5
 21
123.0
 31
0.0
  0
LINE
  5
EE
100
AcDbEntity
  8
2
100
AcDbLine
 10
316.5
 20
106.0
 30
0.0
 11
315.0
 21
90.5
 31
0.0
  0
LINE
  5
EF
100
AcDbEntity
  8
2
100
AcDbLine
 10
323.0
 20
105.5
 30
0.0
 11
321.0
 21
92.0
 31
0.0
  0
LINE
  5
F0
100
AcDbEntity
  8
0
100
AcDbLine
 10
329.5
 20
140.0
 30
0.0
 11
329.5
 21
81.5
 31
0.0
  0
LINE
  5
F1
100
AcDbEntity
  8
0
100
AcDbLine
 10
312.5
 20
140.0
 30
0.0
 11
312.5
 21
81.5
 31
0.0
  0
LINE
  5
F2
100
AcDbEntity
  8
1
100
AcDbLine
 10
321.0
 20
140.0
 30
0.0
 11
321.0
 21
70.5
 31
0.0
  0
LINE
  5
F5
100
AcDbEntity
  8
2
100
AcDbLine
 10
337.5
 20
125.0
 30
0.0
 11
337.5
 21
140.0
 31
0.0
  0
LINE
  5
F6
100
AcDbEntity
  8
2
100
AcDbLine
 10
314.5
 20
140.0
 30
0.0
 11
314.5
 21
109.0
 31
0.0
  0
LINE
  5
F7
100
AcDbEntity
  8
0
100
AcDbLine
 10
345.5
 20
140.0
 30
0.0
 11
345.5
 21
110.5
 31
0.0
  0
LINE
  5
FB
100
AcDbEntity
  8
2
100
AcDbLine
 10
314.5
 20
113.0
 30
0.0
 11
334.5
 21
113.0
 31
0.0
  0
LINE
  5
FC
100
AcDbEntity
  8
0
100
AcDbLine
 10
343.5
 20
108.5
 30
0.0
 11
329.5
 21
108.5
 31
0.0
  0
LINE
  5
FD
100
AcDbEntity
  8
2
100
AcDbLine
 10
314.5
 20
109.0
 30
0.0
 11
316.5
 21
106.0
 31
0.0
  0
LINE
  5
FE
100
AcDbEntity
  8
2
100
AcDbLine
 10
327.0
 20
107.5
 30
0.0
 11
323.0
 21
105.5
 31
0.0
  0
LINE
  5
FF
100
AcDbEntity
  8
2
100
AcDbLine
 10
327.0
 20
108.5
 30
0.0
 11
327.0
 21
107.5
 31
0.0
  0
LINE
  5
100
100
AcDbEntity
  8
2
100
AcDbLine
 10
329.5
 20
108.5
 30
0.0
 11
327.0
 21
108.5
 31
0.0
  0
LINE
  5
101
100
AcDbEntity
  8
2
100
AcDbLine
 10
334.5
 20
113.0
 30
0.0
 11
334.5
 21
120.5
 31
0.0
  0
LINE
  5
102
100
AcDbEntity
  8
2
100
AcDbLine
 10
334.5
 20
120.5
 30
0.0
 11
337.5
 21
125.0
 31
0.0
  0
LINE
  5
104
100
AcDbEntity
  8
2
100
AcDbLine
 10
315.0
 20
90.5
 30
0.0
 11
312.5
 21
87.5
 31
0.0
  0
LINE
  5
105
100
AcDbEntity
  8
0
100
AcDbLine
 10
318.5
 20
77.5
 30
0.0
 11
312.5
 21
81.5
 31
0.0
  0
LINE
  5
106
100
AcDbEntity
  8
2
100
AcDbLine
 10
321.0
 20
92.0
 30
0.0
 11
329.5
 21
87.5
 31
0.0
  0
LINE
  5
107
100
AcDbEntity
  8
0
100
AcDbLine
 10
321.0
 20
77.5
 30
0.0
 11
323.5
 21
77.5
 31
0.0
  0
LINE
  5
108
100
AcDbEntity
  8
0
100
AcDbLine
 10
321.0
 20
77.5
 30
0.0
 11
318.5
 21
77.5
 31
0.0
  0
LINE
  5
109
100
AcDbEntity
  8
0
100
AcDbLine
 10
323.5
 20
77.5
 30
0.0
 11
329.5
 21
81.5
 31
0.0
  0
LINE
  5
10A
100
AcDbEntity
  8
0
100
AcDbLine
 10
362.5
 20
140.0
 30
0.0
 11
362.5
 21
124.0
 31
0.0
  0
LINE
  5
10B
100
AcDbEntity
  8
0
100
AcDbLine
 10
362.5
 20
124.0
 30
0.0
 11
361.5
 21
123.0
 31
0.0
  0
LINE
  5
10C
100
AcDbEntity
  8
2
100
AcDbLine
 10
316.5
 20
174.0
 30
0.0
 11
316.5
 21
177.5
 31
0.0
  0
LINE
  5
10D
100
AcDbEntity
  8
2
100
AcDbLine
 10
316.5
 20
177.5
 30
0.0
 11
312.5
 21
179.5
 31
0.0
  0
LINE
  5
10E
100
AcDbEntity
  8
2
100
AcDbLine
 10
323.0
 20
174.5
 30
0.0
 11
321.5
 21
176.5
 31
0.0
  0
LINE
  5
10F
100
AcDbEntity
  8
2
100
AcDbLine
 10
321.5
 20
176.5
 30
0.0
 11
322.5
 21
177.5
 31
0.0
  0
LINE
  5
110
100
AcDbEntity
  8
2
100
AcDbLine
 10
322.5
 20
177.5
 30
0.0
 11
322.5
 21
193.0
 31
0.0
  0
LINE
  5
111
100
AcDbEntity
  8
1
100
AcDbLine
 10
338.0
 20
190.0
 30
0.0
 11
298.912868
 21
190.0
 31
0.0
  0
LINE
  5
112
100
AcDbEntity
  8
2
100
AcDbLine
 10
312.5
 20
186.0
 30
0.0
 11
322.5
 21
186.0
 31
0.0
  0
LINE
  5
113
100
AcDbEntity
  8
2
100
AcDbLine
 10
312.5
 20
187.0
 30
0.0
 11
322.5
 21
187.0
 31
0.0
  0
LINE
  5
114
100
AcDbEntity
  8
2
100
AcDbLine
 10
312.5
 20
194.0
 30
0.0
 11
322.5
 21
194.0
 31
0.0
  0
LINE
  5
115
100
AcDbEntity
  8
2
100
AcDbLine
 10
312.5
 20
193.0
 30
0.0
 11
322.5
 21
193.0
 31
0.0
  0
LINE
  5
116
100
AcDbEntity
  8
2
100
AcDbLine
 10
322.5
 20
193.0
 30
0.0
 11
322.5
 21
194.0
 31
0.0
  0
LINE
  5
117
100
AcDbEntity
  8
2
100
AcDbLine
 10
322.5
 20
194.0
 30
0.0
 11
329.5
 21
194.5
 31
0.0
  0
ARC
  5
118
100
AcDbEntity
  8
0
100
AcDbCircle
 10
329.5
 20
140.0
 30
0.0
 40
3.0
100
AcDbArc
 50
270.0
 51
90.0
  0
ARC
  5
119
100
AcDbEntity
  8
0
100
AcDbCircle
 10
329.5
 20
140.0
 30
0.0
 40
2.5
100
AcDbArc
 50
270.0
 51
90.0
  0
ARC
  5
11A
100
AcDbEntity
  8
2
100
AcDbCircle
 10
329.5
 20
140.0
 30
0.0
 40
3.0
100
AcDbArc
 50
90.0
 51
270.0
  0
ARC
  5
11B
100
AcDbEntity
  8
2
100
AcDbCircle
 10
329.5
 20
140.0
 30
0.0
 40
2.5
100
AcDbArc
 50
90.0
 51
270.0
  0
CIRCLE
  5
22E
100
AcDbEntity
  8
0
100
AcDbCircle
 10
120.0
 20
140.0
 30
0.0
 40
58.5
  0
CIRCLE
  5
22F
100
AcDbEntity
  8
0
100
AcDbCircle
 10
120.0
 20
190.0
 30
0.0
 40
5.0
  0
CIRCLE
  5
230
100
AcDbEntity
  8
0
100
AcDbCircle
 10
120.0
 20
190.0
 30
0.0
 40
4.0
  0
ENDSEC
  0
SECTION
  2
OBJECTS
  0
DICTIONARY
  5
20B
100
AcDbDictionary
  3
ACAD_GROUP
350
20C
  3
ACAD_MLINESTYLE
350
219
  3
ACDBVARIABLEDICTIONARY
350
228
  0
DICTIONARY
  5
20C
102
{ACAD_REACTORS
330
20B
102
}
100
AcDbDictionary
  0
DICTIONARY
  5
219
102
{ACAD_REACTORS
330
20B
102
}
100
AcDbDictionary
  3
STANDARD
350
21A
  0
DICTIONARY
  5
228
102
{ACAD_REACTORS
330
20B
102
}
100
AcDbDictionary
  3
DIMADEC
350
229
  0
MLINESTYLE
  5
21A
102
{ACAD_REACTORS
330
219
102
}
100
AcDbMlineStyle
  2
STANDARD
 70
     0
  3

 62
   256
 51
90.0
 52
90.0
 71
     2
 49
0.5
 62
   256
  6
BYLAYER
 49
-0.5
 62
   256
  6
BYLAYER
  0
DICTIONARYVAR
  5
229
102
{ACAD_REACTORS
330
228
102
}
100
DictionaryVariables
280
     0
  1
0
  0
ENDSEC
  0
EOF
