  0
SECTION
  2
HEADER
  9
$ACADVER
  1
AC1015
  9
$ACADMAINTVER
 70
    13
  9
$DWGCODEPAGE
  3
ANSI_932
  9
$INSBASE
 10
0.0
 20
0.0
 30
0.0
  9
$EXTMIN
 10
0.0
 20
0.0
 30
0.0
  9
$EXTMAX
 10
750.0
 20
540.0
 30
0.0
  9
$LIMMIN
 10
0.0
 20
0.0
  9
$LIMMAX
 10
750.0
 20
540.0
  9
$ORTHOMODE
 70
     1
  9
$REGENMODE
 70
     1
  9
$FILLMODE
 70
     1
  9
$QTEXTMODE
 70
     0
  9
$MIRRTEXT
 70
     1
  9
$LTSCALE
 40
20.0
  9
$ATTMODE
 70
     1
  9
$TEXTSIZE
 40
10.0
  9
$TRACEWID
 40
0.05
  9
$TEXTSTYLE
  7
BIGFONT
  9
$CLAYER
  8
0
  9
$CELTYPE
  6
ByLayer
  9
$CECOLOR
 62
   256
  9
$CELTSCALE
 40
1.0
  9
$DISPSILH
 70
     0
  9
$DIMSCALE
 40
2.0
  9
$DIMASZ
 40
3.0
  9
$DIMEXO
 40
2.0
  9
$DIMDLI
 40
0.3799999999999999
  9
$DIMRND
 40
0.0
  9
$DIMDLE
 40
0.0
  9
$DIMEXE
 40
2.0
  9
$DIMTP
 40
0.0
  9
$DIMTM
 40
0.0
  9
$DIMTXT
 40
3.2
  9
$DIMCEN
 40
0.09
  9
$DIMTSZ
 40
0.0
  9
$DIMTOL
 70
     0
  9
$DIMLIM
 70
     0
  9
$DIMTIH
 70
     0
  9
$DIMTOH
 70
     0
  9
$DIMSE1
 70
     0
  9
$DIMSE2
 70
     0
  9
$DIMTAD
 70
     1
  9
$DIMZIN
 70
     0
  9
$DIMBLK
  1

  9
$DIMASO
 70
     0
  9
$DIMSHO
 70
     0
  9
$DIMPOST
  1

  9
$DIMAPOST
  1

  9
$DIMALT
 70
     0
  9
$DIMALTD
 70
     2
  9
$DIMALTF
 40
25.4
  9
$DIMLFAC
 40
1.0
  9
$DIMTOFL
 70
     0
  9
$DIMTVP
 40
1.6
  9
$DIMTIX
 70
     1
  9
$DIMSOXD
 70
     0
  9
$DIMSAH
 70
     0
  9
$DIMBLK1
  1

  9
$DIMBLK2
  1

  9
$DIMSTYLE
  2
STANDARD
  9
$DIMCLRD
 70
     0
  9
$DIMCLRE
 70
     0
  9
$DIMCLRT
 70
     0
  9
$DIMTFAC
 40
1.0
  9
$DIMGAP
 40
0.09
  9
$DIMJUST
 70
     0
  9
$DIMSD1
 70
     0
  9
$DIMSD2
 70
     0
  9
$DIMTOLJ
 70
     1
  9
$DIMTZIN
 70
     0
  9
$DIMALTZ
 70
     0
  9
$DIMALTTZ
 70
     0
  9
$DIMUPT
 70
     0
  9
$DIMDEC
 70
     4
  9
$DIMTDEC
 70
     4
  9
$DIMALTU
 70
     2
  9
$DIMALTTD
 70
     2
  9
$DIMTXSTY
  7
STANDARD
  9
$DIMAUNIT
 70
     0
  9
$DIMADEC
 70
     0
  9
$DIMALTRND
 40
0.0
  9
$DIMAZIN
 70
     0
  9
$DIMDSEP
 70
    46
  9
$DIMATFIT
 70
     3
  9
$DIMFRAC
 70
     0
  9
$DIMLDRBLK
  1

  9
$DIMLUNIT
 70
     2
  9
$DIMLWD
 70
    -2
  9
$DIMLWE
 70
    -2
  9
$DIMTMOVE
 70
     0
  9
$LUNITS
 70
     2
  9
$LUPREC
 70
     4
  9
$SKETCHINC
 40
0.1
  9
$FILLETRAD
 40
0.0
  9
$AUNITS
 70
     0
  9
$AUPREC
 70
     0
  9
$MENU
  1
ACAD
  9
$ELEVATION
 40
0.0
  9
$PELEVATION
 40
0.0
  9
$THICKNESS
 40
0.0
  9
$LIMCHECK
 70
     0
  9
$CHAMFERA
 40
0.0
  9
$CHAMFERB
 40
0.0
  9
$CHAMFERC
 40
0.0
  9
$CHAMFERD
 40
0.0
  9
$SKPOLY
 70
     0
  9
$TDCREATE
 40
2450686.814131944
  9
$TDUCREATE
 40
2450686.439131944
  9
$TDUPDATE
 40
2456524.574107882
  9
$TDUUPDATE
 40
2456524.199107882
  9
$TDINDWG
 40
0.0011075000
  9
$TDUSRTIMER
 40
0.0011075000
  9
$USRTIMER
 70
     1
  9
$ANGBASE
 50
0.0
  9
$ANGDIR
 70
     0
  9
$PDMODE
 70
     0
  9
$PDSIZE
 40
0.0
  9
$PLINEWID
 40
0.0
  9
$SPLFRAME
 70
     0
  9
$SPLINETYPE
 70
     6
  9
$SPLINESEGS
 70
     8
  9
$HANDSEED
  5
22D
  9
$SURFTAB1
 70
     6
  9
$SURFTAB2
 70
     6
  9
$SURFTYPE
 70
     6
  9
$SURFU
 70
     6
  9
$SURFV
 70
     6
  9
$UCSBASE
  2

  9
$UCSNAME
  2

  9
$UCSORG
 10
0.0
 20
0.0
 30
0.0
  9
$UCSXDIR
 10
1.0
 20
0.0
 30
0.0
  9
$UCSYDIR
 10
0.0
 20
1.0
 30
0.0
  9
$UCSORTHOREF
  2

  9
$UCSORTHOVIEW
 70
     0
  9
$UCSORGTOP
 10
0.0
 20
0.0
 30
0.0
  9
$UCSORGBOTTOM
 10
0.0
 20
0.0
 30
0.0
  9
$UCSORGLEFT
 10
0.0
 20
0.0
 30
0.0
  9
$UCSORGRIGHT
 10
0.0
 20
0.0
 30
0.0
  9
$UCSORGFRONT
 10
0.0
 20
0.0
 30
0.0
  9
$UCSORGBACK
 10
0.0
 20
0.0
 30
0.0
  9
$PUCSBASE
  2

  9
$PUCSNAME
  2

  9
$PUCSORG
 10
0.0
 20
0.0
 30
0.0
  9
$PUCSXDIR
 10
1.0
 20
0.0
 30
0.0
  9
$PUCSYDIR
 10
0.0
 20
1.0
 30
0.0
  9
$PUCSORTHOREF
  2

  9
$PUCSORTHOVIEW
 70
     0
  9
$PUCSORGTOP
 10
0.0
 20
0.0
 30
0.0
  9
$PUCSORGBOTTOM
 10
0.0
 20
0.0
 30
0.0
  9
$PUCSORGLEFT
 10
0.0
 20
0.0
 30
0.0
  9
$PUCSORGRIGHT
 10
0.0
 20
0.0
 30
0.0
  9
$PUCSORGFRONT
 10
0.0
 20
0.0
 30
0.0
  9
$PUCSORGBACK
 10
0.0
 20
0.0
 30
0.0
  9
$USERI1
 70
     0
  9
$USERI2
 70
     0
  9
$USERI3
 70
     0
  9
$USERI4
 70
     0
  9
$USERI5
 70
     0
  9
$USERR1
 40
0.0
  9
$USERR2
 40
0.0
  9
$USERR3
 40
0.0
  9
$USERR4
 40
0.0
  9
$USERR5
 40
0.0
  9
$WORLDVIEW
 70
     1
  9
$SHADEDGE
 70
     3
  9
$SHADEDIF
 70
    70
  9
$TILEMODE
 70
     1
  9
$MAXACTVP
 70
    16
  9
$PINSBASE
 10
0.0
 20
0.0
 30
0.0
  9
$PLIMCHECK
 70
     0
  9
$PEXTMIN
 10
1.000000000000000E+20
 20
1.000000000000000E+20
 30
1.000000000000000E+20
  9
$PEXTMAX
 10
-1.000000000000000E+20
 20
-1.000000000000000E+20
 30
-1.000000000000000E+20
  9
$PLIMMIN
 10
0.0
 20
0.0
  9
$PLIMMAX
 10
12.0
 20
9.0
  9
$UNITMODE
 70
     0
  9
$VISRETAIN
 70
     0
  9
$PLINEGEN
 70
     1
  9
$PSLTSCALE
 70
     0
  9
$TREEDEPTH
 70
  3020
  9
$CMLSTYLE
  2
Standard
  9
$CMLJUST
 70
     0
  9
$CMLSCALE
 40
1.0
  9
$PROXYGRAPHICS
 70
     1
  9
$MEASUREMENT
 70
     0
  9
$CELWEIGHT
370
    -1
  9
$ENDCAPS
280
     0
  9
$JOINSTYLE
280
     0
  9
$LWDISPLAY
290
     0
  9
$INSUNITS
 70
     0
  9
$HYPERLINKBASE
  1

  9
$STYLESHEET
  1

  9
$XEDIT
290
     1
  9
$CEPSNTYPE
380
     0
  9
$PSTYLEMODE
290
     1
  9
$FINGERPRINTGUID
  2
{510714DE-A3C7-40A4-84FB-6A06150745B0}
  9
$VERSIONGUID
  2
{D1329682-6983-40AE-8915-1CB7F089B8F5}
  9
$EXTNAMES
290
     1
  9
$PSVPSCALE
 40
0.0
  9
$OLESTARTUP
290
     0
  0
ENDSEC
  0
SECTION
  2
CLASSES
  0
CLASS
  1
ACDBDICTIONARYWDFLT
  2
AcDbDictionaryWithDefault
  3
AutoCAD 2000
 90
        0
280
     0
281
     0
  0
CLASS
  1
ACDBPLACEHOLDER
  2
AcDbPlaceHolder
  3
AutoCAD 2000
 90
        0
280
     0
281
     0
  0
CLASS
  1
LAYOUT
  2
AcDbLayout
  3
AutoCAD 2000
 90
        0
280
     0
281
     0
  0
CLASS
  1
AMGSETTINGSOBJ
  2
AmgSettingsObj
  3
"AcadM|Product Description: AutoCAD Mechanical 2000|Company: Autodesk"
 90
        0
280
     0
281
     0
  0
CLASS
  1
ACME_DOCUMENT
  2
AcMeDbDoc
  3
AcMeServices
 90
        0
280
     0
281
     0
  0
CLASS
  1
ACMESCOPE
  2
AcMeScope
  3
AcMeServices
 90
        0
280
     0
281
     0
  0
CLASS
  1
ACMECOMMANDHISTORY
  2
AcMeCommandHistory
  3
AcMeServices
 90
        0
280
     0
281
     0
  0
CLASS
  1
ACIMSYSVARMAN
  2
AcImSysVarManager
  3
AcMeServices
 90
        0
280
     0
281
     0
  0
CLASS
  1
ACIMREALSYSVAR
  2
AcImRealSysVar
  3
AcMeServices
 90
        0
280
     0
281
     0
  0
CLASS
  1
ACIMINTSYSVAR
  2
AcImIntSysVar
  3
AcMeServices
 90
        0
280
     0
281
     0
  0
CLASS
  1
ACMEDRAWINGMAN
  2
AcMeDrawingMan
  3
AcMeServices
 90
        0
280
     0
281
     0
  0
CLASS
  1
ACMEVIEW
  2
AcMeView
  3
AcMeServices
 90
        0
280
     0
281
     0
  0
CLASS
  1
ACDBENTITYCACHE
  2
AcMeEntityCache
  3
AcMeServices
 90
        0
280
     0
281
     0
  0
CLASS
  1
GSMANAGER
  2
AcMeGSManager
  3
AcMeServices
 90
        0
280
     0
281
     0
  0
CLASS
  1
AMDTINTERNALREACTOR
  2
AmdtInternalReactor
  3
AcMeServices
 90
        0
280
     0
281
     0
  0
CLASS
  1
ACMESTATEMGR
  2
AcMeStateMgr
  3
AcMeServices
 90
        0
280
     0
281
     0
  0
CLASS
  1
ACGREFMASTER
  2
AcGrefMaster
  3
AcAttribServices
 90
        0
280
     0
281
     0
  0
CLASS
  1
AM_DRAWING_MGR
  2
AcDmDwgMgr
  3
AcMechDwgViewMgmt
 90
        0
280
     0
281
     0
  0
CLASS
  1
AM_DWG_DOCUMENT
  2
AcDmDwgDocument
  3
AcMechDwgViewMgmt
 90
        0
280
     0
281
     0
  0
CLASS
  1
AM_DWG_SHEET
  2
AcDmSheet
  3
AcMechDwgViewMgmt
 90
        0
280
     0
281
     0
  0
CLASS
  1
AM_VIEWDIMPARMAP
  2
AcDmViewDimParMap
  3
AcMechDwgViewMgmt
 90
        0
280
     0
281
     0
  0
CLASS
  1
AM_DWGMGR_NAME
  2
AcDmDwgMgrName
  3
AcMechDwgViewMgmt
 90
        0
280
     0
281
     0
  0
CLASS
  1
ACME_DATABASE
  2
AcMeDbDatabase
  3
AcMeServices
 90
        0
280
     0
281
     0
  0
CLASS
  1
ACRFINSADJUSTERMGR
  2
AcRfInsAdjusterMgr
  3
AcMeServices
 90
        0
280
     0
281
     0
  0
CLASS
  1
ACGREFACADMASTER
  2
AcGrefacadMaster
  3
AcGrefServices
 90
        0
280
     0
281
     0
  0
CLASS
  1
AMDTMENUSTATEMGR
  2
AmdtMenuStateMgr
  3
McadcomServices
 90
        0
280
     0
281
     0
  0
CLASS
  1
AMDTMCOMMENUSTATE
  2
AmdtMcomMenuState
  3
McadcomServices
 90
        0
280
     0
281
     0
  0
CLASS
  1
AMIMASTER
  2
AmiMaster
  3
AmiServices
 90
        0
280
     0
281
     0
  0
CLASS
  1
ASAPP
  2
AcAsAppObject
  3
AutoSurfServices
 90
        0
280
     0
281
     0
  0
CLASS
  1
IM_STATIC_MAN
  2
AcImStaticVarManager
  3
AcMeServices
 90
        0
280
     0
281
     0
  0
CLASS
  1
ACIMSTRSYSVAR
  2
AcImStrSysVar
  3
AcMeServices
 90
        0
280
     0
281
     0
  0
CLASS
  1
ACIMDBLSTATICVAR
  2
AcImDblStaticVar
  3
AcMeServices
 90
        0
280
     0
281
     0
  0
CLASS
  1
ACIMSTRSTATICVAR
  2
AcImStrStaticVar
  3
AcMeServices
 90
        0
280
     0
281
     0
  0
CLASS
  1
ACIMINTSTATICVAR
  2
AcImIntStaticVar
  3
AcMeServices
 90
        0
280
     0
281
     0
  0
CLASS
  1
ACASGREFMASTER
  2
AcAsGrefMaster
  3
AutoSurfResolverServices
 90
        0
280
     0
281
     0
  0
CLASS
  1
ACADGREFMODULE
  2
AcAdGrefModule
  3
AdGrefServices
 90
        0
280
     0
281
     0
  0
CLASS
  1
AMDTMAPISURFMOUDULE
  2
AmdtMApiSurfModule
  3
MApiSurfServices
 90
        0
280
     0
281
     0
  0
CLASS
  1
MAPIAMMOUDLE
  2
MApiAmModule
  3
MApiAmServices
 90
        0
280
     0
281
     0
  0
CLASS
  1
AMDTADMENUSTATE
  2
AmdtAdMenuState
  3
DesignerServices
 90
        0
280
     0
281
     0
  0
CLASS
  1
ADAPPL
  2
AcAdAppl
  3
DesignerServices
 90
        0
280
     0
281
     0
  0
CLASS
  1
DEPMGR
  2
AcAdDepMgr
  3
DesignerServices
 90
        0
280
     0
281
     0
  0
CLASS
  1
PARAMMGR
  2
AcAdParamMgr
  3
DesignerServices
 90
        0
280
     0
281
     0
  0
CLASS
  1
PARAMSCOPE
  2
AcAdParamScope
  3
DesignerServices
 90
        0
280
     0
281
     0
  0
CLASS
  1
NAMEDAPPL
  2
AcAdNamedAppl
  3
DesignerServices
 90
        0
280
     0
281
     0
  0
CLASS
  1
AMDTDMMENUSTATE
  2
AmdtDmMenuState
  3
AcMechDwgViewMgmt
 90
        0
280
     0
281
     0
  0
CLASS
  1
MAPIADMODULE
  2
MApiAdModule
  3
MApiAdServices
 90
        0
280
     0
281
     0
  0
CLASS
  1
AMDTAMMENUSTATE
  2
AmdtAmMenuState
  3
DesignerAssemblies
 90
        0
280
     0
281
     0
  0
CLASS
  1
ACAMPROJECT
  2
AcAmProject
  3
DesignerAssemblies
 90
        0
280
     0
281
     0
  0
CLASS
  1
ACAMGRCOMPDEF
  2
AcAmGrCompDef
  3
DesignerAssemblies
 90
        0
280
     0
281
     0
  0
CLASS
  1
ACCMCONTEXT
  2
AcCmContext
  3
DesignerAssemblies
 90
        0
280
     0
281
     0
  0
CLASS
  1
ACAMCOMPDEF
  2
AcAmCompDef
  3
DesignerAssemblies
 90
        0
280
     0
281
     0
  0
CLASS
  1
ACAMCOMPDEFMGR
  2
AcAmCompDefMgr
  3
DesignerAssemblies
 90
        0
280
     0
281
     0
  0
CLASS
  1
AMCONTEXTMGR
  2
AcAmContextMgr
  3
DesignerAssemblies
 90
        0
280
     0
281
     0
  0
CLASS
  1
ACAMCONTEXTMODELER
  2
AcAmContextModeler
  3
DesignerAssemblies
 90
        0
280
     0
281
     0
  0
CLASS
  1
ACMDATADICTIONARY
  2
AcmDataDictionary
  3
"AcmSymBB|Product Description: AutoCAD Mechanical 2000|Company: Autodesk"
 90
        0
280
     0
281
     0
  0
CLASS
  1
ACMDATAENTRYBLOCK
  2
AcmDataEntryBlock
  3
"AcmSymBB|Product Description: AutoCAD Mechanical 2000|Company: Autodesk"
 90
        0
280
     0
281
     0
  0
CLASS
  1
CATALOGSTATE
  2
AcAmCatalogState
  3
DesignerAssemblies
 90
        0
280
     0
281
     0
  0
CLASS
  1
ACAMGRCOMPDEFSET
  2
AcAmGrCompDefSet
  3
DesignerAssemblies
 90
        0
280
     0
281
     0
  0
CLASS
  1
AMDTBROWSERDBTAB
  2
AmdtBrowserDbTab
  3
McadcomServices
 90
        0
280
     0
281
     0
  0
CLASS
  1
CBROWSERAPPOBJECT
  2
CBrowserAppObject
  3
McadcomServices
 90
        0
280
     0
281
     0
  0
CLASS
  1
DM_PLACEHOLDER
  2
AcDmSelsetPlaceholder
  3
AcMechDwgViewMgmt
 90
        0
280
     0
281
     0
  0
CLASS
  1
AMGOBJPROPCFG
  2
AmgObjPropCfg
  3
"AmgLay|Product Description: AutoCAD Mechanical 2000|Company: Autodesk"
 90
        1
280
     0
281
     0
  0
CLASS
  1
ACAMGFILTERDAT
  2
AcAmgFilterDat
  3
"AcadM|Product Description: AutoCAD Mechanical 2000|Company: Autodesk"
 90
        0
280
     0
281
     0
  0
CLASS
  1
LAYER_INDEX
  2
AcDbLayerIndex
  3
AutoCAD 2000
 90
        0
280
     0
281
     0
  0
CLASS
  1
IDBUFFER
  2
AcDbIdBuffer
  3
AutoCAD 2000
 90
        0
280
     0
281
     0
  0
CLASS
  1
DICTIONARYVAR
  2
AcDbDictionaryVar
  3
AutoCAD 2000
 90
        0
280
     0
281
     0
  0
ENDSEC
  0
SECTION
  2
TABLES
  0
TABLE
  2
VPORT
  5
8
330
0
100
AcDbSymbolTable
 70
     3
  0
VPORT
  5
22C
330
8
100
AcDbSymbolTableRecord
100
AcDbViewportTableRecord
  2
*Active
 70
     0
 10
0.0
 20
0.0
 11
1.0
 21
1.0
 12
458.2233502538068
 22
307.5898625486185
 13
0.0
 23
0.0
 14
0.5
 24
0.5
 15
1.0
 25
1.0
 16
0.0
 26
0.0
 36
1.0
 17
0.0
 27
0.0
 37
0.0
 40
1230.359450194474
 41
1.489721886336154
 42
50.0
 43
0.0
 44
0.0
 50
0.0
 51
0.0
 71
     0
 72
   500
 73
     1
 74
     1
 75
     0
 76
     0
 77
     0
 78
     1
281
     0
 65
     0
110
0.0
120
0.0
130
0.0
111
1.0
121
0.0
131
0.0
112
0.0
122
1.0
132
0.0
 79
     0
146
0.0
  0
ENDTAB
  0
TABLE
  2
LTYPE
  5
5
330
0
100
AcDbSymbolTable
 70
    17
  0
LTYPE
  5
13
330
5
100
AcDbSymbolTableRecord
100
AcDbLinetypeTableRecord
  2
ByBlock
 70
     0
  3

 72
    65
 73
     0
 40
0.0
  0
LTYPE
  5
14
330
5
100
AcDbSymbolTableRecord
100
AcDbLinetypeTableRecord
  2
ByLayer
 70
     0
  3

 72
    65
 73
     0
 40
0.0
  0
LTYPE
  5
15
330
5
100
AcDbSymbolTableRecord
100
AcDbLinetypeTableRecord
  2
CONTINUOUS
 70
     0
  3
実線
 72
    65
 73
     0
 40
0.0
  0
LTYPE
  5
23
330
5
100
AcDbSymbolTableRecord
100
AcDbLinetypeTableRecord
  2
BYLAYER
 70
     0
  3

 72
    65
 73
     0
 40
0.0
  0
LTYPE
  5
24
330
5
100
AcDbSymbolTableRecord
100
AcDbLinetypeTableRecord
  2
CENTER
 70
     0
  3
____ _ ____ _ ____ _ ____ _ ____ _ ____ _ ____
 72
    65
 73
     4
 40
2.0
 49
1.25
 74
     0
 49
-0.25
 74
     0
 49
0.25
 74
     0
 49
-0.25
 74
     0
  0
LTYPE
  5
25
330
5
100
AcDbSymbolTableRecord
100
AcDbLinetypeTableRecord
  2
HIDDEN
 70
     0
  3
_ _ _ _ _ _ _ _ _ _ _ _ _ _ _ _ _ _ _ _ _ _ _
 72
    65
 73
     2
 40
0.375
 49
0.25
 74
     0
 49
-0.125
 74
     0
  0
LTYPE
  5
167
330
5
100
AcDbSymbolTableRecord
100
AcDbLinetypeTableRecord
  2
PHANTOM2
 70
     0
  3
Phantom (.5x) ___ _ _ ___ _ _ ___ _ _ ___ _ _
 72
    65
 73
     6
 40
1.25
 49
0.625
 74
     0
 49
-0.125
 74
     0
 49
0.125
 74
     0
 49
-0.125
 74
     0
 49
0.125
 74
     0
 49
-0.125
 74
     0
  0
LTYPE
  5
1C9
330
5
100
AcDbSymbolTableRecord
100
AcDbLinetypeTableRecord
  2
ASULTYPE
 70
     0
  3
実線
 72
    65
 73
     2
 40
3.0
 49
2.5
 74
     0
 49
0.5
 74
     0
  0
LTYPE
  5
1CA
330
5
100
AcDbSymbolTableRecord
100
AcDbLinetypeTableRecord
  2
ASVLTYPE
 70
     0
  3
__ __ __ __ __ __ __ __ __ __ __ __ __ __ __ __ __ __ __ __ __
 72
    65
 73
     2
 40
0.75
 49
0.5
 74
     0
 49
-0.25
 74
     0
  0
LTYPE
  5
20B
330
5
100
AcDbSymbolTableRecord
100
AcDbLinetypeTableRecord
  2
AM_ISO02W050
 70
     0
  3
__ __ __ __ __ __ __ __ __ __ __ __ __ __ __
 72
    65
 73
     2
 40
7.5
 49
6.0
 74
     0
 49
-1.5
 74
     0
  0
LTYPE
  5
20C
330
5
100
AcDbSymbolTableRecord
100
AcDbLinetypeTableRecord
  2
AM_ISO08W050
 70
     0
  3
____ . ____ . ____ . ____ . ____ . ____ . ____
 72
    65
 73
     4
 40
18.0
 49
12.0
 74
     0
 49
-1.5
 74
     0
 49
3.0
 74
     0
 49
-1.5
 74
     0
  0
LTYPE
  5
20D
330
5
100
AcDbSymbolTableRecord
100
AcDbLinetypeTableRecord
  2
AM_ISO09W050
 70
     0
  3
_____ . . _____ . . _____ . . ____ .. ____
 72
    65
 73
     6
 40
22.5
 49
12.0
 74
     0
 49
-1.5
 74
     0
 49
3.0
 74
     0
 49
-1.5
 74
     0
 49
3.0
 74
     0
 49
-1.5
 74
     0
  0
LTYPE
  5
20E
330
5
100
AcDbSymbolTableRecord
100
AcDbLinetypeTableRecord
  2
Amconstr
 70
     0
  3
_______________________
 72
    65
 73
     2
 40
9999.0
 49
9999.0
 74
     0
 49
0.0
 74
     0
  0
LTYPE
  5
20F
330
5
100
AcDbSymbolTableRecord
100
AcDbLinetypeTableRecord
  2
AM_ISO08W050x2
 70
     0
  3
__ . __ . __ . __ . __ . __
 72
    65
 73
     4
 40
9.0
 49
6.0
 74
     0
 49
-0.75
 74
     0
 49
1.5
 74
     0
 49
-0.75
 74
     0
  0
LTYPE
  5
210
330
5
100
AcDbSymbolTableRecord
100
AcDbLinetypeTableRecord
  2
AM_ISO02W050x2
 70
     0
  3
 _ _ _ _ _ _ _ _ _ _ _ _
 72
    65
 73
     2
 40
3.75
 49
3.0
 74
     0
 49
-0.75
 74
     0
  0
LTYPE
  5
213
330
5
100
AcDbSymbolTableRecord
100
AcDbLinetypeTableRecord
  2
Amzigzag
 70
     0
  3
/\/-/\/-/\/-/\/-/\/-/\/
 72
    65
 73
     2
 40
11.00009999999999
 49
0.0001
 74
     4
 75
   135
340
212
 46
0.04
 50
0.0
 44
0.0
 45
0.0
 49
-11.0
 74
     0
  0
LTYPE
  5
214
330
5
100
AcDbSymbolTableRecord
100
AcDbLinetypeTableRecord
  2
CENTER2
 70
     0
  3
Center (.5x) ___ _ ___ _ ___ _ ___ _ ___ _ ___
 72
    65
 73
     4
 40
1.125
 49
0.75
 74
     0
 49
-0.125
 74
     0
 49
0.125
 74
     0
 49
-0.125
 74
     0
  0
LTYPE
  5
215
330
5
100
AcDbSymbolTableRecord
100
AcDbLinetypeTableRecord
  2
HIDDEN2
 70
     0
  3
Hidden (.5x) _ _ _ _ _ _ _ _ _ _ _ _ _ _ _ _ _
 72
    65
 73
     2
 40
0.1875
 49
0.125
 74
     0
 49
-0.0625
 74
     0
  0
LTYPE
  5
216
330
5
100
AcDbSymbolTableRecord
100
AcDbLinetypeTableRecord
  2
Amzigzag2
 70
     0
  3
/\/-/\/-/\/-/\/-/\/-/\/
 72
    65
 73
     2
 40
0.4401
 49
0.0001
 74
     4
 75
   135
340
212
 46
0.0016
 50
0.0
 44
0.0
 45
0.0
 49
-0.4400000000000001
 74
     0
  0
ENDTAB
  0
TABLE
  2
LAYER
  5
2
330
0
100
AcDbSymbolTable
 70
     5
  0
LAYER
  5
10
330
2
100
AcDbSymbolTableRecord
100
AcDbLayerTableRecord
  2
0
 70
     0
 62
     7
  6
CONTINUOUS
370
    -3
390
F
  0
LAYER
  5
26
330
2
100
AcDbSymbolTableRecord
100
AcDbLayerTableRecord
  2
1
 70
     0
 62
     1
  6
CENTER
370
    -3
390
F
  0
LAYER
  5
27
330
2
100
AcDbSymbolTableRecord
100
AcDbLayerTableRecord
  2
10
 70
     0
 62
     7
  6
CONTINUOUS
370
    -3
390
F
  0
LAYER
  5
28
330
2
100
AcDbSymbolTableRecord
100
AcDbLayerTableRecord
  2
11
 70
     0
 62
     3
  6
CONTINUOUS
370
    -3
390
F
  0
LAYER
  5
29
330
2
100
AcDbSymbolTableRecord
100
AcDbLayerTableRecord
  2
2
 70
     0
 62
     2
  6
HIDDEN
370
    -3
390
F
  0
ENDTAB
  0
TABLE
  2
STYLE
  5
3
330
0
100
AcDbSymbolTable
 70
     4
  0
STYLE
  5
11
330
3
100
AcDbSymbolTableRecord
100
AcDbTextStyleTableRecord
  2
STANDARD
 70
     0
 40
0.0
 41
1.0
 50
0.0
 71
     0
 42
0.2
  3
TXT
  4
BIGFONT
  0
STYLE
  5
22
330
3
100
AcDbSymbolTableRecord
100
AcDbTextStyleTableRecord
  2
BIGFONT
 70
     0
 40
10.0
 41
1.0
 50
0.0
 71
     0
 42
10.0
  3

  4
bigfont
  0
STYLE
  5
2A
330
3
100
AcDbSymbolTableRecord
100
AcDbTextStyleTableRecord
  2
EXTFONT
 70
     0
 40
2.2
 41
1.5
 50
0.0
 71
     0
 42
2.2
  3

  4
extfont
  0
STYLE
  5
212
330
3
100
AcDbSymbolTableRecord
100
AcDbTextStyleTableRecord
  2

 70
     1
 40
0.0
 41
1.0
 50
0.0
 71
     0
 42
10.0
  3
ltypeshp.shx
  4

  0
ENDTAB
  0
TABLE
  2
VIEW
  5
6
330
0
100
AcDbSymbolTable
 70
     1
  0
VIEW
  5
2C
330
6
100
AcDbSymbolTableRecord
100
AcDbViewTableRecord
  2
ALL
 70
     0
 40
540.0
 10
441.9831932773108
 20
270.0
 41
0.0
 11
0.0
 21
0.0
 31
1.0
 12
0.0
 22
0.0
 32
0.0
 42
0.0
 43
0.0
 44
0.0
 50
0.0
 71
     0
281
     0
 72
     0
  0
ENDTAB
  0
TABLE
  2
UCS
  5
7
330
0
100
AcDbSymbolTable
 70
     0
  0
ENDTAB
  0
TABLE
  2
APPID
  5
9
330
0
100
AcDbSymbolTable
 70
    12
  0
APPID
  5
12
330
9
100
AcDbSymbolTableRecord
100
AcDbRegAppTableRecord
  2
ACAD
 70
     0
  0
APPID
  5
146
330
9
100
AcDbSymbolTableRecord
100
AcDbRegAppTableRecord
  2
GENIUS_GENDIM_13
 70
     0
  0
APPID
  5
147
330
9
100
AcDbSymbolTableRecord
100
AcDbRegAppTableRecord
  2
GENIUS_GENDTOL_13
 70
     0
  0
APPID
  5
148
330
9
100
AcDbSymbolTableRecord
100
AcDbRegAppTableRecord
  2
GENIUS_GE3DTOL_13
 70
     0
  0
APPID
  5
14A
330
9
100
AcDbSymbolTableRecord
100
AcDbRegAppTableRecord
  2
MCAD_NO_VIS
 70
     0
  0
APPID
  5
14B
330
9
100
AcDbSymbolTableRecord
100
AcDbRegAppTableRecord
  2
ACAD_TEMP_GRAPHIC
 70
     0
  0
APPID
  5
17C
330
9
100
AcDbSymbolTableRecord
100
AcDbRegAppTableRecord
  2
AD_DRAW
 70
     0
  0
APPID
  5
17F
330
9
100
AcDbSymbolTableRecord
100
AcDbRegAppTableRecord
  2
ACATTRIBSERVICES
 70
     0
  0
APPID
  5
1CB
330
9
100
AcDbSymbolTableRecord
100
AcDbRegAppTableRecord
  2
ASURF_PCURVE_APPNAME
 70
     0
  0
APPID
  5
1FA
330
9
100
AcDbSymbolTableRecord
100
AcDbRegAppTableRecord
  2
DESIGNERASSEMBLIES
 70
     0
  0
APPID
  5
202
330
9
100
AcDbSymbolTableRecord
100
AcDbRegAppTableRecord
  2
ACADM_DIM_EDIT
 70
     0
  0
APPID
  5
203
330
9
100
AcDbSymbolTableRecord
100
AcDbRegAppTableRecord
  2
AMDT_DM_ADJ
 70
     0
  0
ENDTAB
  0
TABLE
  2
DIMSTYLE
  5
A
330
0
100
AcDbSymbolTable
 70
     1
100
AcDbDimStyleTable
 71
     0
  0
DIMSTYLE
105
2B
330
A
100
AcDbSymbolTableRecord
100
AcDbDimStyleTableRecord
  2
STANDARD
 70
     0
279
     2
340
22
  0
ENDTAB
  0
TABLE
  2
BLOCK_RECORD
  5
1
330
0
100
AcDbSymbolTable
 70
     2
  0
BLOCK_RECORD
  5
1E
102
{ACAD_XDICTIONARY
360
221
102
}
330
1
100
AcDbSymbolTableRecord
100
AcDbBlockTableRecord
  2
*Model_Space
340
21
  0
BLOCK_RECORD
  5
1A
330
1
100
AcDbSymbolTableRecord
100
AcDbBlockTableRecord
  2
*Paper_Space
340
1D
  0
BLOCK_RECORD
  5
31
330
1
100
AcDbSymbolTableRecord
100
AcDbBlockTableRecord
  2
QQ
340
0
102
{BLKREFS
331
3D
102
}
  0
BLOCK_RECORD
  5
1F1
330
1
100
AcDbSymbolTableRecord
100
AcDbBlockTableRecord
  2
*U1
340
0
  0
ENDTAB
  0
ENDSEC
  0
SECTION
  2
BLOCKS
  0
BLOCK
  5
1F
330
1E
100
AcDbEntity
  8
0
100
AcDbBlockBegin
  2
*Model_Space
 70
     0
 10
0.0
 20
0.0
 30
0.0
  3
*Model_Space
  1

  0
ENDBLK
  5
20
330
1E
100
AcDbEntity
  8
0
100
AcDbBlockEnd
  0
BLOCK
  5
1B
330
1A
100
AcDbEntity
 67
     1
  8
0
100
AcDbBlockBegin
  2
*Paper_Space
 70
     0
 10
0.0
 20
0.0
 30
0.0
  3
*Paper_Space
  1

  0
ENDBLK
  5
1C
330
1A
100
AcDbEntity
 67
     1
  8
0
100
AcDbBlockEnd
  0
BLOCK
  5
32
330
31
100
AcDbEntity
  8
0
100
AcDbBlockBegin
  2
QQ
 70
     0
 10
270.0
 20
0.0
 30
0.0
  3
QQ
  1

  0
LINE
  5
33
330
31
100
AcDbEntity
  8
11
100
AcDbLine
 10
172.9999999999998
 20
36.0
 30
0.0
 11
270.0
 21
36.0
 31
0.0
  0
TEXT
  5
34
330
31
100
AcDbEntity
  8
11
100
AcDbText
 10
175.0
 20
32.5
 30
0.0
 40
2.5
  1
部品名称
100
AcDbText
  0
LINE
  5
35
330
31
100
AcDbEntity
  8
11
100
AcDbLine
 10
172.9999999999998
 20
36.0
 30
0.0
 11
172.9999999999998
 21
0.0
 31
0.0
  0
LINE
  5
36
330
31
100
AcDbEntity
  8
11
100
AcDbLine
 10
172.9999999999998
 20
24.0
 30
0.0
 11
270.0
 21
24.0
 31
0.0
  0
TEXT
  5
37
330
31
100
AcDbEntity
  8
11
100
AcDbText
 10
175.0
 20
20.5
 30
0.0
 40
2.5
  1
品番
100
AcDbText
  0
LINE
  5
38
330
31
100
AcDbEntity
  8
11
100
AcDbLine
 10
172.9999999999998
 20
12.0
 30
0.0
 11
270.0
 21
12.0
 31
0.0
  0
TEXT
  5
39
330
31
100
AcDbEntity
  8
11
100
AcDbText
 10
175.0
 20
8.5
 30
0.0
 40
2.5
  1
尺度
100
AcDbText
  0
TEXT
  5
3A
330
31
100
AcDbEntity
  8
11
100
AcDbText
 10
200.0
 20
8.5
 30
0.0
 40
2.5
  1
図番
100
AcDbText
  0
LINE
  5
3B
330
31
100
AcDbEntity
  8
11
100
AcDbLine
 10
198.0
 20
0.0
 30
0.0
 11
198.0
 21
12.0
 31
0.0
  0
ENDBLK
  5
3C
330
31
100
AcDbEntity
  8
0
100
AcDbBlockEnd
  0
BLOCK
  5
1F2
330
1F1
100
AcDbEntity
  8
0
100
AcDbBlockBegin
  2
*U1
 70
     1
 10
0.0
 20
0.0
 30
0.0
  3
*U1
  1

  0
ENDBLK
  5
1F3
330
1F1
100
AcDbEntity
  8
0
100
AcDbBlockEnd
  0
ENDSEC
  0
SECTION
  2
ENTITIES
  0
TEXT
  5
43
330
1E
100
AcDbEntity
  8
11
100
AcDbText
 10
562.7384362159244
 20
51.5371622568897
 30
0.0
 40
10.0
  1
ダイアル・インジケーター
  7
BIGFONT
100
AcDbText
  0
LINE
  5
44
330
1E
100
AcDbEntity
  8
1
100
AcDbLine
 10
500.9999999999999
 20
274.0
 30
0.0
 11
586.0
 21
274.0
 31
0.0
  0
LINE
  5
45
330
1E
100
AcDbEntity
  8
1
100
AcDbLine
 10
544.0
 20
314.5
 30
0.0
 11
544.0
 21
233.0
 31
0.0
  0
CIRCLE
  5
47
330
1E
100
AcDbEntity
  8
0
100
AcDbCircle
 10
544.0
 20
274.0
 30
0.0
 40
36.5
  0
CIRCLE
  5
48
330
1E
100
AcDbEntity
  8
0
100
AcDbCircle
 10
544.0
 20
274.0
 30
0.0
 40
33.5
  0
CIRCLE
  5
49
330
1E
100
AcDbEntity
  8
0
100
AcDbCircle
 10
544.0
 20
274.0
 30
0.0
 40
4.5
  0
POLYLINE
  5
4A
330
1E
100
AcDbEntity
  8
0
100
AcDb2dPolyline
 66
     1
 10
0.0
 20
0.0
 30
0.0
 70
   129
  0
VERTEX
  5
4B
330
4A
100
AcDbEntity
  8
0
100
AcDbVertex
100
AcDb2dVertex
 10
544.0
 20
278.0
 30
0.0
  0
VERTEX
  5
4C
330
4A
100
AcDbEntity
  8
0
100
AcDbVertex
100
AcDb2dVertex
 10
540.5358983848623
 20
276.0
 30
0.0
  0
VERTEX
  5
4D
330
4A
100
AcDbEntity
  8
0
100
AcDbVertex
100
AcDb2dVertex
 10
540.5358983848623
 20
272.0
 30
0.0
  0
VERTEX
  5
4E
330
4A
100
AcDbEntity
  8
0
100
AcDbVertex
100
AcDb2dVertex
 10
544.0
 20
270.0
 30
0.0
  0
VERTEX
  5
4F
330
4A
100
AcDbEntity
  8
0
100
AcDbVertex
100
AcDb2dVertex
 10
547.4641016151377
 20
272.0
 30
0.0
  0
VERTEX
  5
50
330
4A
100
AcDbEntity
  8
0
100
AcDbVertex
100
AcDb2dVertex
 10
547.4641016151377
 20
276.0
 30
0.0
  0
SEQEND
  5
51
330
4A
100
AcDbEntity
  8
0
  0
CIRCLE
  5
52
330
1E
100
AcDbEntity
  8
0
100
AcDbCircle
 10
544.0
 20
274.0
 30
0.0
 40
3.39023357031391
  0
CIRCLE
  5
53
330
1E
100
AcDbEntity
  8
0
100
AcDbCircle
 10
544.0
 20
274.0
 30
0.0
 40
2.0
  0
CIRCLE
  5
54
330
1E
100
AcDbEntity
  8
0
100
AcDbCircle
 10
544.0
 20
274.0
 30
0.0
 40
1.5
  0
LINE
  5
55
330
1E
100
AcDbEntity
  8
1
100
AcDbLine
 10
359.4947127398143
 20
274.0
 30
0.0
 11
403.4947127398143
 21
274.0
 31
0.0
  0
LINE
  5
56
330
1E
100
AcDbEntity
  8
0
100
AcDbLine
 10
364.4947127398143
 20
310.7999999999999
 30
0.0
 11
364.4947127398143
 21
237.1999999999999
 31
0.0
  0
LINE
  5
57
330
1E
100
AcDbEntity
  8
0
100
AcDbLine
 10
365.4947127398143
 20
236.2
 30
0.0
 11
382.4947127398143
 21
236.2
 31
0.0
  0
LINE
  5
58
330
1E
100
AcDbEntity
  8
0
100
AcDbLine
 10
365.4947127398143
 20
311.8
 30
0.0
 11
382.4947127398143
 21
311.8
 31
0.0
  0
LINE
  5
59
330
1E
100
AcDbEntity
  8
1
100
AcDbLine
 10
359.9947127398142
 20
308.7999999999999
 30
0.0
 11
365.9947127398142
 21
308.7999999999999
 31
0.0
  0
LINE
  5
5A
330
1E
100
AcDbEntity
  8
0
100
AcDbLine
 10
382.4947127398143
 20
311.8
 30
0.0
 11
383.4947127398143
 21
311.8
 31
0.0
  0
LINE
  5
5B
330
1E
100
AcDbEntity
  8
0
100
AcDbLine
 10
383.4947127398143
 20
311.8
 30
0.0
 11
383.4947127398143
 21
236.2
 31
0.0
  0
LINE
  5
5C
330
1E
100
AcDbEntity
  8
0
100
AcDbLine
 10
383.4947127398143
 20
236.2
 30
0.0
 11
382.4947127398143
 21
236.2
 31
0.0
  0
LINE
  5
5D
330
1E
100
AcDbEntity
  8
0
100
AcDbLine
 10
386.4947127398142
 20
307.8
 30
0.0
 11
386.4947127398142
 21
240.2
 31
0.0
  0
ARC
  5
5E
330
1E
100
AcDbEntity
  8
0
100
AcDbCircle
 10
365.6690460093364
 20
310.6256667304777
 30
0.0
 40
1.187202896209835
100
AcDbArc
 50
98.44405856080737
 51
171.5559414391925
  0
ARC
  5
5F
330
1E
100
AcDbEntity
  8
0
100
AcDbCircle
 10
383.7948917399586
 20
308.1001790001444
 30
0.0
 40
2.716457410560488
100
AcDbArc
 50
353.6556389248881
 51
96.3443610751117
  0
ARC
  5
60
330
1E
100
AcDbEntity
  8
0
100
AcDbCircle
 10
365.4112179532365
 20
237.116505213422
 30
0.0
 40
0.920300595248965
100
AcDbArc
 50
174.794650629565
 51
275.2053493704348
  0
ARC
  5
61
330
1E
100
AcDbEntity
  8
0
100
AcDbCircle
 10
383.4708192141722
 20
240.2238935256419
 30
0.0
 40
3.023987922427521
100
AcDbArc
 50
270.4527175561386
 51
359.5472824438612
  0
LINE
  5
62
330
1E
100
AcDbEntity
  8
0
100
AcDbLine
 10
364.4947127398143
 20
310.7999999999999
 30
0.0
 11
364.4947127398143
 21
311.2999999999999
 31
0.0
  0
LINE
  5
63
330
1E
100
AcDbEntity
  8
0
100
AcDbLine
 10
364.4947127398143
 20
311.2999999999999
 30
0.0
 11
363.4947127398143
 21
311.2999999999999
 31
0.0
  0
LINE
  5
64
330
1E
100
AcDbEntity
  8
0
100
AcDbLine
 10
364.4947127398143
 20
306.3
 30
0.0
 11
363.4947127398143
 21
306.3
 31
0.0
  0
LINE
  5
65
330
1E
100
AcDbEntity
  8
0
100
AcDbLine
 10
362.4947127398143
 20
307.3
 30
0.0
 11
362.4947127398143
 21
310.3
 31
0.0
  0
ARC
  5
66
330
1E
100
AcDbEntity
  8
0
100
AcDbCircle
 10
363.6621055281735
 20
310.1326072116407
 30
0.0
 40
1.17933297584183
100
AcDbArc
 50
98.16003615531927
 51
171.8399638446807
  0
ARC
  5
67
330
1E
100
AcDbEntity
  8
0
100
AcDbCircle
 10
363.5907182100974
 20
307.3960054702829
 30
0.0
 40
1.100202272863781
100
AcDbArc
 50
185.0060914873174
 51
264.9939085126824
  0
LINE
  5
68
330
1E
100
AcDbEntity
  8
0
100
AcDbLine
 10
386.4947127398142
 20
278.5
 30
0.0
 11
386.9947127398143
 21
278.5
 31
0.0
  0
LINE
  5
69
330
1E
100
AcDbEntity
  8
0
100
AcDbLine
 10
386.9947127398143
 20
278.5
 30
0.0
 11
386.9947127398143
 21
269.4999999999998
 31
0.0
  0
LINE
  5
6A
330
1E
100
AcDbEntity
  8
0
100
AcDbLine
 10
386.9947127398143
 20
269.4999999999998
 30
0.0
 11
386.4947127398142
 21
269.4999999999998
 31
0.0
  0
LINE
  5
6B
330
1E
100
AcDbEntity
  8
0
100
AcDbLine
 10
386.9947127398143
 20
278.0
 30
0.0
 11
389.4947127398143
 21
278.0
 31
0.0
  0
LINE
  5
6C
330
1E
100
AcDbEntity
  8
0
100
AcDbLine
 10
389.4947127398143
 20
278.0
 30
0.0
 11
389.9947127398143
 21
277.4999999999999
 31
0.0
  0
LINE
  5
6D
330
1E
100
AcDbEntity
  8
0
100
AcDbLine
 10
389.9947127398143
 20
277.4999999999999
 30
0.0
 11
389.9947127398143
 21
270.5
 31
0.0
  0
LINE
  5
6E
330
1E
100
AcDbEntity
  8
0
100
AcDbLine
 10
389.9947127398143
 20
270.5
 30
0.0
 11
389.4947127398143
 21
270.0
 31
0.0
  0
LINE
  5
6F
330
1E
100
AcDbEntity
  8
0
100
AcDbLine
 10
389.4947127398143
 20
270.0
 30
0.0
 11
386.9947127398143
 21
270.0
 31
0.0
  0
LINE
  5
70
330
1E
100
AcDbEntity
  8
0
100
AcDbLine
 10
386.9947127398143
 20
276.0
 30
0.0
 11
389.9947127398143
 21
276.0
 31
0.0
  0
LINE
  5
71
330
1E
100
AcDbEntity
  8
0
100
AcDbLine
 10
386.9947127398143
 20
272.0
 30
0.0
 11
389.9947127398143
 21
272.0
 31
0.0
  0
LINE
  5
72
330
1E
100
AcDbEntity
  8
2
100
AcDbLine
 10
365.9947127398142
 20
242.5
 30
0.0
 11
365.9947127398142
 21
305.5
 31
0.0
  0
TEXT
  5
AB
330
1E
100
AcDbEntity
  8
11
100
AcDbText
 10
644.8900342229967
 20
28.73310963276535
 30
0.0
 40
10.0
  1
１／
  7
BIGFONT
100
AcDbText
  0
CIRCLE
  5
AD
330
1E
100
AcDbEntity
  8
0
100
AcDbCircle
 10
226.1243443680054
 20
274.0653612948114
 30
0.0
 40
31.5
  0
LINE
  5
AE
330
1E
100
AcDbEntity
  8
1
100
AcDbLine
 10
226.124344368005
 20
274.0653612948114
 30
0.0
 11
226.1243443680056
 21
234.0653612948112
 31
0.0
  0
TEXT
  5
AF
330
1E
100
AcDbEntity
  8
0
100
AcDbText
 10
216.8433395100394
 20
263.0229103008303
 30
0.0
 40
2.2
  1
Ｄ
 50
359.9999999999997
 41
1.5
  7
EXTFONT
100
AcDbText
  0
LINE
  5
B0
330
1E
100
AcDbEntity
  8
11
100
AcDbLine
 10
210.9143990138067
 20
251.1859593494865
 30
0.0
 11
208.6921180817284
 21
247.8600809002763
 31
0.0
  0
LINE
  5
B1
330
1E
100
AcDbEntity
  8
11
100
AcDbLine
 10
213.2291701591308
 20
249.7985389182268
 30
0.0
 11
211.3435832118268
 21
246.2708538608334
 31
0.0
  0
LINE
  5
B2
330
1E
100
AcDbEntity
  8
11
100
AcDbLine
 10
215.6687860318058
 20
248.6446865437461
 30
0.0
 11
214.1380523023455
 21
244.9491684137008
 31
0.0
  0
TEXT
  5
B3
330
1E
100
AcDbEntity
  8
0
100
AcDbText
 10
245.5689824238787
 20
264.4144451718679
 30
0.0
 40
2.2
  1
２
 50
0.0000000000000254
 41
1.5
  7
EXTFONT
100
AcDbText
  0
LINE
  5
B4
330
1E
100
AcDbEntity
  8
11
100
AcDbLine
 10
204.9347929543706
 20
256.6055583733064
 30
0.0
 11
201.8427511409196
 21
254.0679852366516
 31
0.0
  0
LINE
  5
B5
330
1E
100
AcDbEntity
  8
11
100
AcDbLine
 10
201.9397456522662
 20
261.0879634250916
 30
0.0
 11
198.4120605948728
 21
259.2023764777875
 31
0.0
  0
LINE
  5
B6
330
1E
100
AcDbEntity
  8
11
100
AcDbLine
 10
203.3271660835258
 20
258.7731922797674
 30
0.0
 11
200.0012876343156
 21
256.5509113476891
 31
0.0
  0
LINE
  5
B7
330
1E
100
AcDbEntity
  8
11
100
AcDbLine
 10
199.2209852107571
 20
268.6863898323629
 30
0.0
 11
195.2978440891441
 21
267.9060285442985
 31
0.0
  0
TEXT
  5
B8
330
1E
100
AcDbEntity
  8
0
100
AcDbText
 10
238.8034282848405
 20
255.266507783764
 30
0.0
 40
2.2
  1
２
 50
0.0000000000000254
 41
1.5
  7
EXTFONT
100
AcDbText
  0
TEXT
  5
B9
330
1E
100
AcDbEntity
  8
0
100
AcDbText
 10
241.3016728113456
 20
255.159201929512
 30
0.0
 40
2.2
  1
５
 50
0.0000000000000254
 41
1.5
  7
EXTFONT
100
AcDbText
  0
TEXT
  5
BA
330
1E
100
AcDbEntity
  8
0
100
AcDbText
 10
247.765948485161
 20
264.4274316424084
 30
0.0
 40
2.2
  1
０
 50
0.0000000000000254
 41
1.5
  7
EXTFONT
100
AcDbText
  0
TEXT
  5
BB
330
1E
100
AcDbEntity
  8
0
100
AcDbText
 10
213.8344954951981
 20
263.0319992896252
 30
0.0
 40
2.2
  1
Ｍ
 50
359.9999999999997
 41
1.5
  7
EXTFONT
100
AcDbText
  0
TEXT
  5
BC
330
1E
100
AcDbEntity
  8
0
100
AcDbText
 10
201.5467605852516
 20
266.3705848902803
 30
0.0
 40
2.2
  1
４
 50
0.0000000000000254
 41
1.5
  7
EXTFONT
100
AcDbText
  0
LINE
  5
BD
330
1E
100
AcDbEntity
  8
11
100
AcDbLine
 10
247.4503678893213
 20
256.605558373306
 30
0.0
 11
250.5424097027722
 21
254.0679852366515
 31
0.0
  0
LINE
  5
BE
330
1E
100
AcDbEntity
  8
11
100
AcDbLine
 10
239.1559906845607
 20
249.7985389182265
 30
0.0
 11
241.0415776318648
 21
246.2708538608331
 31
0.0
  0
LINE
  5
BF
330
1E
100
AcDbEntity
  8
11
100
AcDbLine
 10
241.4707618298848
 20
251.1859593494863
 30
0.0
 11
243.6930427619634
 21
247.8600809002761
 31
0.0
  0
LINE
  5
C0
330
1E
100
AcDbEntity
  8
11
100
AcDbLine
 10
223.4971090627829
 20
246.6837937043209
 30
0.0
 11
223.1050405014647
 21
242.7030547976321
 31
0.0
  0
LINE
  5
C1
330
1E
100
AcDbEntity
  8
11
100
AcDbLine
 10
228.8880517809088
 20
246.6837937043209
 30
0.0
 11
229.280120342227
 21
242.7030547976321
 31
0.0
  0
LINE
  5
C2
330
1E
100
AcDbEntity
  8
11
100
AcDbLine
 10
226.1925804218459
 20
246.5513736878063
 30
0.0
 11
226.1925804218458
 21
242.5513736878063
 31
0.0
  0
LINE
  5
C3
330
1E
100
AcDbEntity
  8
11
100
AcDbLine
 10
236.7163748118856
 20
248.6446865437461
 30
0.0
 11
238.2471085413461
 21
244.9491684137008
 31
0.0
  0
TEXT
  5
C4
330
1E
100
AcDbEntity
  8
0
100
AcDbText
 10
215.6843048453172
 20
250.2698689819538
 30
0.0
 40
2.2
  1
３
 50
0.0000000000000254
 41
1.5
  7
EXTFONT
100
AcDbText
  0
TEXT
  5
C5
330
1E
100
AcDbEntity
  8
0
100
AcDbText
 10
231.2857965712884
 20
263.0526413099004
 30
0.0
 40
2.2
  1
／
 50
359.9999999999997
 41
1.5
  7
EXTFONT
100
AcDbText
  0
TEXT
  5
C6
330
1E
100
AcDbEntity
  8
0
100
AcDbText
 10
230.8031656907336
 20
250.1831035814238
 30
0.0
 40
2.2
  1
０
 50
0.0000000000000254
 41
1.5
  7
EXTFONT
100
AcDbText
  0
TEXT
  5
C7
330
1E
100
AcDbEntity
  8
0
100
AcDbText
 10
228.4096247517573
 20
250.1765842403729
 30
0.0
 40
2.2
  1
３
 50
0.0000000000000254
 41
1.5
  7
EXTFONT
100
AcDbText
  0
TEXT
  5
C8
330
1E
100
AcDbEntity
  8
0
100
AcDbText
 10
222.3961258963597
 20
263.0017713101324
 30
0.0
 40
2.2
  1
５
 50
359.9999999999997
 41
1.5
  7
EXTFONT
100
AcDbText
  0
TEXT
  5
C9
330
1E
100
AcDbEntity
  8
0
100
AcDbText
 10
219.8053821474885
 20
262.9402623686625
 30
0.0
 40
2.2
  1
７
 50
359.9999999999997
 41
1.5
  7
EXTFONT
100
AcDbText
  0
TEXT
  5
CA
330
1E
100
AcDbEntity
  8
0
100
AcDbText
 10
229.1043812227099
 20
263.061730298696
 30
0.0
 40
2.2
  1
１
 50
359.9999999999997
 41
1.5
  7
EXTFONT
100
AcDbText
  0
TEXT
  5
CB
330
1E
100
AcDbEntity
  8
0
100
AcDbText
 10
218.7248998294034
 20
250.1321518393239
 30
0.0
 40
2.2
  1
５
 50
0.0000000000000254
 41
1.5
  7
EXTFONT
100
AcDbText
  0
TEXT
  5
CC
330
1E
100
AcDbEntity
  8
0
100
AcDbText
 10
209.920743988555
 20
256.2742099329523
 30
0.0
 40
2.2
  1
０
 50
0.0000000000000254
 41
1.5
  7
EXTFONT
100
AcDbText
  0
TEXT
  5
CD
330
1E
100
AcDbEntity
  8
0
100
AcDbText
 10
207.0590060428684
 20
256.4119292078704
 30
0.0
 40
2.2
  1
４
 50
0.0000000000000254
 41
1.5
  7
EXTFONT
100
AcDbText
  0
TEXT
  5
CE
330
1E
100
AcDbEntity
  8
0
100
AcDbText
 10
234.2495610565753
 20
263.0000589198215
 30
0.0
 40
2.2
  1
６
 50
359.9999999999997
 41
1.5
  7
EXTFONT
100
AcDbText
  0
TEXT
  5
CF
330
1E
100
AcDbEntity
  8
0
100
AcDbText
 10
237.2304408212307
 20
263.1269532427343
 30
0.0
 40
2.2
  1
４
 50
359.9999999999997
 41
1.5
  7
EXTFONT
100
AcDbText
  0
LINE
  5
D0
330
1E
100
AcDbEntity
  8
11
100
AcDbLine
 10
250.4454151914257
 20
261.0879634250914
 30
0.0
 11
253.9731002488192
 21
259.2023764777874
 31
0.0
  0
LINE
  5
D1
330
1E
100
AcDbEntity
  8
11
100
AcDbLine
 10
249.057994760166
 20
258.7731922797672
 30
0.0
 11
252.3838732093761
 21
256.5509113476888
 31
0.0
  0
LINE
  5
D2
330
1E
100
AcDbEntity
  8
11
100
AcDbLine
 10
253.1641756329348
 20
268.6863898323628
 30
0.0
 11
257.0873167545477
 21
267.9060285442982
 31
0.0
  0
TEXT
  5
D3
330
1E
100
AcDbEntity
  8
0
100
AcDbText
 10
204.4085021496948
 20
266.4116025420751
 30
0.0
 40
2.2
  1
５
 50
0.0000000000000254
 41
1.5
  7
EXTFONT
100
AcDbText
  0
TEXT
  5
D4
330
1E
100
AcDbEntity
  8
0
100
AcDbText
 10
216.7636944119316
 20
284.1172378235066
 30
0.0
 40
2.2
  1
Ｍ
 50
359.9999999999997
 41
1.5
  7
EXTFONT
100
AcDbText
  0
LINE
  5
D5
330
1E
100
AcDbEntity
  8
1
100
AcDbLine
 10
226.124344368005
 20
274.0653612948114
 30
0.0
 11
186.1243443680051
 21
274.0653612948115
 31
0.0
  0
TEXT
  5
D6
330
1E
100
AcDbEntity
  8
0
100
AcDbText
 10
248.7179954736939
 20
275.2302441922011
 30
0.0
 40
2.2
  1
５
 50
0.0000000000000254
 41
1.5
  7
EXTFONT
100
AcDbText
  0
LINE
  5
D7
330
1E
100
AcDbEntity
  8
11
100
AcDbLine
 10
198.6925804218459
 20
274.0513736878065
 30
0.0
 11
194.6925804218458
 21
274.0513736878066
 31
0.0
  0
LINE
  5
D8
330
1E
100
AcDbEntity
  8
11
100
AcDbLine
 10
198.8250004383604
 20
271.3559023287436
 30
0.0
 11
194.8442615316718
 21
270.9638337674255
 31
0.0
  0
TEXT
  5
D9
330
1E
100
AcDbEntity
  8
0
100
AcDbText
 10
246.7729060013783
 20
275.1277004083811
 30
0.0
 40
2.2
  1
１
 50
0.0000000000000254
 41
1.5
  7
EXTFONT
100
AcDbText
  0
LINE
  5
DA
330
1E
100
AcDbEntity
  8
11
100
AcDbLine
 10
199.7196035705414
 20
281.9828286244978
 30
0.0
 11
195.8918422276124
 21
283.1439673335156
 31
0.0
  0
LINE
  5
DB
330
1E
100
AcDbEntity
  8
11
100
AcDbLine
 10
200.6287756591166
 20
284.52379439004
 30
0.0
 11
196.9332575290715
 21
286.0545281195003
 31
0.0
  0
LINE
  5
DC
330
1E
100
AcDbEntity
  8
11
100
AcDbLine
 10
201.7826280335972
 20
286.9634102627151
 30
0.0
 11
198.2549429762038
 21
288.8489972100189
 31
0.0
  0
TEXT
  5
DD
330
1E
100
AcDbEntity
  8
0
100
AcDbText
 10
245.0606343359551
 20
286.3026852001591
 30
0.0
 40
2.2
  1
０
 50
0.0000000000000254
 41
1.5
  7
EXTFONT
100
AcDbText
  0
TEXT
  5
DE
330
1E
100
AcDbEntity
  8
0
100
AcDbText
 10
243.1050565765992
 20
286.4018435937949
 30
0.0
 40
2.2
  1
１
 50
0.0000000000000254
 41
1.5
  7
EXTFONT
100
AcDbText
  0
LINE
  5
DF
330
1E
100
AcDbEntity
  8
11
100
AcDbLine
 10
218.0526341786795
 20
300.3158592326357
 30
0.0
 11
216.8914954696616
 21
304.1436205755646
 31
0.0
  0
LINE
  5
E0
330
1E
100
AcDbEntity
  8
11
100
AcDbLine
 10
208.5896474886768
 20
295.2577874674753
 30
0.0
 11
206.0520743520223
 21
298.3498292809263
 31
0.0
  0
LINE
  5
E1
330
1E
100
AcDbEntity
  8
11
100
AcDbLine
 10
206.5900263205469
 20
293.44543648263
 30
0.0
 11
203.7615991958008
 21
296.2738636073763
 31
0.0
  0
LINE
  5
E2
330
1E
100
AcDbEntity
  8
11
100
AcDbLine
 10
210.757281395138
 20
296.86541433832
 30
0.0
 11
208.5350004630595
 21
300.1912927875303
 31
0.0
  0
TEXT
  5
E3
330
1E
100
AcDbEntity
  8
0
100
AcDbText
 10
235.5094815528941
 20
294.6189527252254
 30
0.0
 40
2.2
  1
５
 50
0.0000000000000254
 41
1.5
  7
EXTFONT
100
AcDbText
  0
LINE
  5
E4
330
1E
100
AcDbEntity
  8
1
100
AcDbLine
 10
226.124344368005
 20
274.0653612948114
 30
0.0
 11
226.1243443680054
 21
314.5653612948117
 31
0.0
  0
TEXT
  5
E5
330
1E
100
AcDbEntity
  8
0
100
AcDbText
 10
201.0564444152191
 20
276.9116686997285
 30
0.0
 40
2.2
  1
５
 50
0.0000000000000254
 41
1.5
  7
EXTFONT
100
AcDbText
  0
LINE
  5
E6
330
1E
100
AcDbEntity
  8
1
100
AcDbLine
 10
226.124344368005
 20
274.0653612948114
 30
0.0
 11
266.1243443680052
 21
274.0653612948112
 31
0.0
  0
LINE
  5
E7
330
1E
100
AcDbEntity
  8
11
100
AcDbLine
 10
245.6380169044761
 20
293.4968101704363
 30
0.0
 11
248.4664440292223
 21
296.3252372951826
 31
0.0
  0
LINE
  5
E8
330
1E
100
AcDbEntity
  8
0
100
AcDbLine
 10
225.624344368005
 20
289.0653612948111
 30
0.0
 11
225.6243443680054
 21
299.0653612948115
 31
0.0
  0
LINE
  5
E9
330
1E
100
AcDbEntity
  8
0
100
AcDbLine
 10
226.6243443680052
 20
299.0653612948116
 30
0.0
 11
226.6243443680056
 21
289.0653612948115
 31
0.0
  0
TEXT
  5
EA
330
1E
100
AcDbEntity
  8
0
100
AcDbText
 10
230.5291581320225
 20
284.1899390724272
 30
0.0
 40
2.2
  1
Ｈ
 50
359.9999999999997
 41
1.5
  7
EXTFONT
100
AcDbText
  0
LINE
  5
EB
330
1E
100
AcDbEntity
  8
0
100
AcDbLine
 10
225.624344368005
 20
289.0653612948111
 30
0.0
 11
225.6243443680054
 21
277.0235358622096
 31
0.0
  0
LINE
  5
EC
330
1E
100
AcDbEntity
  8
0
100
AcDbLine
 10
226.6243443680055
 20
277.0235358622092
 30
0.0
 11
226.6243443680056
 21
289.0653612948115
 31
0.0
  0
ARC
  5
ED
330
1E
100
AcDbEntity
  8
0
100
AcDbCircle
 10
226.1243443680054
 20
274.0653612948114
 30
0.0
 40
3.0
100
AcDbArc
 50
99.61656667476708
 51
80.42720011824632
  0
LINE
  5
EE
330
1E
100
AcDbEntity
  8
0
100
AcDbLine
 10
228.5424699995021
 20
275.9099936241113
 30
0.0
 11
228.5067590960474
 21
275.8734164397928
 31
0.0
  0
LINE
  5
EF
330
1E
100
AcDbEntity
  8
0
100
AcDbLine
 10
225.6243639913523
 20
277.0227639738783
 30
0.0
 11
225.6243639913522
 21
277.0235806402619
 31
0.0
  0
LINE
  5
F0
330
1E
100
AcDbEntity
  8
0
100
AcDbLine
 10
227.8135013720808
 20
276.5945407300399
 30
0.0
 11
227.7791497406294
 21
276.5594161997065
 31
0.0
  0
LINE
  5
F1
330
1E
100
AcDbEntity
  8
0
100
AcDbLine
 10
229.0818940018257
 20
274.5653551218369
 30
0.0
 11
229.0842787623375
 21
274.5653551218369
 31
0.0
  0
ARC
  5
F2
330
1E
100
AcDbEntity
  8
0
100
AcDbCircle
 10
226.1243443680054
 20
284.6653612948114
 30
0.0
 40
1.499999999999886
100
AcDbArc
 50
109.4016673413533
 51
126.8698976458467
  0
ARC
  5
F3
330
1E
100
AcDbEntity
  8
0
100
AcDbCircle
 10
226.1243443680053
 20
285.8653612948115
 30
0.0
 40
1.49999999999993
100
AcDbArc
 50
233.1301023541549
 51
250.4710960001134
  0
LINE
  5
F4
330
1E
100
AcDbEntity
  8
0
100
AcDbLine
 10
225.2243443680054
 20
284.6653612948115
 30
0.0
 11
225.2243443680057
 21
285.8653612948113
 31
0.0
  0
TEXT
  5
F5
330
1E
100
AcDbEntity
  8
0
100
AcDbText
 10
219.4716533015375
 20
284.0148055655155
 30
0.0
 40
2.2
  1
Ｉ
 50
359.9999999999997
 41
1.5
  7
EXTFONT
100
AcDbText
  0
TEXT
  5
F6
330
1E
100
AcDbEntity
  8
0
100
AcDbText
 10
221.8787306846644
 20
284.1560556890844
 30
0.0
 40
2.2
  1
Ｙ
 50
359.9999999999997
 41
1.5
  7
EXTFONT
100
AcDbText
  0
LINE
  5
F7
330
1E
100
AcDbEntity
  8
0
100
AcDbLine
 10
227.0243443680053
 20
285.8653612948112
 30
0.0
 11
227.0243443680054
 21
284.6653612948116
 31
0.0
  0
ARC
  5
F8
330
1E
100
AcDbEntity
  8
0
100
AcDbCircle
 10
226.1243443680053
 20
285.8653612948115
 30
0.0
 40
1.49999999999993
100
AcDbArc
 50
289.5790168239395
 51
306.8698976458457
  0
ARC
  5
F9
330
1E
100
AcDbEntity
  8
0
100
AcDbCircle
 10
226.1243443680054
 20
284.6653612948114
 30
0.0
 40
1.499999999999886
100
AcDbArc
 50
53.13010235415361
 51
70.49367631277114
  0
TEXT
  5
FA
330
1E
100
AcDbEntity
  8
0
100
AcDbText
 10
227.595533589112
 20
284.137879843782
 30
0.0
 40
2.2
  1
Ｓ
 50
359.9999999999997
 41
1.5
  7
EXTFONT
100
AcDbText
  0
TEXT
  5
FB
330
1E
100
AcDbEntity
  8
0
100
AcDbText
 10
232.785792952532
 20
284.0965958032312
 30
0.0
 40
2.2
  1
Ｉ
 50
359.9999999999997
 41
1.5
  7
EXTFONT
100
AcDbText
  0
TEXT
  5
FC
330
1E
100
AcDbEntity
  8
0
100
AcDbText
 10
208.7905375874243
 20
287.8389087271168
 30
0.0
 40
2.2
  1
５
 50
0.0000000000000254
 41
1.5
  7
EXTFONT
100
AcDbText
  0
TEXT
  5
FD
330
1E
100
AcDbEntity
  8
0
100
AcDbText
 10
205.9288032604943
 20
287.9766258697466
 30
0.0
 40
2.2
  1
５
 50
0.0000000000000254
 41
1.5
  7
EXTFONT
100
AcDbText
  0
LINE
  5
FE
330
1E
100
AcDbEntity
  8
1
100
AcDbLine
 10
218.6243443680051
 20
308.5653612948116
 30
0.0
 11
234.1243443680054
 21
308.5653612948115
 31
0.0
  0
LINE
  5
FF
330
1E
100
AcDbEntity
  8
11
100
AcDbLine
 10
231.5575642772897
 20
301.0229688988952
 30
0.0
 11
232.3379255653541
 21
304.9461100205084
 31
0.0
  0
LINE
  5
100
330
1E
100
AcDbEntity
  8
11
100
AcDbLine
 10
220.6704789477337
 20
300.9715952110888
 30
0.0
 11
219.8901176596691
 21
304.8947363327016
 31
0.0
  0
LINE
  5
101
330
1E
100
AcDbEntity
  8
11
100
AcDbLine
 10
226.1925804218464
 20
299.5513736878065
 30
0.0
 11
226.192580421846
 21
305.5513736878066
 31
0.0
  0
LINE
  5
102
330
1E
100
AcDbEntity
  8
11
100
AcDbLine
 10
228.8880517809091
 20
301.4189536712919
 30
0.0
 11
229.2801203422273
 21
305.3996925779808
 31
0.0
  0
LINE
  5
103
330
1E
100
AcDbEntity
  8
11
100
AcDbLine
 10
223.3399914441144
 20
301.3675799834854
 30
0.0
 11
222.9479228827959
 21
305.3483188901742
 31
0.0
  0
ARC
  5
104
330
1E
100
AcDbEntity
  8
0
100
AcDbCircle
 10
226.53552333228
 20
295.4765402590858
 30
0.0
 40
1.679783668853874
100
AcDbArc
 50
212.8497778973122
 51
237.1502221026876
  0
ARC
  5
105
330
1E
100
AcDbEntity
  8
0
100
AcDbCircle
 10
226.0163839928309
 20
295.6733216699868
 30
0.0
 40
0.9743868634638801
100
AcDbArc
 50
113.7248541249504
 51
156.2751458750543
  0
LINE
  5
106
330
1E
100
AcDbEntity
  8
0
100
AcDbLine
 10
225.1243443680056
 20
294.5653612948115
 30
0.0
 11
225.1243443680056
 21
296.0653612948113
 31
0.0
  0
LINE
  5
107
330
1E
100
AcDbEntity
  8
0
100
AcDbLine
 10
227.1243443680051
 20
294.5653612948112
 30
0.0
 11
227.1243443680054
 21
296.0653612948112
 31
0.0
  0
LINE
  5
108
330
1E
100
AcDbEntity
  8
0
100
AcDbLine
 10
225.6243443680054
 20
299.0653612948115
 30
0.0
 11
226.6243443680052
 21
299.0653612948116
 31
0.0
  0
ARC
  5
109
330
1E
100
AcDbEntity
  8
0
100
AcDbCircle
 10
226.3716503116339
 20
295.8126672384398
 30
0.0
 40
0.7939789850007008
100
AcDbArc
 50
18.55790507951238
 51
71.44209492048735
  0
ARC
  5
10A
330
1E
100
AcDbEntity
  8
0
100
AcDbCircle
 10
226.4001202240347
 20
294.7895854387825
 30
0.0
 40
0.7581405393787774
100
AcDbArc
 50
287.2028388342105
 51
342.7971611657894
  0
CIRCLE
  5
10B
330
1E
100
AcDbEntity
  8
0
100
AcDbCircle
 10
226.124344368005
 20
308.5653612948111
 30
0.0
 40
2.5
  0
LINE
  5
10C
330
1E
100
AcDbEntity
  8
0
100
AcDbLine
 10
225.6243443680056
 20
308.0653612948116
 30
0.0
 11
224.6243443680051
 21
308.0653612948115
 31
0.0
  0
LINE
  5
10D
330
1E
100
AcDbEntity
  8
0
100
AcDbLine
 10
224.6243443680052
 20
309.0653612948115
 30
0.0
 11
225.6243443680054
 21
309.0653612948113
 31
0.0
  0
LINE
  5
10E
330
1E
100
AcDbEntity
  8
0
100
AcDbLine
 10
224.6243443680051
 20
308.0653612948115
 30
0.0
 11
224.6243443680052
 21
309.0653612948115
 31
0.0
  0
LINE
  5
10F
330
1E
100
AcDbEntity
  8
0
100
AcDbLine
 10
225.6243443680054
 20
310.0653612948115
 30
0.0
 11
226.6243443680052
 21
310.0653612948117
 31
0.0
  0
LINE
  5
110
330
1E
100
AcDbEntity
  8
0
100
AcDbLine
 10
226.6243443680056
 20
307.0653612948115
 30
0.0
 11
225.6243443680053
 21
307.0653612948113
 31
0.0
  0
LINE
  5
111
330
1E
100
AcDbEntity
  8
0
100
AcDbLine
 10
225.6243443680054
 20
309.0653612948113
 30
0.0
 11
225.6243443680054
 21
310.0653612948115
 31
0.0
  0
LINE
  5
112
330
1E
100
AcDbEntity
  8
0
100
AcDbLine
 10
225.6243443680053
 20
307.0653612948113
 30
0.0
 11
225.6243443680056
 21
308.0653612948116
 31
0.0
  0
LINE
  5
113
330
1E
100
AcDbEntity
  8
0
100
AcDbLine
 10
227.6243443680054
 20
308.0653612948112
 30
0.0
 11
226.6243443680056
 21
308.0653612948112
 31
0.0
  0
LINE
  5
114
330
1E
100
AcDbEntity
  8
0
100
AcDbLine
 10
226.6243443680055
 20
309.0653612948116
 30
0.0
 11
227.6243443680056
 21
309.0653612948116
 31
0.0
  0
LINE
  5
115
330
1E
100
AcDbEntity
  8
0
100
AcDbLine
 10
226.6243443680052
 20
310.0653612948117
 30
0.0
 11
226.6243443680055
 21
309.0653612948116
 31
0.0
  0
LINE
  5
116
330
1E
100
AcDbEntity
  8
0
100
AcDbLine
 10
226.6243443680056
 20
308.0653612948112
 30
0.0
 11
226.6243443680056
 21
307.0653612948115
 31
0.0
  0
LINE
  5
117
330
1E
100
AcDbEntity
  8
0
100
AcDbLine
 10
227.6243443680056
 20
309.0653612948116
 30
0.0
 11
227.6243443680054
 21
308.0653612948112
 31
0.0
  0
LINE
  5
118
330
1E
100
AcDbEntity
  8
11
100
AcDbLine
 10
234.1754090463437
 20
300.3672329204421
 30
0.0
 11
235.3365477553618
 21
304.1949942633712
 31
0.0
  0
TEXT
  5
119
330
1E
100
AcDbEntity
  8
0
100
AcDbText
 10
219.2275559589897
 20
294.8915860872546
 30
0.0
 40
2.2
  1
０
 50
0.0000000000000254
 41
1.5
  7
EXTFONT
100
AcDbText
  0
TEXT
  5
11A
330
1E
100
AcDbEntity
  8
0
100
AcDbText
 10
216.7235320901018
 20
295.0293032298844
 30
0.0
 40
2.2
  1
６
 50
0.0000000000000254
 41
1.5
  7
EXTFONT
100
AcDbText
  0
LINE
  5
11B
330
1E
100
AcDbEntity
  8
11
100
AcDbLine
 10
241.4707618298852
 20
296.9167880261264
 30
0.0
 11
243.6930427619635
 21
300.2426664753368
 31
0.0
  0
LINE
  5
11C
330
1E
100
AcDbEntity
  8
11
100
AcDbLine
 10
243.6383957363464
 20
295.3091611552816
 30
0.0
 11
246.1759688730011
 21
298.4012029687327
 31
0.0
  0
LINE
  5
11D
330
1E
100
AcDbEntity
  8
11
100
AcDbLine
 10
253.6925804218462
 20
274.0513736878062
 30
0.0
 11
257.692580421846
 21
274.0513736878062
 31
0.0
  0
LINE
  5
11E
330
1E
100
AcDbEntity
  8
11
100
AcDbLine
 10
253.5601604053314
 20
271.3559023287434
 30
0.0
 11
257.5408993120204
 21
270.9638337674252
 31
0.0
  0
TEXT
  5
11F
330
1E
100
AcDbEntity
  8
0
100
AcDbText
 10
203.5604646653504
 20
276.9526863515234
 30
0.0
 40
2.2
  1
０
 50
0.0000000000000254
 41
1.5
  7
EXTFONT
100
AcDbText
  0
LINE
  5
120
330
1E
100
AcDbEntity
  8
11
100
AcDbLine
 10
251.5992675659065
 20
284.5751680778464
 30
0.0
 11
255.2947856959515
 21
286.1059018073068
 31
0.0
  0
LINE
  5
121
330
1E
100
AcDbEntity
  8
11
100
AcDbLine
 10
252.5084396544817
 20
282.0342023123041
 30
0.0
 11
256.3362009974107
 21
283.195341021322
 31
0.0
  0
LINE
  5
122
330
1E
100
AcDbEntity
  8
11
100
AcDbLine
 10
250.4454151914258
 20
287.0147839505212
 30
0.0
 11
253.9731002488192
 21
288.9003708978252
 31
0.0
  0
TEXT
  5
123
330
1E
100
AcDbEntity
  8
11
100
AcDbText
 10
673.1866941504297
 20
28.73310750047712
 30
0.0
 40
10.0
  1
６
  7
BIGFONT
100
AcDbText
  0
TEXT
  5
124
330
1E
100
AcDbEntity
  8
11
100
AcDbText
 10
685.0530380952049
 20
28.59121426798111
 30
0.0
 40
10.0
  1
４
  7
BIGFONT
100
AcDbText
  0
TEXT
  5
125
330
1E
100
AcDbEntity
  8
11
100
AcDbText
 10
563.6512313472525
 20
27.82094658959357
 30
0.0
 40
10.0
  1
ＭＤ－７５Ｒ
  7
BIGFONT
100
AcDbText
  0
LINE
  5
126
330
1E
100
AcDbEntity
  8
11
100
AcDbLine
 10
213.1138506618721
 20
298.2670133931558
 30
0.0
 11
211.2450886345607
 21
301.6907027630776
 31
0.0
  0
LINE
  5
127
330
1E
100
AcDbEntity
  8
11
100
AcDbLine
 10
236.629130900376
 20
299.3563695863781
 30
0.0
 11
238.3421633618708
 21
303.0913026690971
 31
0.0
  0
LINE
  5
128
330
1E
100
AcDbEntity
  8
11
100
AcDbLine
 10
238.3421633618708
 20
297.0220342773906
 30
0.0
 11
241.3010395874108
 21
301.5350798405349
 31
0.0
  0
LINE
  5
129
330
1E
100
AcDbEntity
  8
11
100
AcDbLine
 10
247.5302547888807
 20
291.5752554435665
 30
0.0
 11
250.4891310144206
 21
293.7539678300113
 31
0.0
  0
LINE
  5
12A
330
1E
100
AcDbEntity
  8
11
100
AcDbLine
 10
247.9974434863301
 20
288.7740556315271
 30
0.0
 11
252.2021634759155
 21
291.2640117307694
 31
0.0
  0
LINE
  5
12B
330
1E
100
AcDbEntity
  8
11
100
AcDbLine
 10
253.2922740553877
 20
279.4367186601533
 30
0.0
 11
257.0298017287669
 21
280.0592082180357
 31
0.0
  0
LINE
  5
12C
330
1E
100
AcDbEntity
  8
11
100
AcDbLine
 10
252.0464339100989
 20
276.635518848114
 30
0.0
 11
257.4969940449729
 21
276.9467625609111
 31
0.0
  0
LINE
  5
12D
330
1E
100
AcDbEntity
  8
11
100
AcDbLine
 10
256.4068834655008
 20
264.8082257774979
 30
0.0
 11
252.3578930417321
 21
266.0532027609747
 31
0.0
  0
LINE
  5
12E
330
1E
100
AcDbEntity
  8
11
100
AcDbLine
 10
255.1610397014556
 20
261.8514030429158
 30
0.0
 11
250.2146402160941
 21
264.1110455866355
 31
0.0
  0
LINE
  5
12F
330
1E
100
AcDbEntity
  8
11
100
AcDbLine
 10
248.3089062367197
 20
251.8915765136592
 30
0.0
 11
245.8172187086292
 21
254.3815347451896
 31
0.0
  0
LINE
  5
130
330
1E
100
AcDbEntity
  8
11
100
AcDbLine
 10
235.3832871363308
 20
243.9548415805931
 30
0.0
 11
234.1374469910421
 21
247.8453975858549
 31
0.0
  0
LINE
  5
131
330
1E
100
AcDbEntity
  8
11
100
AcDbLine
 10
232.2686813449743
 20
243.3323520227105
 30
0.0
 11
230.8671080151124
 21
249.5572433369598
 31
0.0
  0
LINE
  5
132
330
1E
100
AcDbEntity
  8
11
100
AcDbLine
 10
219.9659877453644
 20
243.3323520227105
 30
0.0
 11
220.7446391932035
 21
247.2229101602604
 31
0.0
  0
LINE
  5
133
330
1E
100
AcDbEntity
  8
11
100
AcDbLine
 10
217.0071115198243
 20
243.954841580593
 30
0.0
 11
218.7201439813192
 21
249.7128662595025
 31
0.0
  0
LINE
  5
134
330
1E
100
AcDbEntity
  8
11
100
AcDbLine
 10
206.2617171971363
 20
249.7128662595025
 30
0.0
 11
208.7534047252268
 21
252.6696889940845
 31
0.0
  0
LINE
  5
135
330
1E
100
AcDbEntity
  8
11
100
AcDbLine
 10
204.0814924194354
 20
251.8915765136592
 30
0.0
 11
208.1304828432041
 21
255.6265117286664
 31
0.0
  0
LINE
  5
136
330
1E
100
AcDbEntity
  8
11
100
AcDbLine
 10
197.2293589546995
 20
261.8514030429158
 30
0.0
 11
200.9668866280788
 21
263.5632466617327
 31
0.0
  0
LINE
  5
137
330
1E
100
AcDbEntity
  8
11
100
AcDbLine
 10
196.1392483752272
 20
264.4969820647007
 30
0.0
 11
201.5898085101013
 21
266.5200715286029
 31
0.0
  0
LINE
  5
138
330
1E
100
AcDbEntity
  8
11
100
AcDbLine
 10
194.8934046111821
 20
277.1023854834538
 30
0.0
 11
198.9423914161944
 21
276.7911396383684
 31
0.0
  0
LINE
  5
139
330
1E
100
AcDbEntity
  8
11
100
AcDbLine
 10
195.3605969273882
 20
280.3704519308329
 30
0.0
 11
200.8111570622622
 21
279.1254749473561
 31
0.0
  0
LINE
  5
13A
330
1E
100
AcDbEntity
  8
11
100
AcDbLine
 10
200.0325056144231
 20
291.5752554435665
 30
0.0
 11
203.1471114057796
 21
289.240922266867
 31
0.0
  0
LINE
  5
13B
330
1E
100
AcDbEntity
  8
11
100
AcDbLine
 10
201.9012676417344
 20
293.909588620266
 30
0.0
 11
205.9502580655032
 21
290.1746555375469
 31
0.0
  0
LINE
  5
13C
330
1E
100
AcDbEntity
  8
11
100
AcDbLine
 10
214.2039648601008
 20
303.0913026690971
 30
0.0
 11
216.3841896378017
 21
297.4889009127304
 31
0.0
  0
LINE
  5
13D
330
1E
100
AcDbEntity
  8
11
100
AcDbLine
 10
246.2844110248354
 20
249.8684870497571
 30
0.0
 11
242.5468833514561
 21
253.9146659775616
 31
0.0
  0
LINE
  5
13E
330
1E
100
AcDbEntity
  8
0
100
AcDbLine
 10
229.0345627501812
 20
273.7964590576524
 30
0.0
 11
245.4551107402726
 21
275.4137418730903
 31
0.0
  0
LINE
  5
13F
330
1E
100
AcDbEntity
  8
0
100
AcDbLine
 10
245.4551107402726
 20
275.4137418730903
 30
0.0
 11
245.3570935999429
 21
276.4089265997625
 31
0.0
  0
LINE
  5
140
330
1E
100
AcDbEntity
  8
0
100
AcDbLine
 10
245.3570935999429
 20
276.4089265997625
 30
0.0
 11
228.9365456098518
 21
274.7916437843247
 31
0.0
  0
CIRCLE
  5
21F
330
1E
100
AcDbEntity
  8
0
100
AcDbCircle
 10
226.124344368005
 20
274.0653612948114
 30
0.0
 40
37.79999999999999
  0
CIRCLE
  5
220
330
1E
100
AcDbEntity
  8
0
100
AcDbCircle
 10
544.0
 20
274.0
 30
0.0
 40
37.79999999999999
  0
ENDSEC
  0
SECTION
  2
OBJECTS
  0
DICTIONARY
  5
C
330
0
100
AcDbDictionary
281
     1
  3
ACAD_GROUP
350
D
  3
ACAD_LAYOUT
350
19
  3
ACAD_MLINESTYLE
350
16
  3
ACAD_PLOTSETTINGS
350
18
  3
ACAD_PLOTSTYLENAME
350
E
  3
AcDbVariableDictionary
350
229
  3
AcmDictionary
350
1FB
  3
AMG
350
143
  3
AMGSNAPSETTINGS
350
218
  3
DWGPROPS
350
1FE
  3
MAPISURF_MODULE
350
1CE
  0
DICTIONARY
  5
221
330
1E
100
AcDbDictionary
280
     1
281
     1
  3
ACAD_INDEX
360
222
  0
DICTIONARY
  5
D
102
{ACAD_REACTORS
330
C
102
}
330
C
100
AcDbDictionary
281
     1
  0
DICTIONARY
  5
19
102
{ACAD_REACTORS
330
C
102
}
330
C
100
AcDbDictionary
281
     1
  3
Model
350
21
  3
ﾚｲｱｳﾄ1
350
1D
  0
DICTIONARY
  5
16
102
{ACAD_REACTORS
330
C
102
}
330
C
100
AcDbDictionary
281
     1
  3
Standard
350
17
  0
DICTIONARY
  5
18
102
{ACAD_REACTORS
330
C
102
}
330
C
100
AcDbDictionary
281
     1
  0
ACDBDICTIONARYWDFLT
  5
E
102
{ACAD_REACTORS
330
C
102
}
330
C
100
AcDbDictionary
281
     1
  3
Normal
350
F
100
AcDbDictionaryWithDefault
340
F
  0
DICTIONARY
  5
229
102
{ACAD_REACTORS
330
C
102
}
330
C
100
AcDbDictionary
281
     1
  3
DIMASSOC
350
22B
  3
INDEXCTL
350
22A
  0
DICTIONARY
  5
1FB
102
{ACAD_REACTORS
330
C
102
}
330
C
100
AcDbDictionary
281
     1
  3
AcmBOMDATA
350
1FC
  0
DICTIONARY
  5
143
102
{ACAD_REACTORS
330
C
102
}
330
C
100
AcDbDictionary
281
     1
  3
AcMgSettings
350
144
  3
AMGLAYCFG
350
208
  0
DICTIONARY
  5
218
102
{ACAD_REACTORS
330
C
102
}
330
C
100
AcDbDictionary
281
     1
  3
DIMENSION
350
21D
  3
FEA
350
21C
  3
HATCH (1)
350
219
  3
HATCH (2)
350
21A
  3
SIMPLE WELD
350
21E
  3
SYMBOLS
350
21B
  0
XRECORD
  5
1FE
102
{ACAD_REACTORS
330
C
102
}
330
C
100
AcDbXrecord
280
     1
  1
DWGPROPS COOKIE
  2

  3

  4

  6

  7

  8

  9

300
AmdtFileType=84
301
=
302
=
303
=
304
=
305
=
306
=
307
=
308
=
309
=
 40
0.0000048842592593
 41
2450686.814131944
 42
2450686.814131944
  1

 90
        1
  0
DICTIONARY
  5
222
102
{ACAD_REACTORS
330
221
102
}
330
221
100
AcDbDictionary
281
     1
  3
*A1
350
223
  0
LAYOUT
  5
21
102
{ACAD_REACTORS
330
19
102
}
330
19
100
AcDbPlotSettings
  1

  2
\\KONISHIDENXP\SHARP MX-2700FG
  4

  6

 40
0.0
 41
0.0
 42
0.0
 43
0.0
 44
0.0
 45
0.0
 46
0.0
 47
0.0
 48
0.0
 49
0.0
140
0.0
141
0.0
142
1.0
143
1.0
 70
  1712
 72
     0
 73
     0
 74
     0
  7

 75
     0
147
1.0
148
0.0
149
0.0
100
AcDbLayout
  1
Model
 70
     1
 71
     0
 10
0.0
 20
0.0
 11
12.0
 21
9.0
 12
0.0
 22
0.0
 32
0.0
 14
0.0
 24
0.0
 34
0.0
 15
0.0
 25
0.0
 35
0.0
146
0.0
 13
0.0
 23
0.0
 33
0.0
 16
1.0
 26
0.0
 36
0.0
 17
0.0
 27
1.0
 37
0.0
 76
     0
330
1E
  0
LAYOUT
  5
1D
102
{ACAD_REACTORS
330
19
102
}
330
19
100
AcDbPlotSettings
  1

  2
\\KONISHIDENXP\SHARP MX-2700FG
  4

  6

 40
0.0
 41
0.0
 42
0.0
 43
0.0
 44
0.0
 45
0.0
 46
0.0
 47
0.0
 48
0.0
 49
0.0
140
0.0
141
0.0
142
1.0
143
1.0
 70
   688
 72
     0
 73
     0
 74
     5
  7

 75
    16
147
1.0
148
0.0
149
0.0
100
AcDbLayout
  1
ﾚｲｱｳﾄ1
 70
     0
 71
     1
 10
0.0
 20
0.0
 11
12.0
 21
9.0
 12
0.0
 22
0.0
 32
0.0
 14
1.000000000000000E+20
 24
1.000000000000000E+20
 34
1.000000000000000E+20
 15
-1.000000000000000E+20
 25
-1.000000000000000E+20
 35
-1.000000000000000E+20
146
0.0
 13
0.0
 23
0.0
 33
0.0
 16
1.0
 26
0.0
 36
0.0
 17
0.0
 27
1.0
 37
0.0
 76
     0
330
1A
  0
MLINESTYLE
  5
17
102
{ACAD_REACTORS
330
16
102
}
330
16
100
AcDbMlineStyle
  2
STANDARD
 70
     0
  3

 62
   256
 51
90.0
 52
90.0
 71
     2
 49
0.5
 62
   256
  6
BYLAYER
 49
-0.5
 62
   256
  6
BYLAYER
  0
ACDBPLACEHOLDER
  5
F
102
{ACAD_REACTORS
330
E
102
}
330
E
  0
DICTIONARYVAR
  5
22B
102
{ACAD_REACTORS
330
229
102
}
330
229
100
DictionaryVariables
280
     0
  1
0
  0
DICTIONARYVAR
  5
22A
102
{ACAD_REACTORS
330
229
102
}
330
229
100
DictionaryVariables
280
     0
  1
1
  0
ACMDATADICTIONARY
  5
1FC
102
{ACAD_REACTORS
330
1FB
102
}
330
1FB
100
AcDbDictionary
281
     1
  3
*A1
350
1FD
100
AcmDataDictionary
  0
DICTIONARY
  5
144
102
{ACAD_REACTORS
330
143
102
}
330
143
100
AcDbDictionary
281
     1
  3
DWGSETTINGS
350
145
  0
ACAMGFILTERDAT
  5
21D
102
{ACAD_REACTORS
330
218
102
}
330
218
100
AcAmgFilterDat
 70
    15
  1
DIMENSION,AMDT_*_DIM
  2
*
  3
*
  4
*
  5
*
290
     1
  0
ACAMGFILTERDAT
  5
21C
102
{ACAD_REACTORS
330
218
102
}
330
218
100
AcAmgFilterDat
 70
    15
  1
*
  2
AM_FEA-AM_*
  3
*
  4
*
  5
*
290
     1
  0
ACAMGFILTERDAT
  5
219
102
{ACAD_REACTORS
330
218
102
}
330
218
100
AcAmgFilterDat
 70
    15
  1
HATCH
  2
*
  3
*
  4
*
  5
*
290
     1
  0
ACAMGFILTERDAT
  5
21A
102
{ACAD_REACTORS
330
218
102
}
330
218
100
AcAmgFilterDat
 70
    15
  1
LINE
  2
8,8N,*-8,*-8N,AM_8,AM_8N,*-AM_8,*-AM_8N
  3
*
  4
*
  5
INSERT,STDPART2D
290
     1
  0
ACAMGFILTERDAT
  5
21E
102
{ACAD_REACTORS
330
218
102
}
330
218
100
AcAmgFilterDat
 70
    15
  1
ARC
  2
AM_5
  3
*
  4
2
  5
INSERT
290
     0
  0
ACAMGFILTERDAT
  5
21B
102
{ACAD_REACTORS
330
218
102
}
330
218
100
AcAmgFilterDat
 70
    15
  1
ACMFCFRAME,ACMDATUMTARGET,ACMDATUMID,ACMWELDSYM,ACMSURFSYM,ACMFEATID,ACMPARTREF,ACMBALLOON,AMDTEDGESYM,AMGSCREWCALCTABLE
  2
*
  3
*
  4
*
  5
*
290
     1
  0
LAYER_INDEX
  5
223
102
{ACAD_REACTORS
330
222
102
}
330
222
100
AcDbIndex
 40
2456524.574107882
100
AcDbLayerIndex
  8
0
360
224
 90
      112
  8
1
360
225
 90
        9
  8
10
360
226
 90
        0
  8
11
360
227
 90
       69
  8
2
360
228
 90
        1
  0
ACMDATAENTRYBLOCK
  5
1FD
102
{ACAD_REACTORS
330
1FC
102
}
330
1FC
100
AcmDataEntry
100
AcmDataEntryBlock
  0
IDBUFFER
  5
224
330
0
100
AcDbIdBuffer
330
CA
330
CB
330
CC
330
CD
330
CE
330
CF
330
D3
330
D4
330
D6
330
D9
330
DD
330
DE
330
E3
330
E5
330
E8
330
E9
330
EA
330
EB
330
EC
330
ED
330
EE
330
EF
330
F0
330
F1
330
F2
330
F3
330
F4
330
F5
330
F6
330
F7
330
F8
330
F9
330
FA
330
FB
330
FC
330
FD
330
104
330
105
330
106
330
107
330
108
330
109
330
10A
330
10B
330
10C
330
10D
330
10E
330
10F
330
110
330
111
330
112
330
113
330
114
330
115
330
116
330
117
330
119
330
11A
330
11F
330
13E
330
13F
330
140
330
21F
330
220
330
47
330
48
330
49
330
4A
330
52
330
53
330
54
330
56
330
57
330
58
330
5A
330
5B
330
5C
330
5D
330
5E
330
5F
330
60
330
61
330
62
330
63
330
64
330
65
330
66
330
67
330
68
330
69
330
6A
330
6B
330
6C
330
6D
330
6E
330
6F
330
70
330
71
330
AD
330
AF
330
B3
330
B8
330
B9
330
BA
330
BB
330
BC
330
C4
330
C5
330
C6
330
C7
330
C8
330
C9
  0
IDBUFFER
  5
225
330
0
100
AcDbIdBuffer
330
44
330
45
330
55
330
59
330
AE
330
D5
330
E4
330
E6
330
FE
  0
IDBUFFER
  5
226
330
0
100
AcDbIdBuffer
  0
IDBUFFER
  5
227
330
0
100
AcDbIdBuffer
330
129
330
12A
330
12B
330
12C
330
12D
330
12E
330
12F
330
130
330
131
330
132
330
133
330
134
330
135
330
136
330
137
330
138
330
139
330
13A
330
13B
330
13C
330
13D
330
43
330
AB
330
B0
330
B1
330
B2
330
B4
330
B5
330
B6
330
B7
330
BD
330
BE
330
BF
330
C0
330
C1
330
C2
330
C3
330
D0
330
D1
330
D2
330
D7
330
D8
330
DA
330
DB
330
DC
330
DF
330
E0
330
E1
330
E2
330
E7
330
FF
330
100
330
101
330
102
330
103
330
118
330
11B
330
11C
330
11D
330
11E
330
120
330
121
330
122
330
123
330
124
330
125
330
126
330
127
330
128
  0
IDBUFFER
  5
228
330
0
100
AcDbIdBuffer
330
72
  0
ENDSEC
  0
EOF
