  0
SECTION
  2
HEADER
  9
$ACADVER
  1
AC1015
  9
$ACADMAINTVER
 70
    13
  9
$DWGCODEPAGE
  3
ANSI_932
  9
$INSBASE
 10
0.0
 20
0.0
 30
0.0
  9
$EXTMIN
 10
0.0
 20
0.0
 30
0.0
  9
$EXTMAX
 10
750.0
 20
540.0
 30
0.0
  9
$LIMMIN
 10
0.0
 20
0.0
  9
$LIMMAX
 10
750.0
 20
540.0
  9
$ORTHOMODE
 70
     1
  9
$REGENMODE
 70
     1
  9
$FILLMODE
 70
     1
  9
$QTEXTMODE
 70
     0
  9
$MIRRTEXT
 70
     1
  9
$LTSCALE
 40
20.0
  9
$ATTMODE
 70
     1
  9
$TEXTSIZE
 40
10.0
  9
$TRACEWID
 40
0.05
  9
$TEXTSTYLE
  7
EXTFONT
  9
$CLAYER
  8
0
  9
$CELTYPE
  6
ByLayer
  9
$CECOLOR
 62
   256
  9
$CELTSCALE
 40
1.0
  9
$DISPSILH
 70
     0
  9
$DIMSCALE
 40
2.0
  9
$DIMASZ
 40
3.0
  9
$DIMEXO
 40
2.0
  9
$DIMDLI
 40
0.3799999999999999
  9
$DIMRND
 40
0.0
  9
$DIMDLE
 40
0.0
  9
$DIMEXE
 40
2.0
  9
$DIMTP
 40
0.0
  9
$DIMTM
 40
0.0
  9
$DIMTXT
 40
3.2
  9
$DIMCEN
 40
0.09
  9
$DIMTSZ
 40
0.0
  9
$DIMTOL
 70
     0
  9
$DIMLIM
 70
     0
  9
$DIMTIH
 70
     0
  9
$DIMTOH
 70
     0
  9
$DIMSE1
 70
     0
  9
$DIMSE2
 70
     0
  9
$DIMTAD
 70
     1
  9
$DIMZIN
 70
     0
  9
$DIMBLK
  1

  9
$DIMASO
 70
     0
  9
$DIMSHO
 70
     0
  9
$DIMPOST
  1

  9
$DIMAPOST
  1

  9
$DIMALT
 70
     0
  9
$DIMALTD
 70
     2
  9
$DIMALTF
 40
25.4
  9
$DIMLFAC
 40
1.0
  9
$DIMTOFL
 70
     0
  9
$DIMTVP
 40
1.6
  9
$DIMTIX
 70
     1
  9
$DIMSOXD
 70
     0
  9
$DIMSAH
 70
     0
  9
$DIMBLK1
  1

  9
$DIMBLK2
  1

  9
$DIMSTYLE
  2
STANDARD
  9
$DIMCLRD
 70
     0
  9
$DIMCLRE
 70
     0
  9
$DIMCLRT
 70
     0
  9
$DIMTFAC
 40
1.0
  9
$DIMGAP
 40
0.09
  9
$DIMJUST
 70
     0
  9
$DIMSD1
 70
     0
  9
$DIMSD2
 70
     0
  9
$DIMTOLJ
 70
     1
  9
$DIMTZIN
 70
     0
  9
$DIMALTZ
 70
     0
  9
$DIMALTTZ
 70
     0
  9
$DIMUPT
 70
     0
  9
$DIMDEC
 70
     4
  9
$DIMTDEC
 70
     4
  9
$DIMALTU
 70
     2
  9
$DIMALTTD
 70
     2
  9
$DIMTXSTY
  7
STANDARD
  9
$DIMAUNIT
 70
     0
  9
$DIMADEC
 70
     0
  9
$DIMALTRND
 40
0.0
  9
$DIMAZIN
 70
     0
  9
$DIMDSEP
 70
    46
  9
$DIMATFIT
 70
     3
  9
$DIMFRAC
 70
     0
  9
$DIMLDRBLK
  1

  9
$DIMLUNIT
 70
     2
  9
$DIMLWD
 70
    -2
  9
$DIMLWE
 70
    -2
  9
$DIMTMOVE
 70
     0
  9
$LUNITS
 70
     2
  9
$LUPREC
 70
     4
  9
$SKETCHINC
 40
0.1
  9
$FILLETRAD
 40
0.0
  9
$AUNITS
 70
     0
  9
$AUPREC
 70
     0
  9
$MENU
  1
ACAD
  9
$ELEVATION
 40
0.0
  9
$PELEVATION
 40
0.0
  9
$THICKNESS
 40
0.0
  9
$LIMCHECK
 70
     0
  9
$CHAMFERA
 40
0.0
  9
$CHAMFERB
 40
0.0
  9
$CHAMFERC
 40
0.0
  9
$CHAMFERD
 40
0.0
  9
$SKPOLY
 70
     0
  9
$TDCREATE
 40
2450686.813206018
  9
$TDUCREATE
 40
2450686.438206018
  9
$TDUPDATE
 40
2456524.571583472
  9
$TDUUPDATE
 40
2456524.196583472
  9
$TDINDWG
 40
0.0009930208
  9
$TDUSRTIMER
 40
0.0009930208
  9
$USRTIMER
 70
     1
  9
$ANGBASE
 50
0.0
  9
$ANGDIR
 70
     0
  9
$PDMODE
 70
     0
  9
$PDSIZE
 40
0.0
  9
$PLINEWID
 40
0.0
  9
$SPLFRAME
 70
     0
  9
$SPLINETYPE
 70
     6
  9
$SPLINESEGS
 70
     8
  9
$HANDSEED
  5
21A
  9
$SURFTAB1
 70
     6
  9
$SURFTAB2
 70
     6
  9
$SURFTYPE
 70
     6
  9
$SURFU
 70
     6
  9
$SURFV
 70
     6
  9
$UCSBASE
  2

  9
$UCSNAME
  2

  9
$UCSORG
 10
0.0
 20
0.0
 30
0.0
  9
$UCSXDIR
 10
1.0
 20
0.0
 30
0.0
  9
$UCSYDIR
 10
0.0
 20
1.0
 30
0.0
  9
$UCSORTHOREF
  2

  9
$UCSORTHOVIEW
 70
     0
  9
$UCSORGTOP
 10
0.0
 20
0.0
 30
0.0
  9
$UCSORGBOTTOM
 10
0.0
 20
0.0
 30
0.0
  9
$UCSORGLEFT
 10
0.0
 20
0.0
 30
0.0
  9
$UCSORGRIGHT
 10
0.0
 20
0.0
 30
0.0
  9
$UCSORGFRONT
 10
0.0
 20
0.0
 30
0.0
  9
$UCSORGBACK
 10
0.0
 20
0.0
 30
0.0
  9
$PUCSBASE
  2

  9
$PUCSNAME
  2

  9
$PUCSORG
 10
0.0
 20
0.0
 30
0.0
  9
$PUCSXDIR
 10
1.0
 20
0.0
 30
0.0
  9
$PUCSYDIR
 10
0.0
 20
1.0
 30
0.0
  9
$PUCSORTHOREF
  2

  9
$PUCSORTHOVIEW
 70
     0
  9
$PUCSORGTOP
 10
0.0
 20
0.0
 30
0.0
  9
$PUCSORGBOTTOM
 10
0.0
 20
0.0
 30
0.0
  9
$PUCSORGLEFT
 10
0.0
 20
0.0
 30
0.0
  9
$PUCSORGRIGHT
 10
0.0
 20
0.0
 30
0.0
  9
$PUCSORGFRONT
 10
0.0
 20
0.0
 30
0.0
  9
$PUCSORGBACK
 10
0.0
 20
0.0
 30
0.0
  9
$USERI1
 70
     0
  9
$USERI2
 70
     0
  9
$USERI3
 70
     0
  9
$USERI4
 70
     0
  9
$USERI5
 70
     0
  9
$USERR1
 40
0.0
  9
$USERR2
 40
0.0
  9
$USERR3
 40
0.0
  9
$USERR4
 40
0.0
  9
$USERR5
 40
0.0
  9
$WORLDVIEW
 70
     1
  9
$SHADEDGE
 70
     3
  9
$SHADEDIF
 70
    70
  9
$TILEMODE
 70
     1
  9
$MAXACTVP
 70
    16
  9
$PINSBASE
 10
0.0
 20
0.0
 30
0.0
  9
$PLIMCHECK
 70
     0
  9
$PEXTMIN
 10
1.000000000000000E+20
 20
1.000000000000000E+20
 30
1.000000000000000E+20
  9
$PEXTMAX
 10
-1.000000000000000E+20
 20
-1.000000000000000E+20
 30
-1.000000000000000E+20
  9
$PLIMMIN
 10
0.0
 20
0.0
  9
$PLIMMAX
 10
12.0
 20
9.0
  9
$UNITMODE
 70
     0
  9
$VISRETAIN
 70
     0
  9
$PLINEGEN
 70
     1
  9
$PSLTSCALE
 70
     0
  9
$TREEDEPTH
 70
  3020
  9
$CMLSTYLE
  2
Standard
  9
$CMLJUST
 70
     0
  9
$CMLSCALE
 40
1.0
  9
$PROXYGRAPHICS
 70
     1
  9
$MEASUREMENT
 70
     0
  9
$CELWEIGHT
370
    -1
  9
$ENDCAPS
280
     0
  9
$JOINSTYLE
280
     0
  9
$LWDISPLAY
290
     0
  9
$INSUNITS
 70
     0
  9
$HYPERLINKBASE
  1

  9
$STYLESHEET
  1

  9
$XEDIT
290
     1
  9
$CEPSNTYPE
380
     0
  9
$PSTYLEMODE
290
     1
  9
$FINGERPRINTGUID
  2
{C58A1DFE-B850-4BD0-ABD9-671C60AC2A0C}
  9
$VERSIONGUID
  2
{3D3694EC-643D-4E94-9A60-94A83B927543}
  9
$EXTNAMES
290
     1
  9
$PSVPSCALE
 40
0.0
  9
$OLESTARTUP
290
     0
  0
ENDSEC
  0
SECTION
  2
CLASSES
  0
CLASS
  1
ACDBDICTIONARYWDFLT
  2
AcDbDictionaryWithDefault
  3
AutoCAD 2000
 90
        0
280
     0
281
     0
  0
CLASS
  1
ACDBPLACEHOLDER
  2
AcDbPlaceHolder
  3
AutoCAD 2000
 90
        0
280
     0
281
     0
  0
CLASS
  1
LAYOUT
  2
AcDbLayout
  3
AutoCAD 2000
 90
        0
280
     0
281
     0
  0
CLASS
  1
AMGSETTINGSOBJ
  2
AmgSettingsObj
  3
"AcadM|Product Description: AutoCAD Mechanical 2000|Company: Autodesk"
 90
        0
280
     0
281
     0
  0
CLASS
  1
ACME_DOCUMENT
  2
AcMeDbDoc
  3
AcMeServices
 90
        0
280
     0
281
     0
  0
CLASS
  1
ACMESCOPE
  2
AcMeScope
  3
AcMeServices
 90
        0
280
     0
281
     0
  0
CLASS
  1
ACMECOMMANDHISTORY
  2
AcMeCommandHistory
  3
AcMeServices
 90
        0
280
     0
281
     0
  0
CLASS
  1
ACIMSYSVARMAN
  2
AcImSysVarManager
  3
AcMeServices
 90
        0
280
     0
281
     0
  0
CLASS
  1
ACIMREALSYSVAR
  2
AcImRealSysVar
  3
AcMeServices
 90
        0
280
     0
281
     0
  0
CLASS
  1
ACIMINTSYSVAR
  2
AcImIntSysVar
  3
AcMeServices
 90
        0
280
     0
281
     0
  0
CLASS
  1
ACMEDRAWINGMAN
  2
AcMeDrawingMan
  3
AcMeServices
 90
        0
280
     0
281
     0
  0
CLASS
  1
ACMEVIEW
  2
AcMeView
  3
AcMeServices
 90
        0
280
     0
281
     0
  0
CLASS
  1
ACDBENTITYCACHE
  2
AcMeEntityCache
  3
AcMeServices
 90
        0
280
     0
281
     0
  0
CLASS
  1
GSMANAGER
  2
AcMeGSManager
  3
AcMeServices
 90
        0
280
     0
281
     0
  0
CLASS
  1
AMDTINTERNALREACTOR
  2
AmdtInternalReactor
  3
AcMeServices
 90
        0
280
     0
281
     0
  0
CLASS
  1
ACMESTATEMGR
  2
AcMeStateMgr
  3
AcMeServices
 90
        0
280
     0
281
     0
  0
CLASS
  1
ACGREFMASTER
  2
AcGrefMaster
  3
AcAttribServices
 90
        0
280
     0
281
     0
  0
CLASS
  1
AM_DRAWING_MGR
  2
AcDmDwgMgr
  3
AcMechDwgViewMgmt
 90
        0
280
     0
281
     0
  0
CLASS
  1
AM_DWG_DOCUMENT
  2
AcDmDwgDocument
  3
AcMechDwgViewMgmt
 90
        0
280
     0
281
     0
  0
CLASS
  1
AM_DWG_SHEET
  2
AcDmSheet
  3
AcMechDwgViewMgmt
 90
        0
280
     0
281
     0
  0
CLASS
  1
AM_VIEWDIMPARMAP
  2
AcDmViewDimParMap
  3
AcMechDwgViewMgmt
 90
        0
280
     0
281
     0
  0
CLASS
  1
AM_DWGMGR_NAME
  2
AcDmDwgMgrName
  3
AcMechDwgViewMgmt
 90
        0
280
     0
281
     0
  0
CLASS
  1
ACME_DATABASE
  2
AcMeDbDatabase
  3
AcMeServices
 90
        0
280
     0
281
     0
  0
CLASS
  1
ACRFINSADJUSTERMGR
  2
AcRfInsAdjusterMgr
  3
AcMeServices
 90
        0
280
     0
281
     0
  0
CLASS
  1
ACGREFACADMASTER
  2
AcGrefacadMaster
  3
AcGrefServices
 90
        0
280
     0
281
     0
  0
CLASS
  1
AMDTMENUSTATEMGR
  2
AmdtMenuStateMgr
  3
McadcomServices
 90
        0
280
     0
281
     0
  0
CLASS
  1
AMDTMCOMMENUSTATE
  2
AmdtMcomMenuState
  3
McadcomServices
 90
        0
280
     0
281
     0
  0
CLASS
  1
AMIMASTER
  2
AmiMaster
  3
AmiServices
 90
        0
280
     0
281
     0
  0
CLASS
  1
ASAPP
  2
AcAsAppObject
  3
AutoSurfServices
 90
        0
280
     0
281
     0
  0
CLASS
  1
IM_STATIC_MAN
  2
AcImStaticVarManager
  3
AcMeServices
 90
        0
280
     0
281
     0
  0
CLASS
  1
ACIMSTRSYSVAR
  2
AcImStrSysVar
  3
AcMeServices
 90
        0
280
     0
281
     0
  0
CLASS
  1
ACIMDBLSTATICVAR
  2
AcImDblStaticVar
  3
AcMeServices
 90
        0
280
     0
281
     0
  0
CLASS
  1
ACIMSTRSTATICVAR
  2
AcImStrStaticVar
  3
AcMeServices
 90
        0
280
     0
281
     0
  0
CLASS
  1
ACIMINTSTATICVAR
  2
AcImIntStaticVar
  3
AcMeServices
 90
        0
280
     0
281
     0
  0
CLASS
  1
ACASGREFMASTER
  2
AcAsGrefMaster
  3
AutoSurfResolverServices
 90
        0
280
     0
281
     0
  0
CLASS
  1
ACADGREFMODULE
  2
AcAdGrefModule
  3
AdGrefServices
 90
        0
280
     0
281
     0
  0
CLASS
  1
AMDTMAPISURFMOUDULE
  2
AmdtMApiSurfModule
  3
MApiSurfServices
 90
        0
280
     0
281
     0
  0
CLASS
  1
MAPIAMMOUDLE
  2
MApiAmModule
  3
MApiAmServices
 90
        0
280
     0
281
     0
  0
CLASS
  1
AMDTADMENUSTATE
  2
AmdtAdMenuState
  3
DesignerServices
 90
        0
280
     0
281
     0
  0
CLASS
  1
ADAPPL
  2
AcAdAppl
  3
DesignerServices
 90
        0
280
     0
281
     0
  0
CLASS
  1
DEPMGR
  2
AcAdDepMgr
  3
DesignerServices
 90
        0
280
     0
281
     0
  0
CLASS
  1
PARAMMGR
  2
AcAdParamMgr
  3
DesignerServices
 90
        0
280
     0
281
     0
  0
CLASS
  1
PARAMSCOPE
  2
AcAdParamScope
  3
DesignerServices
 90
        0
280
     0
281
     0
  0
CLASS
  1
NAMEDAPPL
  2
AcAdNamedAppl
  3
DesignerServices
 90
        0
280
     0
281
     0
  0
CLASS
  1
AMDTDMMENUSTATE
  2
AmdtDmMenuState
  3
AcMechDwgViewMgmt
 90
        0
280
     0
281
     0
  0
CLASS
  1
MAPIADMODULE
  2
MApiAdModule
  3
MApiAdServices
 90
        0
280
     0
281
     0
  0
CLASS
  1
AMDTAMMENUSTATE
  2
AmdtAmMenuState
  3
DesignerAssemblies
 90
        0
280
     0
281
     0
  0
CLASS
  1
ACAMPROJECT
  2
AcAmProject
  3
DesignerAssemblies
 90
        0
280
     0
281
     0
  0
CLASS
  1
ACAMGRCOMPDEF
  2
AcAmGrCompDef
  3
DesignerAssemblies
 90
        0
280
     0
281
     0
  0
CLASS
  1
ACCMCONTEXT
  2
AcCmContext
  3
DesignerAssemblies
 90
        0
280
     0
281
     0
  0
CLASS
  1
ACAMCOMPDEF
  2
AcAmCompDef
  3
DesignerAssemblies
 90
        0
280
     0
281
     0
  0
CLASS
  1
ACAMCOMPDEFMGR
  2
AcAmCompDefMgr
  3
DesignerAssemblies
 90
        0
280
     0
281
     0
  0
CLASS
  1
AMCONTEXTMGR
  2
AcAmContextMgr
  3
DesignerAssemblies
 90
        0
280
     0
281
     0
  0
CLASS
  1
ACAMCONTEXTMODELER
  2
AcAmContextModeler
  3
DesignerAssemblies
 90
        0
280
     0
281
     0
  0
CLASS
  1
ACMDATADICTIONARY
  2
AcmDataDictionary
  3
"AcmSymBB|Product Description: AutoCAD Mechanical 2000|Company: Autodesk"
 90
        0
280
     0
281
     0
  0
CLASS
  1
ACMDATAENTRYBLOCK
  2
AcmDataEntryBlock
  3
"AcmSymBB|Product Description: AutoCAD Mechanical 2000|Company: Autodesk"
 90
        0
280
     0
281
     0
  0
CLASS
  1
CATALOGSTATE
  2
AcAmCatalogState
  3
DesignerAssemblies
 90
        0
280
     0
281
     0
  0
CLASS
  1
ACAMGRCOMPDEFSET
  2
AcAmGrCompDefSet
  3
DesignerAssemblies
 90
        0
280
     0
281
     0
  0
CLASS
  1
AMDTBROWSERDBTAB
  2
AmdtBrowserDbTab
  3
McadcomServices
 90
        0
280
     0
281
     0
  0
CLASS
  1
CBROWSERAPPOBJECT
  2
CBrowserAppObject
  3
McadcomServices
 90
        0
280
     0
281
     0
  0
CLASS
  1
DM_PLACEHOLDER
  2
AcDmSelsetPlaceholder
  3
AcMechDwgViewMgmt
 90
        0
280
     0
281
     0
  0
CLASS
  1
AMGOBJPROPCFG
  2
AmgObjPropCfg
  3
"AmgLay|Product Description: AutoCAD Mechanical 2000|Company: Autodesk"
 90
        1
280
     0
281
     0
  0
CLASS
  1
ACAMGFILTERDAT
  2
AcAmgFilterDat
  3
"AcadM|Product Description: AutoCAD Mechanical 2000|Company: Autodesk"
 90
        0
280
     0
281
     0
  0
CLASS
  1
LAYER_INDEX
  2
AcDbLayerIndex
  3
AutoCAD 2000
 90
        0
280
     0
281
     0
  0
CLASS
  1
IDBUFFER
  2
AcDbIdBuffer
  3
AutoCAD 2000
 90
        0
280
     0
281
     0
  0
CLASS
  1
DICTIONARYVAR
  2
AcDbDictionaryVar
  3
AutoCAD 2000
 90
        0
280
     0
281
     0
  0
ENDSEC
  0
SECTION
  2
TABLES
  0
TABLE
  2
VPORT
  5
8
330
0
100
AcDbSymbolTable
 70
     3
  0
VPORT
  5
219
330
8
100
AcDbSymbolTableRecord
100
AcDbViewportTableRecord
  2
*Active
 70
     0
 10
0.0
 20
0.0
 11
1.0
 21
1.0
 12
0.0
 22
0.0
 13
0.0
 23
0.0
 14
0.5
 24
0.5
 15
1.0
 25
1.0
 16
0.0
 26
0.0
 36
1.0
 17
458.2233502538068
 27
307.5898625486185
 37
0.0
 40
1230.359450194474
 41
1.489721886336154
 42
50.0
 43
0.0
 44
0.0
 50
0.0
 51
0.0
 71
     0
 72
   500
 73
     1
 74
     1
 75
     0
 76
     0
 77
     0
 78
     1
281
     0
 65
     0
110
0.0
120
0.0
130
0.0
111
1.0
121
0.0
131
0.0
112
0.0
122
1.0
132
0.0
 79
     0
146
0.0
  0
ENDTAB
  0
TABLE
  2
LTYPE
  5
5
330
0
100
AcDbSymbolTable
 70
    17
  0
LTYPE
  5
13
330
5
100
AcDbSymbolTableRecord
100
AcDbLinetypeTableRecord
  2
ByBlock
 70
     0
  3

 72
    65
 73
     0
 40
0.0
  0
LTYPE
  5
14
330
5
100
AcDbSymbolTableRecord
100
AcDbLinetypeTableRecord
  2
ByLayer
 70
     0
  3

 72
    65
 73
     0
 40
0.0
  0
LTYPE
  5
15
330
5
100
AcDbSymbolTableRecord
100
AcDbLinetypeTableRecord
  2
CONTINUOUS
 70
     0
  3
実線
 72
    65
 73
     0
 40
0.0
  0
LTYPE
  5
23
330
5
100
AcDbSymbolTableRecord
100
AcDbLinetypeTableRecord
  2
BYLAYER
 70
     0
  3

 72
    65
 73
     0
 40
0.0
  0
LTYPE
  5
24
330
5
100
AcDbSymbolTableRecord
100
AcDbLinetypeTableRecord
  2
CENTER
 70
     0
  3
____ _ ____ _ ____ _ ____ _ ____ _ ____ _ ____
 72
    65
 73
     4
 40
2.0
 49
1.25
 74
     0
 49
-0.25
 74
     0
 49
0.25
 74
     0
 49
-0.25
 74
     0
  0
LTYPE
  5
25
330
5
100
AcDbSymbolTableRecord
100
AcDbLinetypeTableRecord
  2
HIDDEN
 70
     0
  3
_ _ _ _ _ _ _ _ _ _ _ _ _ _ _ _ _ _ _ _ _ _ _
 72
    65
 73
     2
 40
0.375
 49
0.25
 74
     0
 49
-0.125
 74
     0
  0
LTYPE
  5
154
330
5
100
AcDbSymbolTableRecord
100
AcDbLinetypeTableRecord
  2
PHANTOM2
 70
     0
  3
Phantom (.5x) ___ _ _ ___ _ _ ___ _ _ ___ _ _
 72
    65
 73
     6
 40
1.25
 49
0.625
 74
     0
 49
-0.125
 74
     0
 49
0.125
 74
     0
 49
-0.125
 74
     0
 49
0.125
 74
     0
 49
-0.125
 74
     0
  0
LTYPE
  5
1B6
330
5
100
AcDbSymbolTableRecord
100
AcDbLinetypeTableRecord
  2
ASULTYPE
 70
     0
  3
実線
 72
    65
 73
     2
 40
3.0
 49
2.5
 74
     0
 49
0.5
 74
     0
  0
LTYPE
  5
1B7
330
5
100
AcDbSymbolTableRecord
100
AcDbLinetypeTableRecord
  2
ASVLTYPE
 70
     0
  3
__ __ __ __ __ __ __ __ __ __ __ __ __ __ __ __ __ __ __ __ __
 72
    65
 73
     2
 40
0.75
 49
0.5
 74
     0
 49
-0.25
 74
     0
  0
LTYPE
  5
1F8
330
5
100
AcDbSymbolTableRecord
100
AcDbLinetypeTableRecord
  2
AM_ISO02W050
 70
     0
  3
__ __ __ __ __ __ __ __ __ __ __ __ __ __ __
 72
    65
 73
     2
 40
7.5
 49
6.0
 74
     0
 49
-1.5
 74
     0
  0
LTYPE
  5
1F9
330
5
100
AcDbSymbolTableRecord
100
AcDbLinetypeTableRecord
  2
AM_ISO08W050
 70
     0
  3
____ . ____ . ____ . ____ . ____ . ____ . ____
 72
    65
 73
     4
 40
18.0
 49
12.0
 74
     0
 49
-1.5
 74
     0
 49
3.0
 74
     0
 49
-1.5
 74
     0
  0
LTYPE
  5
1FA
330
5
100
AcDbSymbolTableRecord
100
AcDbLinetypeTableRecord
  2
AM_ISO09W050
 70
     0
  3
_____ . . _____ . . _____ . . ____ .. ____
 72
    65
 73
     6
 40
22.5
 49
12.0
 74
     0
 49
-1.5
 74
     0
 49
3.0
 74
     0
 49
-1.5
 74
     0
 49
3.0
 74
     0
 49
-1.5
 74
     0
  0
LTYPE
  5
1FB
330
5
100
AcDbSymbolTableRecord
100
AcDbLinetypeTableRecord
  2
Amconstr
 70
     0
  3
_______________________
 72
    65
 73
     2
 40
9999.0
 49
9999.0
 74
     0
 49
0.0
 74
     0
  0
LTYPE
  5
1FC
330
5
100
AcDbSymbolTableRecord
100
AcDbLinetypeTableRecord
  2
AM_ISO08W050x2
 70
     0
  3
__ . __ . __ . __ . __ . __
 72
    65
 73
     4
 40
9.0
 49
6.0
 74
     0
 49
-0.75
 74
     0
 49
1.5
 74
     0
 49
-0.75
 74
     0
  0
LTYPE
  5
1FD
330
5
100
AcDbSymbolTableRecord
100
AcDbLinetypeTableRecord
  2
AM_ISO02W050x2
 70
     0
  3
 _ _ _ _ _ _ _ _ _ _ _ _
 72
    65
 73
     2
 40
3.75
 49
3.0
 74
     0
 49
-0.75
 74
     0
  0
LTYPE
  5
200
330
5
100
AcDbSymbolTableRecord
100
AcDbLinetypeTableRecord
  2
Amzigzag
 70
     0
  3
/\/-/\/-/\/-/\/-/\/-/\/
 72
    65
 73
     2
 40
11.00009999999999
 49
0.0001
 74
     4
 75
   135
340
1FF
 46
0.04
 50
0.0
 44
0.0
 45
0.0
 49
-11.0
 74
     0
  0
LTYPE
  5
201
330
5
100
AcDbSymbolTableRecord
100
AcDbLinetypeTableRecord
  2
CENTER2
 70
     0
  3
Center (.5x) ___ _ ___ _ ___ _ ___ _ ___ _ ___
 72
    65
 73
     4
 40
1.125
 49
0.75
 74
     0
 49
-0.125
 74
     0
 49
0.125
 74
     0
 49
-0.125
 74
     0
  0
LTYPE
  5
202
330
5
100
AcDbSymbolTableRecord
100
AcDbLinetypeTableRecord
  2
HIDDEN2
 70
     0
  3
Hidden (.5x) _ _ _ _ _ _ _ _ _ _ _ _ _ _ _ _ _
 72
    65
 73
     2
 40
0.1875
 49
0.125
 74
     0
 49
-0.0625
 74
     0
  0
LTYPE
  5
203
330
5
100
AcDbSymbolTableRecord
100
AcDbLinetypeTableRecord
  2
Amzigzag2
 70
     0
  3
/\/-/\/-/\/-/\/-/\/-/\/
 72
    65
 73
     2
 40
0.4401
 49
0.0001
 74
     4
 75
   135
340
1FF
 46
0.0016
 50
0.0
 44
0.0
 45
0.0
 49
-0.4400000000000001
 74
     0
  0
ENDTAB
  0
TABLE
  2
LAYER
  5
2
330
0
100
AcDbSymbolTable
 70
     5
  0
LAYER
  5
10
330
2
100
AcDbSymbolTableRecord
100
AcDbLayerTableRecord
  2
0
 70
     0
 62
     7
  6
CONTINUOUS
370
    -3
390
F
  0
LAYER
  5
26
330
2
100
AcDbSymbolTableRecord
100
AcDbLayerTableRecord
  2
1
 70
     0
 62
     1
  6
CENTER
370
    -3
390
F
  0
LAYER
  5
27
330
2
100
AcDbSymbolTableRecord
100
AcDbLayerTableRecord
  2
10
 70
     0
 62
     7
  6
CONTINUOUS
370
    -3
390
F
  0
LAYER
  5
28
330
2
100
AcDbSymbolTableRecord
100
AcDbLayerTableRecord
  2
11
 70
     0
 62
     3
  6
CONTINUOUS
370
    -3
390
F
  0
LAYER
  5
29
330
2
100
AcDbSymbolTableRecord
100
AcDbLayerTableRecord
  2
2
 70
     0
 62
     2
  6
HIDDEN
370
    -3
390
F
  0
ENDTAB
  0
TABLE
  2
STYLE
  5
3
330
0
100
AcDbSymbolTable
 70
     4
  0
STYLE
  5
11
330
3
100
AcDbSymbolTableRecord
100
AcDbTextStyleTableRecord
  2
STANDARD
 70
     0
 40
0.0
 41
1.0
 50
0.0
 71
     0
 42
0.2
  3
TXT
  4
BIGFONT
  0
STYLE
  5
22
330
3
100
AcDbSymbolTableRecord
100
AcDbTextStyleTableRecord
  2
EXTFONT
 70
     0
 40
10.0
 41
1.0
 50
0.0
 71
     0
 42
10.0
  3

  4
extfont
  0
STYLE
  5
2A
330
3
100
AcDbSymbolTableRecord
100
AcDbTextStyleTableRecord
  2
BIGFONT
 70
     0
 40
10.0
 41
1.0
 50
0.0
 71
     0
 42
10.0
  3

  4
bigfont
  0
STYLE
  5
1FF
330
3
100
AcDbSymbolTableRecord
100
AcDbTextStyleTableRecord
  2

 70
     1
 40
0.0
 41
1.0
 50
0.0
 71
     0
 42
10.0
  3
ltypeshp.shx
  4

  0
ENDTAB
  0
TABLE
  2
VIEW
  5
6
330
0
100
AcDbSymbolTable
 70
     1
  0
VIEW
  5
2C
330
6
100
AcDbSymbolTableRecord
100
AcDbViewTableRecord
  2
ALL
 70
     0
 40
540.0
 10
441.9831932773108
 20
270.0
 41
0.0
 11
0.0
 21
0.0
 31
1.0
 12
0.0
 22
0.0
 32
0.0
 42
0.0
 43
0.0
 44
0.0
 50
0.0
 71
     0
281
     0
 72
     0
  0
ENDTAB
  0
TABLE
  2
UCS
  5
7
330
0
100
AcDbSymbolTable
 70
     0
  0
ENDTAB
  0
TABLE
  2
APPID
  5
9
330
0
100
AcDbSymbolTable
 70
    12
  0
APPID
  5
12
330
9
100
AcDbSymbolTableRecord
100
AcDbRegAppTableRecord
  2
ACAD
 70
     0
  0
APPID
  5
133
330
9
100
AcDbSymbolTableRecord
100
AcDbRegAppTableRecord
  2
GENIUS_GENDIM_13
 70
     0
  0
APPID
  5
134
330
9
100
AcDbSymbolTableRecord
100
AcDbRegAppTableRecord
  2
GENIUS_GENDTOL_13
 70
     0
  0
APPID
  5
135
330
9
100
AcDbSymbolTableRecord
100
AcDbRegAppTableRecord
  2
GENIUS_GE3DTOL_13
 70
     0
  0
APPID
  5
137
330
9
100
AcDbSymbolTableRecord
100
AcDbRegAppTableRecord
  2
MCAD_NO_VIS
 70
     0
  0
APPID
  5
138
330
9
100
AcDbSymbolTableRecord
100
AcDbRegAppTableRecord
  2
ACAD_TEMP_GRAPHIC
 70
     0
  0
APPID
  5
169
330
9
100
AcDbSymbolTableRecord
100
AcDbRegAppTableRecord
  2
AD_DRAW
 70
     0
  0
APPID
  5
16C
330
9
100
AcDbSymbolTableRecord
100
AcDbRegAppTableRecord
  2
ACATTRIBSERVICES
 70
     0
  0
APPID
  5
1B8
330
9
100
AcDbSymbolTableRecord
100
AcDbRegAppTableRecord
  2
ASURF_PCURVE_APPNAME
 70
     0
  0
APPID
  5
1E7
330
9
100
AcDbSymbolTableRecord
100
AcDbRegAppTableRecord
  2
DESIGNERASSEMBLIES
 70
     0
  0
APPID
  5
1EF
330
9
100
AcDbSymbolTableRecord
100
AcDbRegAppTableRecord
  2
ACADM_DIM_EDIT
 70
     0
  0
APPID
  5
1F0
330
9
100
AcDbSymbolTableRecord
100
AcDbRegAppTableRecord
  2
AMDT_DM_ADJ
 70
     0
  0
ENDTAB
  0
TABLE
  2
DIMSTYLE
  5
A
330
0
100
AcDbSymbolTable
 70
     1
100
AcDbDimStyleTable
 71
     0
  0
DIMSTYLE
105
2B
330
A
100
AcDbSymbolTableRecord
100
AcDbDimStyleTableRecord
  2
STANDARD
 70
     0
279
     2
340
22
  0
ENDTAB
  0
TABLE
  2
BLOCK_RECORD
  5
1
330
0
100
AcDbSymbolTable
 70
     2
  0
BLOCK_RECORD
  5
1E
102
{ACAD_XDICTIONARY
360
20E
102
}
330
1
100
AcDbSymbolTableRecord
100
AcDbBlockTableRecord
  2
*Model_Space
340
21
  0
BLOCK_RECORD
  5
1A
330
1
100
AcDbSymbolTableRecord
100
AcDbBlockTableRecord
  2
*Paper_Space
340
1D
  0
BLOCK_RECORD
  5
31
330
1
100
AcDbSymbolTableRecord
100
AcDbBlockTableRecord
  2
QQ
340
0
102
{BLKREFS
331
3D
102
}
  0
BLOCK_RECORD
  5
1DE
330
1
100
AcDbSymbolTableRecord
100
AcDbBlockTableRecord
  2
*U1
340
0
  0
ENDTAB
  0
ENDSEC
  0
SECTION
  2
BLOCKS
  0
BLOCK
  5
1F
330
1E
100
AcDbEntity
  8
0
100
AcDbBlockBegin
  2
*Model_Space
 70
     0
 10
0.0
 20
0.0
 30
0.0
  3
*Model_Space
  1

  0
ENDBLK
  5
20
330
1E
100
AcDbEntity
  8
0
100
AcDbBlockEnd
  0
BLOCK
  5
1B
330
1A
100
AcDbEntity
 67
     1
  8
0
100
AcDbBlockBegin
  2
*Paper_Space
 70
     0
 10
0.0
 20
0.0
 30
0.0
  3
*Paper_Space
  1

  0
ENDBLK
  5
1C
330
1A
100
AcDbEntity
 67
     1
  8
0
100
AcDbBlockEnd
  0
BLOCK
  5
32
330
31
100
AcDbEntity
  8
0
100
AcDbBlockBegin
  2
QQ
 70
     0
 10
270.0
 20
0.0
 30
0.0
  3
QQ
  1

  0
LINE
  5
33
330
31
100
AcDbEntity
  8
11
100
AcDbLine
 10
172.9999999999998
 20
36.0
 30
0.0
 11
270.0
 21
36.0
 31
0.0
  0
TEXT
  5
34
330
31
100
AcDbEntity
  8
11
100
AcDbText
 10
175.0
 20
32.5
 30
0.0
 40
2.5
  1
部品名称
100
AcDbText
  0
LINE
  5
35
330
31
100
AcDbEntity
  8
11
100
AcDbLine
 10
172.9999999999998
 20
36.0
 30
0.0
 11
172.9999999999998
 21
0.0
 31
0.0
  0
LINE
  5
36
330
31
100
AcDbEntity
  8
11
100
AcDbLine
 10
172.9999999999998
 20
24.0
 30
0.0
 11
270.0
 21
24.0
 31
0.0
  0
TEXT
  5
37
330
31
100
AcDbEntity
  8
11
100
AcDbText
 10
175.0
 20
20.5
 30
0.0
 40
2.5
  1
品番
100
AcDbText
  0
LINE
  5
38
330
31
100
AcDbEntity
  8
11
100
AcDbLine
 10
172.9999999999998
 20
12.0
 30
0.0
 11
270.0
 21
12.0
 31
0.0
  0
TEXT
  5
39
330
31
100
AcDbEntity
  8
11
100
AcDbText
 10
175.0
 20
8.5
 30
0.0
 40
2.5
  1
尺度
100
AcDbText
  0
TEXT
  5
3A
330
31
100
AcDbEntity
  8
11
100
AcDbText
 10
200.0
 20
8.5
 30
0.0
 40
2.5
  1
図番
100
AcDbText
  0
LINE
  5
3B
330
31
100
AcDbEntity
  8
11
100
AcDbLine
 10
198.0
 20
0.0
 30
0.0
 11
198.0
 21
12.0
 31
0.0
  0
ENDBLK
  5
3C
330
31
100
AcDbEntity
  8
0
100
AcDbBlockEnd
  0
BLOCK
  5
1DF
330
1DE
100
AcDbEntity
  8
0
100
AcDbBlockBegin
  2
*U1
 70
     1
 10
0.0
 20
0.0
 30
0.0
  3
*U1
  1

  0
ENDBLK
  5
1E0
330
1DE
100
AcDbEntity
  8
0
100
AcDbBlockEnd
  0
ENDSEC
  0
SECTION
  2
ENTITIES
  0
TEXT
  5
43
330
1E
100
AcDbEntity
  8
11
100
AcDbText
 10
562.7384362159244
 20
51.5371622568897
 30
0.0
 40
10.0
  1
ダイアル・インジケーター
  7
BIGFONT
100
AcDbText
  0
LINE
  5
44
330
1E
100
AcDbEntity
  8
0
100
AcDbLine
 10
205.8422735529641
 20
288.8644843137105
 30
0.0
 11
205.8422735529642
 21
276.8226588811088
 31
0.0
  0
LINE
  5
45
330
1E
100
AcDbEntity
  8
0
100
AcDbLine
 10
206.8422735529642
 20
276.8226588811088
 30
0.0
 11
206.8422735529642
 21
288.8644843137106
 31
0.0
  0
LINE
  5
46
330
1E
100
AcDbEntity
  8
0
100
AcDbLine
 10
205.8422931763111
 20
276.8218869927776
 30
0.0
 11
205.8422931763109
 21
276.8227036591611
 31
0.0
  0
LINE
  5
47
330
1E
100
AcDbEntity
  8
0
100
AcDbLine
 10
209.2998231867844
 20
274.3644781407363
 30
0.0
 11
209.3022079472964
 21
274.3644781407363
 31
0.0
  0
ARC
  5
48
330
1E
100
AcDbEntity
  8
0
100
AcDbCircle
 10
206.3422735529643
 20
273.8644843137108
 30
0.0
 40
3.0
100
AcDbArc
 50
99.61656667476765
 51
80.42720011824673
  0
TEXT
  5
49
330
1E
100
AcDbEntity
  8
0
100
AcDbText
 10
196.9816235968906
 20
283.9163608424058
 30
0.0
 40
2.2
  1
Ｍ
 50
0.0000000000002608
 41
1.5
  7
EXTFONT
100
AcDbText
  0
TEXT
  5
4A
330
1E
100
AcDbEntity
  8
0
100
AcDbText
 10
199.6895824864964
 20
283.8139285844148
 30
0.0
 40
2.2
  1
Ｉ
 50
0.0000000000002608
 41
1.5
  7
EXTFONT
100
AcDbText
  0
TEXT
  5
4B
330
1E
100
AcDbEntity
  8
0
100
AcDbText
 10
202.0966598696234
 20
283.9551787079837
 30
0.0
 40
2.2
  1
Ｙ
 50
0.0000000000002608
 41
1.5
  7
EXTFONT
100
AcDbText
  0
TEXT
  5
4C
330
1E
100
AcDbEntity
  8
0
100
AcDbText
 10
207.8134627740709
 20
283.9370028626816
 30
0.0
 40
2.2
  1
Ｓ
 50
0.0000000000002608
 41
1.5
  7
EXTFONT
100
AcDbText
  0
TEXT
  5
4D
330
1E
100
AcDbEntity
  8
0
100
AcDbText
 10
210.7470873169814
 20
283.9890620913266
 30
0.0
 40
2.2
  1
Ｈ
 50
0.0000000000002608
 41
1.5
  7
EXTFONT
100
AcDbText
  0
TEXT
  5
4E
330
1E
100
AcDbEntity
  8
0
100
AcDbText
 10
213.003722137491
 20
283.8957188221306
 30
0.0
 40
2.2
  1
Ｉ
 50
0.0000000000002608
 41
1.5
  7
EXTFONT
100
AcDbText
  0
TEXT
  5
4F
330
1E
100
AcDbEntity
  8
0
100
AcDbText
 10
194.0524246801568
 20
262.8311223085244
 30
0.0
 40
2.2
  1
Ｍ
 50
0.0000000000002608
 41
1.5
  7
EXTFONT
100
AcDbText
  0
TEXT
  5
50
330
1E
100
AcDbEntity
  8
0
100
AcDbText
 10
197.0612686949981
 20
262.8220333197292
 30
0.0
 40
2.2
  1
Ｄ
 50
0.0000000000002608
 41
1.5
  7
EXTFONT
100
AcDbText
  0
TEXT
  5
51
330
1E
100
AcDbEntity
  8
0
100
AcDbText
 10
209.3223104076687
 20
262.8608533175951
 30
0.0
 40
2.2
  1
１
 50
0.0000000000002608
 41
1.5
  7
EXTFONT
100
AcDbText
  0
TEXT
  5
52
330
1E
100
AcDbEntity
  8
0
100
AcDbText
 10
211.5037257562474
 20
262.8517643287997
 30
0.0
 40
2.2
  1
／
 50
0.0000000000002608
 41
1.5
  7
EXTFONT
100
AcDbText
  0
TEXT
  5
53
330
1E
100
AcDbEntity
  8
0
100
AcDbText
 10
214.8397741121113
 20
262.842677472293
 30
0.0
 40
2.2
  1
２
 50
0.0000000000002608
 41
1.5
  7
EXTFONT
100
AcDbText
  0
LINE
  5
54
330
1E
100
AcDbEntity
  8
0
100
AcDbLine
 10
207.2422735529642
 20
285.6644843137107
 30
0.0
 11
207.2422735529642
 21
284.4644843137107
 31
0.0
  0
LINE
  5
55
330
1E
100
AcDbEntity
  8
0
100
AcDbLine
 10
205.4422735529644
 20
284.4644843137105
 30
0.0
 11
205.4422735529644
 21
285.6644843137107
 31
0.0
  0
ARC
  5
56
330
1E
100
AcDbEntity
  8
0
100
AcDbCircle
 10
206.3422735529641
 20
284.4644843137108
 30
0.0
 40
1.499999999999886
100
AcDbArc
 50
53.13010235415418
 51
70.49367631277158
  0
ARC
  5
57
330
1E
100
AcDbEntity
  8
0
100
AcDbCircle
 10
206.3422735529643
 20
285.6644843137107
 30
0.0
 40
1.49999999999993
100
AcDbArc
 50
233.1301023541553
 51
250.471096000114
  0
ARC
  5
58
330
1E
100
AcDbEntity
  8
0
100
AcDbCircle
 10
206.3422735529641
 20
284.4644843137108
 30
0.0
 40
1.499999999999886
100
AcDbArc
 50
109.4016673413539
 51
126.8698976458473
  0
ARC
  5
59
330
1E
100
AcDbEntity
  8
0
100
AcDbCircle
 10
206.3422735529643
 20
285.6644843137107
 30
0.0
 40
1.49999999999993
100
AcDbArc
 50
289.57901682394
 51
306.869897645846
  0
TEXT
  5
5A
330
1E
100
AcDbEntity
  8
0
100
AcDbText
 10
225.9820800841374
 20
279.251211130222
 30
0.0
 40
2.2
  1
５
 50
0.0000000000000382
 41
1.5
  7
EXTFONT
100
AcDbText
  0
TEXT
  5
5B
330
1E
100
AcDbEntity
  8
0
100
AcDbText
 10
216.5024496876839
 20
254.6269496732969
 30
0.0
 40
2.2
  1
１
 50
0.0000000000000382
 41
1.5
  7
EXTFONT
100
AcDbText
  0
TEXT
  5
5C
330
1E
100
AcDbEntity
  8
0
100
AcDbText
 10
218.5808356845059
 20
254.6124979796597
 30
0.0
 40
2.2
  1
０
 50
0.0000000000000382
 41
1.5
  7
EXTFONT
100
AcDbText
  0
TEXT
  5
5D
330
1E
100
AcDbEntity
  8
11
100
AcDbText
 10
563.6512313472525
 20
27.82094445730534
 30
0.0
 40
10.0
  1
ＭＤ－７５Ｒ
  7
BIGFONT
100
AcDbText
  0
LINE
  5
5E
330
1E
100
AcDbEntity
  8
1
100
AcDbLine
 10
206.3422735529643
 20
273.8644843137106
 30
0.0
 11
246.3422735529644
 21
273.8644843137106
 31
0.0
  0
LINE
  5
5F
330
1E
100
AcDbEntity
  8
1
100
AcDbLine
 10
206.3422735529643
 20
273.8644843137106
 30
0.0
 11
166.3422735529642
 21
273.8644843137108
 31
0.0
  0
CIRCLE
  5
61
330
1E
100
AcDbEntity
  8
0
100
AcDbCircle
 10
206.3422735529643
 20
273.8644843137108
 30
0.0
 40
31.5
  0
LINE
  5
62
330
1E
100
AcDbEntity
  8
1
100
AcDbLine
 10
206.3422735529643
 20
273.8644843137106
 30
0.0
 11
206.3422735529643
 21
233.8644843137106
 31
0.0
  0
TEXT
  5
63
330
1E
100
AcDbEntity
  8
0
100
AcDbText
 10
200.0233113324473
 20
262.7393853875616
 30
0.0
 40
2.2
  1
７
 50
0.0000000000002608
 41
1.5
  7
EXTFONT
100
AcDbText
  0
TEXT
  5
64
330
1E
100
AcDbEntity
  8
0
100
AcDbText
 10
202.6140550813186
 20
262.8008943290316
 30
0.0
 40
2.2
  1
５
 50
0.0000000000002608
 41
1.5
  7
EXTFONT
100
AcDbText
  0
LINE
  5
65
330
1E
100
AcDbEntity
  8
0
100
AcDbLine
 10
205.8422735529641
 20
288.8644843137105
 30
0.0
 11
205.8422735529642
 21
298.8644843137106
 31
0.0
  0
LINE
  5
66
330
1E
100
AcDbEntity
  8
0
100
AcDbLine
 10
205.8422735529642
 20
298.8644843137106
 30
0.0
 11
206.842273552964
 21
298.8644843137108
 31
0.0
  0
LINE
  5
67
330
1E
100
AcDbEntity
  8
0
100
AcDbLine
 10
206.842273552964
 20
298.8644843137108
 30
0.0
 11
206.8422735529642
 21
288.8644843137106
 31
0.0
  0
LINE
  5
68
330
1E
100
AcDbEntity
  8
1
100
AcDbLine
 10
500.9999999999999
 20
274.0
 30
0.0
 11
586.0
 21
274.0
 31
0.0
  0
LINE
  5
69
330
1E
100
AcDbEntity
  8
1
100
AcDbLine
 10
544.0
 20
314.5
 30
0.0
 11
544.0
 21
233.0
 31
0.0
  0
LINE
  5
6A
330
1E
100
AcDbEntity
  8
1
100
AcDbLine
 10
198.842273552964
 20
308.3644843137105
 30
0.0
 11
214.3422735529643
 21
308.3644843137108
 31
0.0
  0
CIRCLE
  5
6B
330
1E
100
AcDbEntity
  8
0
100
AcDbCircle
 10
206.3422735529641
 20
308.3644843137109
 30
0.0
 40
2.5
  0
LINE
  5
6C
330
1E
100
AcDbEntity
  8
0
100
AcDbLine
 10
205.8422735529641
 20
309.8644843137105
 30
0.0
 11
206.8422735529641
 21
309.8644843137106
 31
0.0
  0
LINE
  5
6D
330
1E
100
AcDbEntity
  8
0
100
AcDbLine
 10
206.8422735529641
 20
309.8644843137106
 30
0.0
 11
206.8422735529641
 21
308.8644843137108
 31
0.0
  0
LINE
  5
6E
330
1E
100
AcDbEntity
  8
0
100
AcDbLine
 10
206.8422735529641
 20
308.8644843137108
 30
0.0
 11
207.8422735529642
 21
308.8644843137105
 31
0.0
  0
LINE
  5
6F
330
1E
100
AcDbEntity
  8
0
100
AcDbLine
 10
207.8422735529642
 20
308.8644843137105
 30
0.0
 11
207.8422735529642
 21
307.8644843137105
 31
0.0
  0
LINE
  5
70
330
1E
100
AcDbEntity
  8
0
100
AcDbLine
 10
207.8422735529642
 20
307.8644843137105
 30
0.0
 11
206.8422735529642
 21
307.8644843137105
 31
0.0
  0
LINE
  5
71
330
1E
100
AcDbEntity
  8
0
100
AcDbLine
 10
206.8422735529642
 20
307.8644843137105
 30
0.0
 11
206.8422735529642
 21
306.8644843137106
 31
0.0
  0
LINE
  5
72
330
1E
100
AcDbEntity
  8
0
100
AcDbLine
 10
206.8422735529642
 20
306.8644843137106
 30
0.0
 11
205.8422735529641
 21
306.8644843137106
 31
0.0
  0
LINE
  5
73
330
1E
100
AcDbEntity
  8
0
100
AcDbLine
 10
205.8422735529641
 20
306.8644843137106
 30
0.0
 11
205.8422735529644
 21
307.8644843137106
 31
0.0
  0
LINE
  5
74
330
1E
100
AcDbEntity
  8
0
100
AcDbLine
 10
205.8422735529644
 20
307.8644843137106
 30
0.0
 11
204.842273552964
 21
307.8644843137105
 31
0.0
  0
LINE
  5
75
330
1E
100
AcDbEntity
  8
0
100
AcDbLine
 10
204.842273552964
 20
307.8644843137105
 30
0.0
 11
204.8422735529641
 21
308.8644843137106
 31
0.0
  0
LINE
  5
76
330
1E
100
AcDbEntity
  8
0
100
AcDbLine
 10
204.8422735529641
 20
308.8644843137106
 30
0.0
 11
205.8422735529641
 21
308.8644843137106
 31
0.0
  0
LINE
  5
77
330
1E
100
AcDbEntity
  8
0
100
AcDbLine
 10
205.8422735529641
 20
308.8644843137106
 30
0.0
 11
205.8422735529641
 21
309.8644843137105
 31
0.0
  0
CIRCLE
  5
79
330
1E
100
AcDbEntity
  8
0
100
AcDbCircle
 10
544.0
 20
274.0
 30
0.0
 40
36.5
  0
CIRCLE
  5
7A
330
1E
100
AcDbEntity
  8
0
100
AcDbCircle
 10
544.0
 20
274.0
 30
0.0
 40
33.5
  0
CIRCLE
  5
7B
330
1E
100
AcDbEntity
  8
0
100
AcDbCircle
 10
544.0
 20
274.0
 30
0.0
 40
4.5
  0
POLYLINE
  5
7C
330
1E
100
AcDbEntity
  8
0
100
AcDb2dPolyline
 66
     1
 10
0.0
 20
0.0
 30
0.0
 70
   129
  0
VERTEX
  5
7D
330
7C
100
AcDbEntity
  8
0
100
AcDbVertex
100
AcDb2dVertex
 10
544.0
 20
278.0
 30
0.0
  0
VERTEX
  5
7E
330
7C
100
AcDbEntity
  8
0
100
AcDbVertex
100
AcDb2dVertex
 10
540.5358983848623
 20
276.0
 30
0.0
  0
VERTEX
  5
7F
330
7C
100
AcDbEntity
  8
0
100
AcDbVertex
100
AcDb2dVertex
 10
540.5358983848623
 20
272.0
 30
0.0
  0
VERTEX
  5
80
330
7C
100
AcDbEntity
  8
0
100
AcDbVertex
100
AcDb2dVertex
 10
544.0
 20
270.0
 30
0.0
  0
VERTEX
  5
81
330
7C
100
AcDbEntity
  8
0
100
AcDbVertex
100
AcDb2dVertex
 10
547.4641016151377
 20
272.0
 30
0.0
  0
VERTEX
  5
82
330
7C
100
AcDbEntity
  8
0
100
AcDbVertex
100
AcDb2dVertex
 10
547.4641016151377
 20
276.0
 30
0.0
  0
SEQEND
  5
83
330
7C
100
AcDbEntity
  8
0
  0
CIRCLE
  5
84
330
1E
100
AcDbEntity
  8
0
100
AcDbCircle
 10
544.0
 20
274.0
 30
0.0
 40
3.39023357031391
  0
CIRCLE
  5
85
330
1E
100
AcDbEntity
  8
0
100
AcDbCircle
 10
544.0
 20
274.0
 30
0.0
 40
2.0
  0
CIRCLE
  5
86
330
1E
100
AcDbEntity
  8
0
100
AcDbCircle
 10
544.0
 20
274.0
 30
0.0
 40
1.5
  0
LINE
  5
87
330
1E
100
AcDbEntity
  8
1
100
AcDbLine
 10
359.4947127398143
 20
274.0
 30
0.0
 11
403.4947127398143
 21
274.0
 31
0.0
  0
LINE
  5
88
330
1E
100
AcDbEntity
  8
0
100
AcDbLine
 10
364.4947127398143
 20
310.7999999999999
 30
0.0
 11
364.4947127398143
 21
237.1999999999999
 31
0.0
  0
LINE
  5
89
330
1E
100
AcDbEntity
  8
0
100
AcDbLine
 10
365.4947127398143
 20
236.2
 30
0.0
 11
382.4947127398143
 21
236.2
 31
0.0
  0
LINE
  5
8A
330
1E
100
AcDbEntity
  8
0
100
AcDbLine
 10
365.4947127398143
 20
311.8
 30
0.0
 11
382.4947127398143
 21
311.8
 31
0.0
  0
LINE
  5
8B
330
1E
100
AcDbEntity
  8
1
100
AcDbLine
 10
359.9947127398142
 20
308.7999999999999
 30
0.0
 11
365.9947127398142
 21
308.7999999999999
 31
0.0
  0
LINE
  5
8C
330
1E
100
AcDbEntity
  8
0
100
AcDbLine
 10
382.4947127398143
 20
311.8
 30
0.0
 11
383.4947127398143
 21
311.8
 31
0.0
  0
LINE
  5
8D
330
1E
100
AcDbEntity
  8
0
100
AcDbLine
 10
383.4947127398143
 20
311.8
 30
0.0
 11
383.4947127398143
 21
236.2
 31
0.0
  0
LINE
  5
8E
330
1E
100
AcDbEntity
  8
0
100
AcDbLine
 10
383.4947127398143
 20
236.2
 30
0.0
 11
382.4947127398143
 21
236.2
 31
0.0
  0
LINE
  5
8F
330
1E
100
AcDbEntity
  8
0
100
AcDbLine
 10
386.4947127398142
 20
307.8
 30
0.0
 11
386.4947127398142
 21
240.2
 31
0.0
  0
ARC
  5
90
330
1E
100
AcDbEntity
  8
0
100
AcDbCircle
 10
365.6690460093364
 20
310.6256667304777
 30
0.0
 40
1.187202896209835
100
AcDbArc
 50
98.44405856080737
 51
171.5559414391925
  0
ARC
  5
91
330
1E
100
AcDbEntity
  8
0
100
AcDbCircle
 10
383.7948917399586
 20
308.1001790001444
 30
0.0
 40
2.716457410560488
100
AcDbArc
 50
353.6556389248881
 51
96.3443610751117
  0
ARC
  5
92
330
1E
100
AcDbEntity
  8
0
100
AcDbCircle
 10
365.4112179532365
 20
237.116505213422
 30
0.0
 40
0.920300595248965
100
AcDbArc
 50
174.794650629565
 51
275.2053493704348
  0
ARC
  5
93
330
1E
100
AcDbEntity
  8
0
100
AcDbCircle
 10
383.4708192141722
 20
240.2238935256419
 30
0.0
 40
3.023987922427521
100
AcDbArc
 50
270.4527175561386
 51
359.5472824438612
  0
LINE
  5
94
330
1E
100
AcDbEntity
  8
0
100
AcDbLine
 10
364.4947127398143
 20
310.7999999999999
 30
0.0
 11
364.4947127398143
 21
311.2999999999999
 31
0.0
  0
LINE
  5
95
330
1E
100
AcDbEntity
  8
0
100
AcDbLine
 10
364.4947127398143
 20
311.2999999999999
 30
0.0
 11
363.4947127398143
 21
311.2999999999999
 31
0.0
  0
LINE
  5
96
330
1E
100
AcDbEntity
  8
0
100
AcDbLine
 10
364.4947127398143
 20
306.3
 30
0.0
 11
363.4947127398143
 21
306.3
 31
0.0
  0
LINE
  5
97
330
1E
100
AcDbEntity
  8
0
100
AcDbLine
 10
362.4947127398143
 20
307.3
 30
0.0
 11
362.4947127398143
 21
310.3
 31
0.0
  0
ARC
  5
98
330
1E
100
AcDbEntity
  8
0
100
AcDbCircle
 10
363.6621055281735
 20
310.1326072116407
 30
0.0
 40
1.17933297584183
100
AcDbArc
 50
98.16003615531927
 51
171.8399638446807
  0
ARC
  5
99
330
1E
100
AcDbEntity
  8
0
100
AcDbCircle
 10
363.5907182100974
 20
307.3960054702829
 30
0.0
 40
1.100202272863781
100
AcDbArc
 50
185.0060914873174
 51
264.9939085126824
  0
LINE
  5
9A
330
1E
100
AcDbEntity
  8
0
100
AcDbLine
 10
386.4947127398142
 20
278.5
 30
0.0
 11
386.9947127398143
 21
278.5
 31
0.0
  0
LINE
  5
9B
330
1E
100
AcDbEntity
  8
0
100
AcDbLine
 10
386.9947127398143
 20
278.5
 30
0.0
 11
386.9947127398143
 21
269.4999999999998
 31
0.0
  0
LINE
  5
9C
330
1E
100
AcDbEntity
  8
0
100
AcDbLine
 10
386.9947127398143
 20
269.4999999999998
 30
0.0
 11
386.4947127398142
 21
269.4999999999998
 31
0.0
  0
LINE
  5
9D
330
1E
100
AcDbEntity
  8
0
100
AcDbLine
 10
386.9947127398143
 20
278.0
 30
0.0
 11
389.4947127398143
 21
278.0
 31
0.0
  0
LINE
  5
9E
330
1E
100
AcDbEntity
  8
0
100
AcDbLine
 10
389.4947127398143
 20
278.0
 30
0.0
 11
389.9947127398143
 21
277.4999999999999
 31
0.0
  0
LINE
  5
9F
330
1E
100
AcDbEntity
  8
0
100
AcDbLine
 10
389.9947127398143
 20
277.4999999999999
 30
0.0
 11
389.9947127398143
 21
270.5
 31
0.0
  0
LINE
  5
A0
330
1E
100
AcDbEntity
  8
0
100
AcDbLine
 10
389.9947127398143
 20
270.5
 30
0.0
 11
389.4947127398143
 21
270.0
 31
0.0
  0
LINE
  5
A1
330
1E
100
AcDbEntity
  8
0
100
AcDbLine
 10
389.4947127398143
 20
270.0
 30
0.0
 11
386.9947127398143
 21
270.0
 31
0.0
  0
LINE
  5
A2
330
1E
100
AcDbEntity
  8
0
100
AcDbLine
 10
386.9947127398143
 20
276.0
 30
0.0
 11
389.9947127398143
 21
276.0
 31
0.0
  0
LINE
  5
A3
330
1E
100
AcDbEntity
  8
0
100
AcDbLine
 10
386.9947127398143
 20
272.0
 30
0.0
 11
389.9947127398143
 21
272.0
 31
0.0
  0
LINE
  5
A4
330
1E
100
AcDbEntity
  8
2
100
AcDbLine
 10
365.9947127398142
 20
242.5
 30
0.0
 11
365.9947127398142
 21
305.5
 31
0.0
  0
LINE
  5
DD
330
1E
100
AcDbEntity
  8
0
100
AcDbLine
 10
207.3422735529641
 20
294.3644843137106
 30
0.0
 11
207.3422735529641
 21
295.8644843137105
 31
0.0
  0
LINE
  5
DE
330
1E
100
AcDbEntity
  8
0
100
AcDbLine
 10
205.3422735529642
 20
294.3644843137106
 30
0.0
 11
205.3422735529644
 21
295.8644843137106
 31
0.0
  0
ARC
  5
DF
330
1E
100
AcDbEntity
  8
0
100
AcDbCircle
 10
206.5895794965927
 20
295.6117902573391
 30
0.0
 40
0.7939789850007008
100
AcDbArc
 50
18.55790507951276
 51
71.44209492048782
  0
ARC
  5
E0
330
1E
100
AcDbEntity
  8
0
100
AcDbCircle
 10
206.2343131777894
 20
295.472444688886
 30
0.0
 40
0.9743868634638801
100
AcDbArc
 50
113.7248541249508
 51
156.275145875055
  0
ARC
  5
E1
330
1E
100
AcDbEntity
  8
0
100
AcDbCircle
 10
206.7534525172388
 20
295.2756632779854
 30
0.0
 40
1.679783668853874
100
AcDbArc
 50
212.8497778973126
 51
237.1502221026879
  0
ARC
  5
E2
330
1E
100
AcDbEntity
  8
0
100
AcDbCircle
 10
206.6180494089933
 20
294.5887084576817
 30
0.0
 40
0.7581405393787774
100
AcDbArc
 50
287.2028388342108
 51
342.7971611657897
  0
TEXT
  5
E3
330
1E
100
AcDbEntity
  8
11
100
AcDbText
 10
644.8900342229967
 20
28.73310963276535
 30
0.0
 40
10.0
  1
１／
  7
BIGFONT
100
AcDbText
  0
TEXT
  5
E4
330
1E
100
AcDbEntity
  8
11
100
AcDbText
 10
675.0122844130856
 20
27.67905335709753
 30
0.0
 40
10.0
  1
２５
  7
BIGFONT
100
AcDbText
  0
LINE
  5
E5
330
1E
100
AcDbEntity
  8
1
100
AcDbLine
 10
206.3422735529643
 20
273.8644843137106
 30
0.0
 11
206.342273552964
 21
314.3644843137108
 31
0.0
  0
LINE
  5
E6
330
1E
100
AcDbEntity
  8
11
100
AcDbLine
 10
221.5175142871683
 20
301.4681447350923
 30
0.0
 11
217.9043617314054
 21
294.8958446347635
 31
0.0
  0
LINE
  5
E7
330
1E
100
AcDbEntity
  8
11
100
AcDbLine
 10
221.6246901125685
 20
294.8989261674596
 30
0.0
 11
224.8575090001772
 21
299.3485196365215
 31
0.0
  0
LINE
  5
E8
330
1E
100
AcDbEntity
  8
11
100
AcDbLine
 10
187.8270381057512
 20
248.3804489908997
 30
0.0
 11
191.0598569933598
 21
252.830042459962
 31
0.0
  0
LINE
  5
E9
330
1E
100
AcDbEntity
  8
11
100
AcDbLine
 10
227.9055073897179
 20
296.826996077485
 30
0.0
 11
222.7714040952527
 21
291.3597313718247
 31
0.0
  0
LINE
  5
EA
330
1E
100
AcDbEntity
  8
11
100
AcDbLine
 10
226.3756178651346
 20
290.4375080471768
 30
0.0
 11
230.6134407004015
 21
293.9433399907942
 31
0.0
  0
LINE
  5
EB
330
1E
100
AcDbEntity
  8
11
100
AcDbLine
 10
182.0711064055265
 20
253.7856286366269
 30
0.0
 11
186.3089292407936
 21
257.2914605802445
 31
0.0
  0
LINE
  5
EC
330
1E
100
AcDbEntity
  8
11
100
AcDbLine
 10
226.6061437650126
 20
286.7243273932065
 30
0.0
 11
232.9386032062774
 21
290.7430283555489
 31
0.0
  0
LINE
  5
ED
330
1E
100
AcDbEntity
  8
11
100
AcDbLine
 10
229.8677769170808
 20
284.9347458944027
 30
0.0
 11
234.8443257056437
 21
287.2765319980103
 31
0.0
  0
LINE
  5
EE
330
1E
100
AcDbEntity
  8
11
100
AcDbLine
 10
177.8402214002844
 20
260.4524366294108
 30
0.0
 11
182.8167701888476
 21
262.7942227330186
 31
0.0
  0
LINE
  5
EF
330
1E
100
AcDbEntity
  8
11
100
AcDbLine
 10
229.1676299440478
 20
281.2808921787094
 30
0.0
 11
236.3005538162614
 21
283.5985196365214
 31
0.0
  0
LINE
  5
F0
330
1E
100
AcDbEntity
  8
11
100
AcDbLine
 10
231.8817420719101
 20
278.7363984929395
 30
0.0
 11
237.2843219509177
 21
279.7669957231609
 31
0.0
  0
LINE
  5
F1
330
1E
100
AcDbEntity
  8
11
100
AcDbLine
 10
175.4002251550101
 20
267.9619729042602
 30
0.0
 11
180.802805034018
 21
268.9925701344817
 31
0.0
  0
LINE
  5
F2
330
1E
100
AcDbEntity
  8
11
100
AcDbLine
 10
230.2949150352428
 20
275.3714567824141
 30
0.0
 11
237.7801154984545
 21
275.8423856788838
 31
0.0
  0
LINE
  5
F3
330
1E
100
AcDbEntity
  8
11
100
AcDbLine
 10
232.2909684920994
 20
272.2319308059485
 30
0.0
 11
237.7801154984545
 21
271.8865829485372
 31
0.0
  0
LINE
  5
F4
330
1E
100
AcDbEntity
  8
11
100
AcDbLine
 10
174.9044316074735
 20
275.8423856788841
 30
0.0
 11
180.3935786138288
 21
275.4970378214727
 31
0.0
  0
LINE
  5
F5
330
1E
100
AcDbEntity
  8
11
100
AcDbLine
 10
229.9171675704526
 20
269.3673327636532
 30
0.0
 11
237.2843219509177
 21
267.9619729042602
 31
0.0
  0
LINE
  5
F6
330
1E
100
AcDbEntity
  8
11
100
AcDbLine
 10
231.0697429766383
 20
265.830042459962
 30
0.0
 11
236.3005538162614
 21
264.1304489908998
 31
0.0
  0
LINE
  5
F7
330
1E
100
AcDbEntity
  8
11
100
AcDbLine
 10
176.3839932896667
 20
283.5985196365216
 30
0.0
 11
181.6148041292898
 21
281.8989261674592
 31
0.0
  0
LINE
  5
F8
330
1E
100
AcDbEntity
  8
11
100
AcDbLine
 10
228.0581228121487
 20
263.6457813161488
 30
0.0
 11
234.8443257056437
 21
260.4524366294108
 31
0.0
  0
LINE
  5
F9
330
1E
100
AcDbEntity
  8
11
100
AcDbLine
 10
228.2947996160165
 20
259.9329876442566
 30
0.0
 11
232.9386032062774
 21
256.9859402718723
 31
0.0
  0
LINE
  5
FA
330
1E
100
AcDbEntity
  8
11
100
AcDbLine
 10
179.7459438996505
 20
290.743028355549
 30
0.0
 11
184.3897474899115
 21
287.7959809831645
 31
0.0
  0
LINE
  5
FB
330
1E
100
AcDbEntity
  8
11
100
AcDbLine
 10
224.8345913795831
 20
258.566308559742
 30
0.0
 11
230.6134407004012
 21
253.7856286366269
 31
0.0
  0
LINE
  5
FC
330
1E
100
AcDbEntity
  8
11
100
AcDbLine
 10
224.1404983071098
 20
254.9113000007538
 30
0.0
 11
227.9055073897178
 21
250.9019725499361
 31
0.0
  0
LINE
  5
FD
330
1E
100
AcDbEntity
  8
11
100
AcDbLine
 10
184.7790397162103
 20
296.8269960774853
 30
0.0
 11
188.544048798818
 21
292.8176686266672
 31
0.0
  0
LINE
  5
FE
330
1E
100
AcDbEntity
  8
11
100
AcDbLine
 10
221.6246901125682
 20
252.8300424599619
 30
0.0
 11
224.8575090001768
 21
248.3804489908997
 31
0.0
  0
LINE
  5
FF
330
1E
100
AcDbEntity
  8
11
100
AcDbLine
 10
221.6246901125682
 20
252.8300424599619
 30
0.0
 11
220.4491196079833
 21
254.4480764487117
 31
0.0
  0
LINE
  5
100
330
1E
100
AcDbEntity
  8
11
100
AcDbLine
 10
218.8678690796086
 20
251.0805106325701
 30
0.0
 11
221.517514287168
 21
246.2608238923289
 31
0.0
  0
LINE
  5
101
330
1E
100
AcDbEntity
  8
11
100
AcDbLine
 10
191.1670328187599
 20
301.4681447350926
 30
0.0
 11
193.8166780263194
 21
296.6484579948511
 31
0.0
  0
LINE
  5
102
330
1E
100
AcDbEntity
  8
11
100
AcDbLine
 10
215.1772628173961
 20
251.5498486523924
 30
0.0
 11
217.9381969625314
 21
244.5765250082309
 31
0.0
  0
LINE
  5
103
330
1E
100
AcDbEntity
  8
11
100
AcDbLine
 10
212.8082106192503
 20
248.6813221243662
 30
0.0
 11
214.1760049986568
 21
243.3541147381589
 31
0.0
  0
LINE
  5
104
330
1E
100
AcDbEntity
  8
11
100
AcDbLine
 10
198.508542107271
 20
304.3748538892628
 30
0.0
 11
199.8763364866777
 21
299.0476465030551
 31
0.0
  0
LINE
  5
105
330
1E
100
AcDbEntity
  8
11
100
AcDbLine
 10
209.3502711585073
 20
250.0537314821633
 30
0.0
 11
210.2902704102396
 21
242.6128712223046
 31
0.0
  0
LINE
  5
106
330
1E
100
AcDbEntity
  8
11
100
AcDbLine
 10
203.3342759474207
 20
250.0537314821631
 30
0.0
 11
202.3942766956884
 21
242.6128712223046
 31
0.0
  0
LINE
  5
107
330
1E
100
AcDbEntity
  8
11
100
AcDbLine
 10
199.8763364866779
 20
248.6813221243661
 30
0.0
 11
198.508542107271
 21
243.3541147381589
 31
0.0
  0
LINE
  5
108
330
1E
100
AcDbEntity
  8
11
100
AcDbLine
 10
214.1760049986569
 20
304.3748538892628
 30
0.0
 11
212.8082106192503
 21
299.0476465030551
 31
0.0
  0
LINE
  5
109
330
1E
100
AcDbEntity
  8
11
100
AcDbLine
 10
217.9381969625315
 20
303.1524436191908
 30
0.0
 11
215.9135119227657
 21
298.0386729468052
 31
0.0
  0
LINE
  5
10A
330
1E
100
AcDbEntity
  8
11
100
AcDbLine
 10
197.5072842885316
 20
251.5498486523927
 30
0.0
 11
194.7463501433967
 21
244.5765250082309
 31
0.0
  0
LINE
  5
10B
330
1E
100
AcDbEntity
  8
11
100
AcDbLine
 10
193.8166780263194
 20
251.0805106325701
 30
0.0
 11
191.1670328187599
 21
246.2608238923291
 31
0.0
  0
LINE
  5
10C
330
1E
100
AcDbEntity
  8
11
100
AcDbLine
 10
192.2354274979446
 20
254.448076448712
 30
0.0
 11
190.4720717410672
 21
252.0210254655871
 31
0.0
  0
LINE
  5
10D
330
1E
100
AcDbEntity
  8
11
100
AcDbLine
 10
188.5440487988181
 20
254.9113000007539
 30
0.0
 11
184.7790397162104
 21
250.9019725499364
 31
0.0
  0
LINE
  5
10E
330
1E
100
AcDbEntity
  8
11
100
AcDbLine
 10
187.8499557263449
 20
258.5663085597421
 30
0.0
 11
186.3089292407934
 21
257.2914605802446
 31
0.0
  0
LINE
  5
10F
330
1E
100
AcDbEntity
  8
11
100
AcDbLine
 10
184.3897474899116
 20
259.9329876442566
 30
0.0
 11
179.7459438996505
 21
256.9859402718723
 31
0.0
  0
LINE
  5
110
330
1E
100
AcDbEntity
  8
11
100
AcDbLine
 10
184.6264242937795
 20
263.6457813161491
 30
0.0
 11
182.3643566626144
 21
262.5813330872364
 31
0.0
  0
LINE
  5
111
330
1E
100
AcDbEntity
  8
11
100
AcDbLine
 10
181.61480412929
 20
265.830042459962
 30
0.0
 11
176.3839932896668
 21
264.1304489908999
 31
0.0
  0
LINE
  5
112
330
1E
100
AcDbEntity
  8
11
100
AcDbLine
 10
182.7673795354755
 20
269.3673327636535
 30
0.0
 11
180.3116614086538
 21
268.8988794771891
 31
0.0
  0
LINE
  5
113
330
1E
100
AcDbEntity
  8
11
100
AcDbLine
 10
180.3935786138289
 20
272.2319308059485
 30
0.0
 11
174.9044316074736
 21
271.8865829485375
 31
0.0
  0
LINE
  5
114
330
1E
100
AcDbEntity
  8
11
100
AcDbLine
 10
182.3896320706855
 20
275.3714567824143
 30
0.0
 11
179.8945652496149
 21
275.5284330812376
 31
0.0
  0
LINE
  5
115
330
1E
100
AcDbEntity
  8
11
100
AcDbLine
 10
180.802805034018
 20
278.7363984929395
 30
0.0
 11
175.4002251550105
 21
279.766995723161
 31
0.0
  0
LINE
  5
116
330
1E
100
AcDbEntity
  8
11
100
AcDbLine
 10
183.5169171618804
 20
281.2808921787096
 30
0.0
 11
180.6637476129949
 21
282.2079431618343
 31
0.0
  0
LINE
  5
117
330
1E
100
AcDbEntity
  8
11
100
AcDbLine
 10
182.8167701888475
 20
284.9347458944027
 30
0.0
 11
177.8402214002845
 21
287.2765319980107
 31
0.0
  0
LINE
  5
118
330
1E
100
AcDbEntity
  8
11
100
AcDbLine
 10
186.0784033409158
 20
286.7243273932067
 30
0.0
 11
184.3897474899117
 21
287.7959809831648
 31
0.0
  0
LINE
  5
119
330
1E
100
AcDbEntity
  8
11
100
AcDbLine
 10
186.3089292407936
 20
290.4375080471767
 30
0.0
 11
182.0711064055269
 21
293.9433399907946
 31
0.0
  0
LINE
  5
11A
330
1E
100
AcDbEntity
  8
11
100
AcDbLine
 10
189.9131430106757
 20
291.3597313718247
 30
0.0
 11
188.201775245854
 21
293.1821529403782
 31
0.0
  0
LINE
  5
11B
330
1E
100
AcDbEntity
  8
11
100
AcDbLine
 10
191.05985699336
 20
294.8989261674594
 30
0.0
 11
187.8270381057514
 21
299.3485196365215
 31
0.0
  0
LINE
  5
11C
330
1E
100
AcDbEntity
  8
11
100
AcDbLine
 10
194.7801853745231
 20
294.8958446347636
 30
0.0
 11
193.8166780263196
 21
296.6484579948513
 31
0.0
  0
LINE
  5
11D
330
1E
100
AcDbEntity
  8
11
100
AcDbLine
 10
196.7710351831625
 20
298.0386729468052
 30
0.0
 11
194.7463501433968
 21
303.1524436191907
 31
0.0
  0
LINE
  5
11E
330
1E
100
AcDbEntity
  8
11
100
AcDbLine
 10
200.3737162610077
 20
297.110480180798
 30
0.0
 11
199.7519915430956
 21
299.5319380836196
 31
0.0
  0
LINE
  5
11F
330
1E
100
AcDbEntity
  8
11
100
AcDbLine
 10
203.0836094802924
 20
299.6594665478871
 30
0.0
 11
202.3942766956887
 21
305.1160974051168
 31
0.0
  0
LINE
  5
120
330
1E
100
AcDbEntity
  8
11
100
AcDbLine
 10
209.6009376256361
 20
299.6594665478871
 30
0.0
 11
210.2902704102398
 21
305.1160974051167
 31
0.0
  0
LINE
  5
121
330
1E
100
AcDbEntity
  8
11
100
AcDbLine
 10
212.3108308449208
 20
297.1104801807978
 30
0.0
 11
212.8082106192505
 21
299.0476465030551
 31
0.0
  0
TEXT
  5
122
330
1E
100
AcDbEntity
  8
0
100
AcDbText
 10
191.9321917601544
 20
254.8615744155319
 30
0.0
 40
2.2
  1
１
 50
0.0000000000000382
 41
1.5
  7
EXTFONT
100
AcDbText
  0
TEXT
  5
123
330
1E
100
AcDbEntity
  8
0
100
AcDbText
 10
184.2998652573244
 20
280.5263378391149
 30
0.0
 40
2.2
  1
２
 50
0.0000000000000382
 41
1.5
  7
EXTFONT
100
AcDbText
  0
TEXT
  5
124
330
1E
100
AcDbEntity
  8
0
100
AcDbText
 10
194.4763005944311
 20
254.6864520113024
 30
0.0
 40
2.2
  1
５
 50
0.0000000000000382
 41
1.5
  7
EXTFONT
100
AcDbText
  0
TEXT
  5
125
330
1E
100
AcDbEntity
  8
0
100
AcDbText
 10
186.6743665947321
 20
280.489244920778
 30
0.0
 40
2.2
  1
０
 50
0.0000000000000382
 41
1.5
  7
EXTFONT
100
AcDbText
  0
TEXT
  5
126
330
1E
100
AcDbEntity
  8
0
100
AcDbText
 10
217.8821062122843
 20
262.7299299539026
 30
0.0
 40
2.2
  1
５
 50
0.0000000000000382
 41
1.5
  7
EXTFONT
100
AcDbText
  0
LINE
  5
127
330
1E
100
AcDbEntity
  8
11
100
AcDbLine
 10
206.3422735529643
 20
297.3644843137105
 30
0.0
 11
206.3422735529643
 21
305.3644843137106
 31
0.0
  0
LINE
  5
128
330
1E
100
AcDbEntity
  8
11
100
AcDbLine
 10
206.3422735529643
 20
242.3644843137106
 30
0.0
 11
206.3422735529643
 21
247.8644843137106
 31
0.0
  0
LINE
  5
129
330
1E
100
AcDbEntity
  8
0
100
AcDbLine
 10
208.7603991844611
 20
275.7091166430105
 30
0.0
 11
219.7131528793201
 21
287.372614681753
 31
0.0
  0
LINE
  5
12A
330
1E
100
AcDbEntity
  8
0
100
AcDbLine
 10
219.7131528793201
 20
287.372614681753
 30
0.0
 11
218.9841842518987
 21
288.0571617876818
 31
0.0
  0
LINE
  5
12B
330
1E
100
AcDbEntity
  8
0
100
AcDbLine
 10
218.9841842518987
 20
288.0571617876818
 30
0.0
 11
208.0314305570396
 21
276.3936637489393
 31
0.0
  0
LINE
  5
12C
330
1E
100
AcDbEntity
  8
0
100
AcDbLine
 10
208.7603991844611
 20
275.7091166430105
 30
0.0
 11
208.7246882810064
 21
275.6725394586921
 31
0.0
  0
LINE
  5
12D
330
1E
100
AcDbEntity
  8
0
100
AcDbLine
 10
208.0314305570396
 20
276.3936637489393
 30
0.0
 11
207.9970789255883
 21
276.358539218606
 31
0.0
  0
CIRCLE
  5
20C
330
1E
100
AcDbEntity
  8
0
100
AcDbCircle
 10
206.3422735529643
 20
273.8644843137108
 30
0.0
 40
37.79999999999999
  0
CIRCLE
  5
20D
330
1E
100
AcDbEntity
  8
0
100
AcDbCircle
 10
544.0
 20
274.0
 30
0.0
 40
37.79999999999999
  0
ENDSEC
  0
SECTION
  2
OBJECTS
  0
DICTIONARY
  5
C
330
0
100
AcDbDictionary
281
     1
  3
ACAD_GROUP
350
D
  3
ACAD_LAYOUT
350
19
  3
ACAD_MLINESTYLE
350
16
  3
ACAD_PLOTSETTINGS
350
18
  3
ACAD_PLOTSTYLENAME
350
E
  3
AcDbVariableDictionary
350
216
  3
AcmDictionary
350
1E8
  3
AMG
350
130
  3
AMGSNAPSETTINGS
350
205
  3
DWGPROPS
350
1EB
  3
MAPISURF_MODULE
350
1BB
  0
DICTIONARY
  5
20E
330
1E
100
AcDbDictionary
280
     1
281
     1
  3
ACAD_INDEX
360
20F
  0
DICTIONARY
  5
D
102
{ACAD_REACTORS
330
C
102
}
330
C
100
AcDbDictionary
281
     1
  0
DICTIONARY
  5
19
102
{ACAD_REACTORS
330
C
102
}
330
C
100
AcDbDictionary
281
     1
  3
Model
350
21
  3
ﾚｲｱｳﾄ1
350
1D
  0
DICTIONARY
  5
16
102
{ACAD_REACTORS
330
C
102
}
330
C
100
AcDbDictionary
281
     1
  3
Standard
350
17
  0
DICTIONARY
  5
18
102
{ACAD_REACTORS
330
C
102
}
330
C
100
AcDbDictionary
281
     1
  0
ACDBDICTIONARYWDFLT
  5
E
102
{ACAD_REACTORS
330
C
102
}
330
C
100
AcDbDictionary
281
     1
  3
Normal
350
F
100
AcDbDictionaryWithDefault
340
F
  0
DICTIONARY
  5
216
102
{ACAD_REACTORS
330
C
102
}
330
C
100
AcDbDictionary
281
     1
  3
DIMASSOC
350
218
  3
INDEXCTL
350
217
  0
DICTIONARY
  5
1E8
102
{ACAD_REACTORS
330
C
102
}
330
C
100
AcDbDictionary
281
     1
  3
AcmBOMDATA
350
1E9
  0
DICTIONARY
  5
130
102
{ACAD_REACTORS
330
C
102
}
330
C
100
AcDbDictionary
281
     1
  3
AcMgSettings
350
131
  3
AMGLAYCFG
350
1F5
  0
DICTIONARY
  5
205
102
{ACAD_REACTORS
330
C
102
}
330
C
100
AcDbDictionary
281
     1
  3
DIMENSION
350
20A
  3
FEA
350
209
  3
HATCH (1)
350
206
  3
HATCH (2)
350
207
  3
SIMPLE WELD
350
20B
  3
SYMBOLS
350
208
  0
XRECORD
  5
1EB
102
{ACAD_REACTORS
330
C
102
}
330
C
100
AcDbXrecord
280
     1
  1
DWGPROPS COOKIE
  2

  3

  4

  6

  7

  8

  9

300
AmdtFileType=84
301
=
302
=
303
=
304
=
305
=
306
=
307
=
308
=
309
=
 40
0.0000048842592593
 41
2450686.813206018
 42
2450686.813206018
  1

 90
        1
  0
DICTIONARY
  5
20F
102
{ACAD_REACTORS
330
20E
102
}
330
20E
100
AcDbDictionary
281
     1
  3
*A1
350
210
  0
LAYOUT
  5
21
102
{ACAD_REACTORS
330
19
102
}
330
19
100
AcDbPlotSettings
  1

  2
\\KONISHIDENXP\SHARP MX-2700FG
  4

  6

 40
0.0
 41
0.0
 42
0.0
 43
0.0
 44
0.0
 45
0.0
 46
0.0
 47
0.0
 48
0.0
 49
0.0
140
0.0
141
0.0
142
1.0
143
1.0
 70
  1712
 72
     0
 73
     0
 74
     0
  7

 75
     0
147
1.0
148
0.0
149
0.0
100
AcDbLayout
  1
Model
 70
     1
 71
     0
 10
0.0
 20
0.0
 11
12.0
 21
9.0
 12
0.0
 22
0.0
 32
0.0
 14
0.0
 24
0.0
 34
0.0
 15
0.0
 25
0.0
 35
0.0
146
0.0
 13
0.0
 23
0.0
 33
0.0
 16
1.0
 26
0.0
 36
0.0
 17
0.0
 27
1.0
 37
0.0
 76
     0
330
1E
  0
LAYOUT
  5
1D
102
{ACAD_REACTORS
330
19
102
}
330
19
100
AcDbPlotSettings
  1

  2
\\KONISHIDENXP\SHARP MX-2700FG
  4

  6

 40
0.0
 41
0.0
 42
0.0
 43
0.0
 44
0.0
 45
0.0
 46
0.0
 47
0.0
 48
0.0
 49
0.0
140
0.0
141
0.0
142
1.0
143
1.0
 70
   688
 72
     0
 73
     0
 74
     5
  7

 75
    16
147
1.0
148
0.0
149
0.0
100
AcDbLayout
  1
ﾚｲｱｳﾄ1
 70
     0
 71
     1
 10
0.0
 20
0.0
 11
12.0
 21
9.0
 12
0.0
 22
0.0
 32
0.0
 14
1.000000000000000E+20
 24
1.000000000000000E+20
 34
1.000000000000000E+20
 15
-1.000000000000000E+20
 25
-1.000000000000000E+20
 35
-1.000000000000000E+20
146
0.0
 13
0.0
 23
0.0
 33
0.0
 16
1.0
 26
0.0
 36
0.0
 17
0.0
 27
1.0
 37
0.0
 76
     0
330
1A
  0
MLINESTYLE
  5
17
102
{ACAD_REACTORS
330
16
102
}
330
16
100
AcDbMlineStyle
  2
STANDARD
 70
     0
  3

 62
   256
 51
90.0
 52
90.0
 71
     2
 49
0.5
 62
   256
  6
BYLAYER
 49
-0.5
 62
   256
  6
BYLAYER
  0
ACDBPLACEHOLDER
  5
F
102
{ACAD_REACTORS
330
E
102
}
330
E
  0
DICTIONARYVAR
  5
218
102
{ACAD_REACTORS
330
216
102
}
330
216
100
DictionaryVariables
280
     0
  1
0
  0
DICTIONARYVAR
  5
217
102
{ACAD_REACTORS
330
216
102
}
330
216
100
DictionaryVariables
280
     0
  1
1
  0
ACMDATADICTIONARY
  5
1E9
102
{ACAD_REACTORS
330
1E8
102
}
330
1E8
100
AcDbDictionary
281
     1
  3
*A1
350
1EA
100
AcmDataDictionary
  0
DICTIONARY
  5
131
102
{ACAD_REACTORS
330
130
102
}
330
130
100
AcDbDictionary
281
     1
  3
DWGSETTINGS
350
132
  0
ACAMGFILTERDAT
  5
20A
102
{ACAD_REACTORS
330
205
102
}
330
205
100
AcAmgFilterDat
 70
    15
  1
DIMENSION,AMDT_*_DIM
  2
*
  3
*
  4
*
  5
*
290
     1
  0
ACAMGFILTERDAT
  5
209
102
{ACAD_REACTORS
330
205
102
}
330
205
100
AcAmgFilterDat
 70
    15
  1
*
  2
AM_FEA-AM_*
  3
*
  4
*
  5
*
290
     1
  0
ACAMGFILTERDAT
  5
206
102
{ACAD_REACTORS
330
205
102
}
330
205
100
AcAmgFilterDat
 70
    15
  1
HATCH
  2
*
  3
*
  4
*
  5
*
290
     1
  0
ACAMGFILTERDAT
  5
207
102
{ACAD_REACTORS
330
205
102
}
330
205
100
AcAmgFilterDat
 70
    15
  1
LINE
  2
8,8N,*-8,*-8N,AM_8,AM_8N,*-AM_8,*-AM_8N
  3
*
  4
*
  5
INSERT,STDPART2D
290
     1
  0
ACAMGFILTERDAT
  5
20B
102
{ACAD_REACTORS
330
205
102
}
330
205
100
AcAmgFilterDat
 70
    15
  1
ARC
  2
AM_5
  3
*
  4
2
  5
INSERT
290
     0
  0
ACAMGFILTERDAT
  5
208
102
{ACAD_REACTORS
330
205
102
}
330
205
100
AcAmgFilterDat
 70
    15
  1
ACMFCFRAME,ACMDATUMTARGET,ACMDATUMID,ACMWELDSYM,ACMSURFSYM,ACMFEATID,ACMPARTREF,ACMBALLOON,AMDTEDGESYM,AMGSCREWCALCTABLE
  2
*
  3
*
  4
*
  5
*
290
     1
  0
LAYER_INDEX
  5
210
102
{ACAD_REACTORS
330
20F
102
}
330
20F
100
AcDbIndex
 40
2456524.571583472
100
AcDbLayerIndex
  8
0
360
211
 90
       96
  8
1
360
212
 90
        9
  8
10
360
213
 90
        0
  8
11
360
214
 90
       66
  8
2
360
215
 90
        1
  0
ACMDATAENTRYBLOCK
  5
1EA
102
{ACAD_REACTORS
330
1E9
102
}
330
1E9
100
AcmDataEntry
100
AcmDataEntryBlock
  0
IDBUFFER
  5
211
330
0
100
AcDbIdBuffer
330
84
330
85
330
86
330
88
330
89
330
8A
330
8C
330
8D
330
8E
330
8F
330
90
330
91
330
92
330
93
330
94
330
95
330
96
330
97
330
98
330
99
330
9A
330
9B
330
9C
330
9D
330
9E
330
9F
330
A0
330
A1
330
A2
330
A3
330
DD
330
DE
330
DF
330
E0
330
E1
330
E2
330
122
330
123
330
124
330
125
330
126
330
129
330
12A
330
12B
330
12C
330
12D
330
20C
330
20D
330
44
330
45
330
46
330
47
330
48
330
49
330
4A
330
4B
330
4C
330
4D
330
4E
330
4F
330
50
330
51
330
52
330
53
330
54
330
55
330
56
330
57
330
58
330
59
330
5A
330
5B
330
5C
330
61
330
63
330
64
330
65
330
66
330
67
330
6B
330
6C
330
6D
330
6E
330
6F
330
70
330
71
330
72
330
73
330
74
330
75
330
76
330
77
330
79
330
7A
330
7B
330
7C
  0
IDBUFFER
  5
212
330
0
100
AcDbIdBuffer
330
5E
330
5F
330
62
330
68
330
69
330
6A
330
87
330
8B
330
E5
  0
IDBUFFER
  5
213
330
0
100
AcDbIdBuffer
  0
IDBUFFER
  5
214
330
0
100
AcDbIdBuffer
330
112
330
113
330
114
330
115
330
116
330
117
330
118
330
119
330
11A
330
11B
330
11C
330
11D
330
11E
330
11F
330
120
330
121
330
127
330
128
330
43
330
5D
330
E3
330
E4
330
E6
330
E7
330
E8
330
E9
330
EA
330
EB
330
EC
330
ED
330
EE
330
EF
330
F0
330
F1
330
F2
330
F3
330
F4
330
F5
330
F6
330
F7
330
F8
330
F9
330
FA
330
FB
330
FC
330
FD
330
FE
330
FF
330
100
330
101
330
102
330
103
330
104
330
105
330
106
330
107
330
108
330
109
330
10A
330
10B
330
10C
330
10D
330
10E
330
10F
330
110
330
111
  0
IDBUFFER
  5
215
330
0
100
AcDbIdBuffer
330
A4
  0
ENDSEC
  0
EOF
