  0
SECTION
  2
HEADER
  9
$ACADVER
  1
AC1015
  9
$ACADMAINTVER
 70
    13
  9
$DWGCODEPAGE
  3
ANSI_932
  9
$INSBASE
 10
0.0
 20
0.0
 30
0.0
  9
$EXTMIN
 10
0.0
 20
0.0
 30
0.0
  9
$EXTMAX
 10
750.0
 20
540.0
 30
0.0
  9
$LIMMIN
 10
0.0
 20
0.0
  9
$LIMMAX
 10
750.0
 20
540.0
  9
$ORTHOMODE
 70
     1
  9
$REGENMODE
 70
     1
  9
$FILLMODE
 70
     1
  9
$QTEXTMODE
 70
     0
  9
$MIRRTEXT
 70
     1
  9
$LTSCALE
 40
20.0
  9
$ATTMODE
 70
     1
  9
$TEXTSIZE
 40
10.0
  9
$TRACEWID
 40
0.05
  9
$TEXTSTYLE
  7
EXTFONT
  9
$CLAYER
  8
0
  9
$CELTYPE
  6
ByLayer
  9
$CECOLOR
 62
   256
  9
$CELTSCALE
 40
1.0
  9
$DISPSILH
 70
     0
  9
$DIMSCALE
 40
2.0
  9
$DIMASZ
 40
3.0
  9
$DIMEXO
 40
2.0
  9
$DIMDLI
 40
0.3799999999999999
  9
$DIMRND
 40
0.0
  9
$DIMDLE
 40
0.0
  9
$DIMEXE
 40
2.0
  9
$DIMTP
 40
0.0
  9
$DIMTM
 40
0.0
  9
$DIMTXT
 40
3.2
  9
$DIMCEN
 40
0.09
  9
$DIMTSZ
 40
0.0
  9
$DIMTOL
 70
     0
  9
$DIMLIM
 70
     0
  9
$DIMTIH
 70
     0
  9
$DIMTOH
 70
     0
  9
$DIMSE1
 70
     0
  9
$DIMSE2
 70
     0
  9
$DIMTAD
 70
     1
  9
$DIMZIN
 70
     0
  9
$DIMBLK
  1

  9
$DIMASO
 70
     0
  9
$DIMSHO
 70
     0
  9
$DIMPOST
  1

  9
$DIMAPOST
  1

  9
$DIMALT
 70
     0
  9
$DIMALTD
 70
     2
  9
$DIMALTF
 40
25.4
  9
$DIMLFAC
 40
1.0
  9
$DIMTOFL
 70
     0
  9
$DIMTVP
 40
1.6
  9
$DIMTIX
 70
     1
  9
$DIMSOXD
 70
     0
  9
$DIMSAH
 70
     0
  9
$DIMBLK1
  1

  9
$DIMBLK2
  1

  9
$DIMSTYLE
  2
STANDARD
  9
$DIMCLRD
 70
     0
  9
$DIMCLRE
 70
     0
  9
$DIMCLRT
 70
     0
  9
$DIMTFAC
 40
1.0
  9
$DIMGAP
 40
0.09
  9
$DIMJUST
 70
     0
  9
$DIMSD1
 70
     0
  9
$DIMSD2
 70
     0
  9
$DIMTOLJ
 70
     1
  9
$DIMTZIN
 70
     0
  9
$DIMALTZ
 70
     0
  9
$DIMALTTZ
 70
     0
  9
$DIMUPT
 70
     0
  9
$DIMDEC
 70
     4
  9
$DIMTDEC
 70
     4
  9
$DIMALTU
 70
     2
  9
$DIMALTTD
 70
     2
  9
$DIMTXSTY
  7
STANDARD
  9
$DIMAUNIT
 70
     0
  9
$DIMADEC
 70
     0
  9
$DIMALTRND
 40
0.0
  9
$DIMAZIN
 70
     0
  9
$DIMDSEP
 70
    46
  9
$DIMATFIT
 70
     3
  9
$DIMFRAC
 70
     0
  9
$DIMLDRBLK
  1

  9
$DIMLUNIT
 70
     2
  9
$DIMLWD
 70
    -2
  9
$DIMLWE
 70
    -2
  9
$DIMTMOVE
 70
     0
  9
$LUNITS
 70
     2
  9
$LUPREC
 70
     4
  9
$SKETCHINC
 40
0.1
  9
$FILLETRAD
 40
0.0
  9
$AUNITS
 70
     0
  9
$AUPREC
 70
     0
  9
$MENU
  1
ACAD
  9
$ELEVATION
 40
0.0
  9
$PELEVATION
 40
0.0
  9
$THICKNESS
 40
0.0
  9
$LIMCHECK
 70
     0
  9
$CHAMFERA
 40
0.0
  9
$CHAMFERB
 40
0.0
  9
$CHAMFERC
 40
0.0
  9
$CHAMFERD
 40
0.0
  9
$SKPOLY
 70
     0
  9
$TDCREATE
 40
2450686.812743055
  9
$TDUCREATE
 40
2450686.437743055
  9
$TDUPDATE
 40
2456524.570365301
  9
$TDUUPDATE
 40
2456524.195365300
  9
$TDINDWG
 40
0.0011141898
  9
$TDUSRTIMER
 40
0.0011141898
  9
$USRTIMER
 70
     1
  9
$ANGBASE
 50
0.0
  9
$ANGDIR
 70
     0
  9
$PDMODE
 70
     0
  9
$PDSIZE
 40
0.0
  9
$PLINEWID
 40
0.0
  9
$SPLFRAME
 70
     0
  9
$SPLINETYPE
 70
     6
  9
$SPLINESEGS
 70
     8
  9
$HANDSEED
  5
1F8
  9
$SURFTAB1
 70
     6
  9
$SURFTAB2
 70
     6
  9
$SURFTYPE
 70
     6
  9
$SURFU
 70
     6
  9
$SURFV
 70
     6
  9
$UCSBASE
  2

  9
$UCSNAME
  2

  9
$UCSORG
 10
0.0
 20
0.0
 30
0.0
  9
$UCSXDIR
 10
1.0
 20
0.0
 30
0.0
  9
$UCSYDIR
 10
0.0
 20
1.0
 30
0.0
  9
$UCSORTHOREF
  2

  9
$UCSORTHOVIEW
 70
     0
  9
$UCSORGTOP
 10
0.0
 20
0.0
 30
0.0
  9
$UCSORGBOTTOM
 10
0.0
 20
0.0
 30
0.0
  9
$UCSORGLEFT
 10
0.0
 20
0.0
 30
0.0
  9
$UCSORGRIGHT
 10
0.0
 20
0.0
 30
0.0
  9
$UCSORGFRONT
 10
0.0
 20
0.0
 30
0.0
  9
$UCSORGBACK
 10
0.0
 20
0.0
 30
0.0
  9
$PUCSBASE
  2

  9
$PUCSNAME
  2

  9
$PUCSORG
 10
0.0
 20
0.0
 30
0.0
  9
$PUCSXDIR
 10
1.0
 20
0.0
 30
0.0
  9
$PUCSYDIR
 10
0.0
 20
1.0
 30
0.0
  9
$PUCSORTHOREF
  2

  9
$PUCSORTHOVIEW
 70
     0
  9
$PUCSORGTOP
 10
0.0
 20
0.0
 30
0.0
  9
$PUCSORGBOTTOM
 10
0.0
 20
0.0
 30
0.0
  9
$PUCSORGLEFT
 10
0.0
 20
0.0
 30
0.0
  9
$PUCSORGRIGHT
 10
0.0
 20
0.0
 30
0.0
  9
$PUCSORGFRONT
 10
0.0
 20
0.0
 30
0.0
  9
$PUCSORGBACK
 10
0.0
 20
0.0
 30
0.0
  9
$USERI1
 70
     0
  9
$USERI2
 70
     0
  9
$USERI3
 70
     0
  9
$USERI4
 70
     0
  9
$USERI5
 70
     0
  9
$USERR1
 40
0.0
  9
$USERR2
 40
0.0
  9
$USERR3
 40
0.0
  9
$USERR4
 40
0.0
  9
$USERR5
 40
0.0
  9
$WORLDVIEW
 70
     1
  9
$SHADEDGE
 70
     3
  9
$SHADEDIF
 70
    70
  9
$TILEMODE
 70
     1
  9
$MAXACTVP
 70
    16
  9
$PINSBASE
 10
0.0
 20
0.0
 30
0.0
  9
$PLIMCHECK
 70
     0
  9
$PEXTMIN
 10
1.000000000000000E+20
 20
1.000000000000000E+20
 30
1.000000000000000E+20
  9
$PEXTMAX
 10
-1.000000000000000E+20
 20
-1.000000000000000E+20
 30
-1.000000000000000E+20
  9
$PLIMMIN
 10
0.0
 20
0.0
  9
$PLIMMAX
 10
12.0
 20
9.0
  9
$UNITMODE
 70
     0
  9
$VISRETAIN
 70
     0
  9
$PLINEGEN
 70
     1
  9
$PSLTSCALE
 70
     0
  9
$TREEDEPTH
 70
  3020
  9
$CMLSTYLE
  2
Standard
  9
$CMLJUST
 70
     0
  9
$CMLSCALE
 40
1.0
  9
$PROXYGRAPHICS
 70
     1
  9
$MEASUREMENT
 70
     0
  9
$CELWEIGHT
370
    -1
  9
$ENDCAPS
280
     0
  9
$JOINSTYLE
280
     0
  9
$LWDISPLAY
290
     0
  9
$INSUNITS
 70
     0
  9
$HYPERLINKBASE
  1

  9
$STYLESHEET
  1

  9
$XEDIT
290
     1
  9
$CEPSNTYPE
380
     0
  9
$PSTYLEMODE
290
     1
  9
$FINGERPRINTGUID
  2
{D9CE42D2-7015-4C85-B869-ADA12E0FE429}
  9
$VERSIONGUID
  2
{F38010E7-F904-4407-AA08-F8B421150BFD}
  9
$EXTNAMES
290
     1
  9
$PSVPSCALE
 40
0.0
  9
$OLESTARTUP
290
     0
  0
ENDSEC
  0
SECTION
  2
CLASSES
  0
CLASS
  1
ACDBDICTIONARYWDFLT
  2
AcDbDictionaryWithDefault
  3
AutoCAD 2000
 90
        0
280
     0
281
     0
  0
CLASS
  1
ACDBPLACEHOLDER
  2
AcDbPlaceHolder
  3
AutoCAD 2000
 90
        0
280
     0
281
     0
  0
CLASS
  1
LAYOUT
  2
AcDbLayout
  3
AutoCAD 2000
 90
        0
280
     0
281
     0
  0
CLASS
  1
AMGSETTINGSOBJ
  2
AmgSettingsObj
  3
"AcadM|Product Description: AutoCAD Mechanical 2000|Company: Autodesk"
 90
        0
280
     0
281
     0
  0
CLASS
  1
ACME_DOCUMENT
  2
AcMeDbDoc
  3
AcMeServices
 90
        0
280
     0
281
     0
  0
CLASS
  1
ACMESCOPE
  2
AcMeScope
  3
AcMeServices
 90
        0
280
     0
281
     0
  0
CLASS
  1
ACMECOMMANDHISTORY
  2
AcMeCommandHistory
  3
AcMeServices
 90
        0
280
     0
281
     0
  0
CLASS
  1
ACIMSYSVARMAN
  2
AcImSysVarManager
  3
AcMeServices
 90
        0
280
     0
281
     0
  0
CLASS
  1
ACIMREALSYSVAR
  2
AcImRealSysVar
  3
AcMeServices
 90
        0
280
     0
281
     0
  0
CLASS
  1
ACIMINTSYSVAR
  2
AcImIntSysVar
  3
AcMeServices
 90
        0
280
     0
281
     0
  0
CLASS
  1
ACMEDRAWINGMAN
  2
AcMeDrawingMan
  3
AcMeServices
 90
        0
280
     0
281
     0
  0
CLASS
  1
ACMEVIEW
  2
AcMeView
  3
AcMeServices
 90
        0
280
     0
281
     0
  0
CLASS
  1
ACDBENTITYCACHE
  2
AcMeEntityCache
  3
AcMeServices
 90
        0
280
     0
281
     0
  0
CLASS
  1
GSMANAGER
  2
AcMeGSManager
  3
AcMeServices
 90
        0
280
     0
281
     0
  0
CLASS
  1
AMDTINTERNALREACTOR
  2
AmdtInternalReactor
  3
AcMeServices
 90
        0
280
     0
281
     0
  0
CLASS
  1
ACMESTATEMGR
  2
AcMeStateMgr
  3
AcMeServices
 90
        0
280
     0
281
     0
  0
CLASS
  1
ACGREFMASTER
  2
AcGrefMaster
  3
AcAttribServices
 90
        0
280
     0
281
     0
  0
CLASS
  1
AM_DRAWING_MGR
  2
AcDmDwgMgr
  3
AcMechDwgViewMgmt
 90
        0
280
     0
281
     0
  0
CLASS
  1
AM_DWG_DOCUMENT
  2
AcDmDwgDocument
  3
AcMechDwgViewMgmt
 90
        0
280
     0
281
     0
  0
CLASS
  1
AM_DWG_SHEET
  2
AcDmSheet
  3
AcMechDwgViewMgmt
 90
        0
280
     0
281
     0
  0
CLASS
  1
AM_VIEWDIMPARMAP
  2
AcDmViewDimParMap
  3
AcMechDwgViewMgmt
 90
        0
280
     0
281
     0
  0
CLASS
  1
AM_DWGMGR_NAME
  2
AcDmDwgMgrName
  3
AcMechDwgViewMgmt
 90
        0
280
     0
281
     0
  0
CLASS
  1
ACME_DATABASE
  2
AcMeDbDatabase
  3
AcMeServices
 90
        0
280
     0
281
     0
  0
CLASS
  1
ACRFINSADJUSTERMGR
  2
AcRfInsAdjusterMgr
  3
AcMeServices
 90
        0
280
     0
281
     0
  0
CLASS
  1
ACGREFACADMASTER
  2
AcGrefacadMaster
  3
AcGrefServices
 90
        0
280
     0
281
     0
  0
CLASS
  1
AMDTMENUSTATEMGR
  2
AmdtMenuStateMgr
  3
McadcomServices
 90
        0
280
     0
281
     0
  0
CLASS
  1
AMDTMCOMMENUSTATE
  2
AmdtMcomMenuState
  3
McadcomServices
 90
        0
280
     0
281
     0
  0
CLASS
  1
AMIMASTER
  2
AmiMaster
  3
AmiServices
 90
        0
280
     0
281
     0
  0
CLASS
  1
ASAPP
  2
AcAsAppObject
  3
AutoSurfServices
 90
        0
280
     0
281
     0
  0
CLASS
  1
IM_STATIC_MAN
  2
AcImStaticVarManager
  3
AcMeServices
 90
        0
280
     0
281
     0
  0
CLASS
  1
ACIMSTRSYSVAR
  2
AcImStrSysVar
  3
AcMeServices
 90
        0
280
     0
281
     0
  0
CLASS
  1
ACIMDBLSTATICVAR
  2
AcImDblStaticVar
  3
AcMeServices
 90
        0
280
     0
281
     0
  0
CLASS
  1
ACIMSTRSTATICVAR
  2
AcImStrStaticVar
  3
AcMeServices
 90
        0
280
     0
281
     0
  0
CLASS
  1
ACIMINTSTATICVAR
  2
AcImIntStaticVar
  3
AcMeServices
 90
        0
280
     0
281
     0
  0
CLASS
  1
ACASGREFMASTER
  2
AcAsGrefMaster
  3
AutoSurfResolverServices
 90
        0
280
     0
281
     0
  0
CLASS
  1
ACADGREFMODULE
  2
AcAdGrefModule
  3
AdGrefServices
 90
        0
280
     0
281
     0
  0
CLASS
  1
AMDTMAPISURFMOUDULE
  2
AmdtMApiSurfModule
  3
MApiSurfServices
 90
        0
280
     0
281
     0
  0
CLASS
  1
MAPIAMMOUDLE
  2
MApiAmModule
  3
MApiAmServices
 90
        0
280
     0
281
     0
  0
CLASS
  1
AMDTADMENUSTATE
  2
AmdtAdMenuState
  3
DesignerServices
 90
        0
280
     0
281
     0
  0
CLASS
  1
ADAPPL
  2
AcAdAppl
  3
DesignerServices
 90
        0
280
     0
281
     0
  0
CLASS
  1
DEPMGR
  2
AcAdDepMgr
  3
DesignerServices
 90
        0
280
     0
281
     0
  0
CLASS
  1
PARAMMGR
  2
AcAdParamMgr
  3
DesignerServices
 90
        0
280
     0
281
     0
  0
CLASS
  1
PARAMSCOPE
  2
AcAdParamScope
  3
DesignerServices
 90
        0
280
     0
281
     0
  0
CLASS
  1
NAMEDAPPL
  2
AcAdNamedAppl
  3
DesignerServices
 90
        0
280
     0
281
     0
  0
CLASS
  1
AMDTDMMENUSTATE
  2
AmdtDmMenuState
  3
AcMechDwgViewMgmt
 90
        0
280
     0
281
     0
  0
CLASS
  1
MAPIADMODULE
  2
MApiAdModule
  3
MApiAdServices
 90
        0
280
     0
281
     0
  0
CLASS
  1
AMDTAMMENUSTATE
  2
AmdtAmMenuState
  3
DesignerAssemblies
 90
        0
280
     0
281
     0
  0
CLASS
  1
ACAMPROJECT
  2
AcAmProject
  3
DesignerAssemblies
 90
        0
280
     0
281
     0
  0
CLASS
  1
ACAMGRCOMPDEF
  2
AcAmGrCompDef
  3
DesignerAssemblies
 90
        0
280
     0
281
     0
  0
CLASS
  1
ACCMCONTEXT
  2
AcCmContext
  3
DesignerAssemblies
 90
        0
280
     0
281
     0
  0
CLASS
  1
ACAMCOMPDEF
  2
AcAmCompDef
  3
DesignerAssemblies
 90
        0
280
     0
281
     0
  0
CLASS
  1
ACAMCOMPDEFMGR
  2
AcAmCompDefMgr
  3
DesignerAssemblies
 90
        0
280
     0
281
     0
  0
CLASS
  1
AMCONTEXTMGR
  2
AcAmContextMgr
  3
DesignerAssemblies
 90
        0
280
     0
281
     0
  0
CLASS
  1
ACAMCONTEXTMODELER
  2
AcAmContextModeler
  3
DesignerAssemblies
 90
        0
280
     0
281
     0
  0
CLASS
  1
ACMDATADICTIONARY
  2
AcmDataDictionary
  3
"AcmSymBB|Product Description: AutoCAD Mechanical 2000|Company: Autodesk"
 90
        0
280
     0
281
     0
  0
CLASS
  1
ACMDATAENTRYBLOCK
  2
AcmDataEntryBlock
  3
"AcmSymBB|Product Description: AutoCAD Mechanical 2000|Company: Autodesk"
 90
        0
280
     0
281
     0
  0
CLASS
  1
CATALOGSTATE
  2
AcAmCatalogState
  3
DesignerAssemblies
 90
        0
280
     0
281
     0
  0
CLASS
  1
ACAMGRCOMPDEFSET
  2
AcAmGrCompDefSet
  3
DesignerAssemblies
 90
        0
280
     0
281
     0
  0
CLASS
  1
AMDTBROWSERDBTAB
  2
AmdtBrowserDbTab
  3
McadcomServices
 90
        0
280
     0
281
     0
  0
CLASS
  1
CBROWSERAPPOBJECT
  2
CBrowserAppObject
  3
McadcomServices
 90
        0
280
     0
281
     0
  0
CLASS
  1
DM_PLACEHOLDER
  2
AcDmSelsetPlaceholder
  3
AcMechDwgViewMgmt
 90
        0
280
     0
281
     0
  0
CLASS
  1
AMGOBJPROPCFG
  2
AmgObjPropCfg
  3
"AmgLay|Product Description: AutoCAD Mechanical 2000|Company: Autodesk"
 90
        1
280
     0
281
     0
  0
CLASS
  1
ACAMGFILTERDAT
  2
AcAmgFilterDat
  3
"AcadM|Product Description: AutoCAD Mechanical 2000|Company: Autodesk"
 90
        0
280
     0
281
     0
  0
CLASS
  1
LAYER_INDEX
  2
AcDbLayerIndex
  3
AutoCAD 2000
 90
        0
280
     0
281
     0
  0
CLASS
  1
IDBUFFER
  2
AcDbIdBuffer
  3
AutoCAD 2000
 90
        0
280
     0
281
     0
  0
CLASS
  1
DICTIONARYVAR
  2
AcDbDictionaryVar
  3
AutoCAD 2000
 90
        0
280
     0
281
     0
  0
ENDSEC
  0
SECTION
  2
TABLES
  0
TABLE
  2
VPORT
  5
8
330
0
100
AcDbSymbolTable
 70
     3
  0
VPORT
  5
1F7
330
8
100
AcDbSymbolTableRecord
100
AcDbViewportTableRecord
  2
*Active
 70
     0
 10
0.0
 20
0.0
 11
1.0
 21
1.0
 12
0.0
 22
0.0
 13
0.0
 23
0.0
 14
0.5
 24
0.5
 15
1.0
 25
1.0
 16
0.0
 26
0.0
 36
1.0
 17
458.2233502538068
 27
307.5898625486185
 37
0.0
 40
1230.359450194474
 41
1.489721886336154
 42
50.0
 43
0.0
 44
0.0
 50
0.0
 51
0.0
 71
     0
 72
   500
 73
     1
 74
     1
 75
     0
 76
     0
 77
     0
 78
     1
281
     0
 65
     0
110
0.0
120
0.0
130
0.0
111
1.0
121
0.0
131
0.0
112
0.0
122
1.0
132
0.0
 79
     0
146
0.0
  0
ENDTAB
  0
TABLE
  2
LTYPE
  5
5
330
0
100
AcDbSymbolTable
 70
    17
  0
LTYPE
  5
13
330
5
100
AcDbSymbolTableRecord
100
AcDbLinetypeTableRecord
  2
ByBlock
 70
     0
  3

 72
    65
 73
     0
 40
0.0
  0
LTYPE
  5
14
330
5
100
AcDbSymbolTableRecord
100
AcDbLinetypeTableRecord
  2
ByLayer
 70
     0
  3

 72
    65
 73
     0
 40
0.0
  0
LTYPE
  5
15
330
5
100
AcDbSymbolTableRecord
100
AcDbLinetypeTableRecord
  2
CONTINUOUS
 70
     0
  3
実線
 72
    65
 73
     0
 40
0.0
  0
LTYPE
  5
23
330
5
100
AcDbSymbolTableRecord
100
AcDbLinetypeTableRecord
  2
BYLAYER
 70
     0
  3

 72
    65
 73
     0
 40
0.0
  0
LTYPE
  5
24
330
5
100
AcDbSymbolTableRecord
100
AcDbLinetypeTableRecord
  2
CENTER
 70
     0
  3
____ _ ____ _ ____ _ ____ _ ____ _ ____ _ ____
 72
    65
 73
     4
 40
2.0
 49
1.25
 74
     0
 49
-0.25
 74
     0
 49
0.25
 74
     0
 49
-0.25
 74
     0
  0
LTYPE
  5
25
330
5
100
AcDbSymbolTableRecord
100
AcDbLinetypeTableRecord
  2
HIDDEN
 70
     0
  3
_ _ _ _ _ _ _ _ _ _ _ _ _ _ _ _ _ _ _ _ _ _ _
 72
    65
 73
     2
 40
0.375
 49
0.25
 74
     0
 49
-0.125
 74
     0
  0
LTYPE
  5
132
330
5
100
AcDbSymbolTableRecord
100
AcDbLinetypeTableRecord
  2
PHANTOM2
 70
     0
  3
Phantom (.5x) ___ _ _ ___ _ _ ___ _ _ ___ _ _
 72
    65
 73
     6
 40
1.25
 49
0.625
 74
     0
 49
-0.125
 74
     0
 49
0.125
 74
     0
 49
-0.125
 74
     0
 49
0.125
 74
     0
 49
-0.125
 74
     0
  0
LTYPE
  5
194
330
5
100
AcDbSymbolTableRecord
100
AcDbLinetypeTableRecord
  2
ASULTYPE
 70
     0
  3
実線
 72
    65
 73
     2
 40
3.0
 49
2.5
 74
     0
 49
0.5
 74
     0
  0
LTYPE
  5
195
330
5
100
AcDbSymbolTableRecord
100
AcDbLinetypeTableRecord
  2
ASVLTYPE
 70
     0
  3
__ __ __ __ __ __ __ __ __ __ __ __ __ __ __ __ __ __ __ __ __
 72
    65
 73
     2
 40
0.75
 49
0.5
 74
     0
 49
-0.25
 74
     0
  0
LTYPE
  5
1D6
330
5
100
AcDbSymbolTableRecord
100
AcDbLinetypeTableRecord
  2
AM_ISO02W050
 70
     0
  3
__ __ __ __ __ __ __ __ __ __ __ __ __ __ __
 72
    65
 73
     2
 40
7.5
 49
6.0
 74
     0
 49
-1.5
 74
     0
  0
LTYPE
  5
1D7
330
5
100
AcDbSymbolTableRecord
100
AcDbLinetypeTableRecord
  2
AM_ISO08W050
 70
     0
  3
____ . ____ . ____ . ____ . ____ . ____ . ____
 72
    65
 73
     4
 40
18.0
 49
12.0
 74
     0
 49
-1.5
 74
     0
 49
3.0
 74
     0
 49
-1.5
 74
     0
  0
LTYPE
  5
1D8
330
5
100
AcDbSymbolTableRecord
100
AcDbLinetypeTableRecord
  2
AM_ISO09W050
 70
     0
  3
_____ . . _____ . . _____ . . ____ .. ____
 72
    65
 73
     6
 40
22.5
 49
12.0
 74
     0
 49
-1.5
 74
     0
 49
3.0
 74
     0
 49
-1.5
 74
     0
 49
3.0
 74
     0
 49
-1.5
 74
     0
  0
LTYPE
  5
1D9
330
5
100
AcDbSymbolTableRecord
100
AcDbLinetypeTableRecord
  2
Amconstr
 70
     0
  3
_______________________
 72
    65
 73
     2
 40
9999.0
 49
9999.0
 74
     0
 49
0.0
 74
     0
  0
LTYPE
  5
1DA
330
5
100
AcDbSymbolTableRecord
100
AcDbLinetypeTableRecord
  2
AM_ISO08W050x2
 70
     0
  3
__ . __ . __ . __ . __ . __
 72
    65
 73
     4
 40
9.0
 49
6.0
 74
     0
 49
-0.75
 74
     0
 49
1.5
 74
     0
 49
-0.75
 74
     0
  0
LTYPE
  5
1DB
330
5
100
AcDbSymbolTableRecord
100
AcDbLinetypeTableRecord
  2
AM_ISO02W050x2
 70
     0
  3
 _ _ _ _ _ _ _ _ _ _ _ _
 72
    65
 73
     2
 40
3.75
 49
3.0
 74
     0
 49
-0.75
 74
     0
  0
LTYPE
  5
1DE
330
5
100
AcDbSymbolTableRecord
100
AcDbLinetypeTableRecord
  2
Amzigzag
 70
     0
  3
/\/-/\/-/\/-/\/-/\/-/\/
 72
    65
 73
     2
 40
11.00009999999999
 49
0.0001
 74
     4
 75
   135
340
1DD
 46
0.04
 50
0.0
 44
0.0
 45
0.0
 49
-11.0
 74
     0
  0
LTYPE
  5
1DF
330
5
100
AcDbSymbolTableRecord
100
AcDbLinetypeTableRecord
  2
CENTER2
 70
     0
  3
Center (.5x) ___ _ ___ _ ___ _ ___ _ ___ _ ___
 72
    65
 73
     4
 40
1.125
 49
0.75
 74
     0
 49
-0.125
 74
     0
 49
0.125
 74
     0
 49
-0.125
 74
     0
  0
LTYPE
  5
1E0
330
5
100
AcDbSymbolTableRecord
100
AcDbLinetypeTableRecord
  2
HIDDEN2
 70
     0
  3
Hidden (.5x) _ _ _ _ _ _ _ _ _ _ _ _ _ _ _ _ _
 72
    65
 73
     2
 40
0.1875
 49
0.125
 74
     0
 49
-0.0625
 74
     0
  0
LTYPE
  5
1E1
330
5
100
AcDbSymbolTableRecord
100
AcDbLinetypeTableRecord
  2
Amzigzag2
 70
     0
  3
/\/-/\/-/\/-/\/-/\/-/\/
 72
    65
 73
     2
 40
0.4401
 49
0.0001
 74
     4
 75
   135
340
1DD
 46
0.0016
 50
0.0
 44
0.0
 45
0.0
 49
-0.4400000000000001
 74
     0
  0
ENDTAB
  0
TABLE
  2
LAYER
  5
2
330
0
100
AcDbSymbolTable
 70
     5
  0
LAYER
  5
10
330
2
100
AcDbSymbolTableRecord
100
AcDbLayerTableRecord
  2
0
 70
     0
 62
     7
  6
CONTINUOUS
370
    -3
390
F
  0
LAYER
  5
26
330
2
100
AcDbSymbolTableRecord
100
AcDbLayerTableRecord
  2
1
 70
     0
 62
     1
  6
CENTER
370
    -3
390
F
  0
LAYER
  5
27
330
2
100
AcDbSymbolTableRecord
100
AcDbLayerTableRecord
  2
10
 70
     0
 62
     7
  6
CONTINUOUS
370
    -3
390
F
  0
LAYER
  5
28
330
2
100
AcDbSymbolTableRecord
100
AcDbLayerTableRecord
  2
11
 70
     0
 62
     3
  6
CONTINUOUS
370
    -3
390
F
  0
LAYER
  5
29
330
2
100
AcDbSymbolTableRecord
100
AcDbLayerTableRecord
  2
2
 70
     0
 62
     2
  6
HIDDEN
370
    -3
390
F
  0
ENDTAB
  0
TABLE
  2
STYLE
  5
3
330
0
100
AcDbSymbolTable
 70
     4
  0
STYLE
  5
11
330
3
100
AcDbSymbolTableRecord
100
AcDbTextStyleTableRecord
  2
STANDARD
 70
     0
 40
0.0
 41
1.0
 50
0.0
 71
     0
 42
0.2
  3
TXT
  4
BIGFONT
  0
STYLE
  5
22
330
3
100
AcDbSymbolTableRecord
100
AcDbTextStyleTableRecord
  2
EXTFONT
 70
     0
 40
10.0
 41
1.0
 50
0.0
 71
     0
 42
10.0
  3

  4
extfont
  0
STYLE
  5
2A
330
3
100
AcDbSymbolTableRecord
100
AcDbTextStyleTableRecord
  2
BIGFONT
 70
     0
 40
10.0
 41
1.0
 50
0.0
 71
     0
 42
10.0
  3

  4
bigfont
  0
STYLE
  5
1DD
330
3
100
AcDbSymbolTableRecord
100
AcDbTextStyleTableRecord
  2

 70
     1
 40
0.0
 41
1.0
 50
0.0
 71
     0
 42
10.0
  3
ltypeshp.shx
  4

  0
ENDTAB
  0
TABLE
  2
VIEW
  5
6
330
0
100
AcDbSymbolTable
 70
     1
  0
VIEW
  5
2C
330
6
100
AcDbSymbolTableRecord
100
AcDbViewTableRecord
  2
ALL
 70
     0
 40
540.0
 10
441.9831932773108
 20
270.0
 41
0.0
 11
0.0
 21
0.0
 31
1.0
 12
0.0
 22
0.0
 32
0.0
 42
0.0
 43
0.0
 44
0.0
 50
0.0
 71
     0
281
     0
 72
     0
  0
ENDTAB
  0
TABLE
  2
UCS
  5
7
330
0
100
AcDbSymbolTable
 70
     0
  0
ENDTAB
  0
TABLE
  2
APPID
  5
9
330
0
100
AcDbSymbolTable
 70
    12
  0
APPID
  5
12
330
9
100
AcDbSymbolTableRecord
100
AcDbRegAppTableRecord
  2
ACAD
 70
     0
  0
APPID
  5
111
330
9
100
AcDbSymbolTableRecord
100
AcDbRegAppTableRecord
  2
GENIUS_GENDIM_13
 70
     0
  0
APPID
  5
112
330
9
100
AcDbSymbolTableRecord
100
AcDbRegAppTableRecord
  2
GENIUS_GENDTOL_13
 70
     0
  0
APPID
  5
113
330
9
100
AcDbSymbolTableRecord
100
AcDbRegAppTableRecord
  2
GENIUS_GE3DTOL_13
 70
     0
  0
APPID
  5
115
330
9
100
AcDbSymbolTableRecord
100
AcDbRegAppTableRecord
  2
MCAD_NO_VIS
 70
     0
  0
APPID
  5
116
330
9
100
AcDbSymbolTableRecord
100
AcDbRegAppTableRecord
  2
ACAD_TEMP_GRAPHIC
 70
     0
  0
APPID
  5
147
330
9
100
AcDbSymbolTableRecord
100
AcDbRegAppTableRecord
  2
AD_DRAW
 70
     0
  0
APPID
  5
14A
330
9
100
AcDbSymbolTableRecord
100
AcDbRegAppTableRecord
  2
ACATTRIBSERVICES
 70
     0
  0
APPID
  5
196
330
9
100
AcDbSymbolTableRecord
100
AcDbRegAppTableRecord
  2
ASURF_PCURVE_APPNAME
 70
     0
  0
APPID
  5
1C5
330
9
100
AcDbSymbolTableRecord
100
AcDbRegAppTableRecord
  2
DESIGNERASSEMBLIES
 70
     0
  0
APPID
  5
1CD
330
9
100
AcDbSymbolTableRecord
100
AcDbRegAppTableRecord
  2
ACADM_DIM_EDIT
 70
     0
  0
APPID
  5
1CE
330
9
100
AcDbSymbolTableRecord
100
AcDbRegAppTableRecord
  2
AMDT_DM_ADJ
 70
     0
  0
ENDTAB
  0
TABLE
  2
DIMSTYLE
  5
A
330
0
100
AcDbSymbolTable
 70
     1
100
AcDbDimStyleTable
 71
     0
  0
DIMSTYLE
105
2B
330
A
100
AcDbSymbolTableRecord
100
AcDbDimStyleTableRecord
  2
STANDARD
 70
     0
279
     2
340
22
  0
ENDTAB
  0
TABLE
  2
BLOCK_RECORD
  5
1
330
0
100
AcDbSymbolTable
 70
     2
  0
BLOCK_RECORD
  5
1E
102
{ACAD_XDICTIONARY
360
1EC
102
}
330
1
100
AcDbSymbolTableRecord
100
AcDbBlockTableRecord
  2
*Model_Space
340
21
  0
BLOCK_RECORD
  5
1A
330
1
100
AcDbSymbolTableRecord
100
AcDbBlockTableRecord
  2
*Paper_Space
340
1D
  0
BLOCK_RECORD
  5
31
330
1
100
AcDbSymbolTableRecord
100
AcDbBlockTableRecord
  2
QQ
340
0
102
{BLKREFS
331
3D
102
}
  0
BLOCK_RECORD
  5
1BC
330
1
100
AcDbSymbolTableRecord
100
AcDbBlockTableRecord
  2
*U1
340
0
  0
ENDTAB
  0
ENDSEC
  0
SECTION
  2
BLOCKS
  0
BLOCK
  5
1F
330
1E
100
AcDbEntity
  8
0
100
AcDbBlockBegin
  2
*Model_Space
 70
     0
 10
0.0
 20
0.0
 30
0.0
  3
*Model_Space
  1

  0
ENDBLK
  5
20
330
1E
100
AcDbEntity
  8
0
100
AcDbBlockEnd
  0
BLOCK
  5
1B
330
1A
100
AcDbEntity
 67
     1
  8
0
100
AcDbBlockBegin
  2
*Paper_Space
 70
     0
 10
0.0
 20
0.0
 30
0.0
  3
*Paper_Space
  1

  0
ENDBLK
  5
1C
330
1A
100
AcDbEntity
 67
     1
  8
0
100
AcDbBlockEnd
  0
BLOCK
  5
32
330
31
100
AcDbEntity
  8
0
100
AcDbBlockBegin
  2
QQ
 70
     0
 10
270.0
 20
0.0
 30
0.0
  3
QQ
  1

  0
LINE
  5
33
330
31
100
AcDbEntity
  8
11
100
AcDbLine
 10
172.9999999999998
 20
36.0
 30
0.0
 11
270.0
 21
36.0
 31
0.0
  0
TEXT
  5
34
330
31
100
AcDbEntity
  8
11
100
AcDbText
 10
175.0
 20
32.5
 30
0.0
 40
2.5
  1
部品名称
100
AcDbText
  0
LINE
  5
35
330
31
100
AcDbEntity
  8
11
100
AcDbLine
 10
172.9999999999998
 20
36.0
 30
0.0
 11
172.9999999999998
 21
0.0
 31
0.0
  0
LINE
  5
36
330
31
100
AcDbEntity
  8
11
100
AcDbLine
 10
172.9999999999998
 20
24.0
 30
0.0
 11
270.0
 21
24.0
 31
0.0
  0
TEXT
  5
37
330
31
100
AcDbEntity
  8
11
100
AcDbText
 10
175.0
 20
20.5
 30
0.0
 40
2.5
  1
品番
100
AcDbText
  0
LINE
  5
38
330
31
100
AcDbEntity
  8
11
100
AcDbLine
 10
172.9999999999998
 20
12.0
 30
0.0
 11
270.0
 21
12.0
 31
0.0
  0
TEXT
  5
39
330
31
100
AcDbEntity
  8
11
100
AcDbText
 10
175.0
 20
8.5
 30
0.0
 40
2.5
  1
尺度
100
AcDbText
  0
TEXT
  5
3A
330
31
100
AcDbEntity
  8
11
100
AcDbText
 10
200.0
 20
8.5
 30
0.0
 40
2.5
  1
図番
100
AcDbText
  0
LINE
  5
3B
330
31
100
AcDbEntity
  8
11
100
AcDbLine
 10
198.0
 20
0.0
 30
0.0
 11
198.0
 21
12.0
 31
0.0
  0
ENDBLK
  5
3C
330
31
100
AcDbEntity
  8
0
100
AcDbBlockEnd
  0
BLOCK
  5
1BD
330
1BC
100
AcDbEntity
  8
0
100
AcDbBlockBegin
  2
*U1
 70
     1
 10
0.0
 20
0.0
 30
0.0
  3
*U1
  1

  0
ENDBLK
  5
1BE
330
1BC
100
AcDbEntity
  8
0
100
AcDbBlockEnd
  0
ENDSEC
  0
SECTION
  2
ENTITIES
  0
TEXT
  5
43
330
1E
100
AcDbEntity
  8
11
100
AcDbText
 10
562.7384362159244
 20
51.5371622568897
 30
0.0
 40
10.0
  1
ダイアル・インジケーター
  7
BIGFONT
100
AcDbText
  0
LINE
  5
44
330
1E
100
AcDbEntity
  8
0
100
AcDbLine
 10
205.5
 20
289.0
 30
0.0
 11
205.5
 21
276.9581745673982
 31
0.0
  0
LINE
  5
45
330
1E
100
AcDbEntity
  8
0
100
AcDbLine
 10
218.0
 20
273.4999999999998
 30
0.0
 11
208.9598656379593
 21
273.4999999999998
 31
0.0
  0
LINE
  5
46
330
1E
100
AcDbEntity
  8
0
100
AcDbLine
 10
206.4999999999999
 20
276.9581745673982
 30
0.0
 11
206.4999999999999
 21
289.0
 31
0.0
  0
LINE
  5
47
330
1E
100
AcDbEntity
  8
0
100
AcDbLine
 10
205.5000196233468
 20
276.957402679067
 30
0.0
 11
205.5000196233468
 21
276.9582193454504
 31
0.0
  0
LINE
  5
48
330
1E
100
AcDbEntity
  8
0
100
AcDbLine
 10
208.9598656379593
 20
274.5
 30
0.0
 11
218.0
 21
274.5
 31
0.0
  0
LINE
  5
49
330
1E
100
AcDbEntity
  8
0
100
AcDbLine
 10
208.9575496338201
 20
274.4999938270256
 30
0.0
 11
208.9599343943322
 21
274.4999938270256
 31
0.0
  0
ARC
  5
4A
330
1E
100
AcDbEntity
  8
0
100
AcDbCircle
 10
206.0
 20
274.0
 30
0.0
 40
3.0
100
AcDbArc
 50
99.6165666747674
 51
80.42720011824645
  0
TEXT
  5
4B
330
1E
100
AcDbEntity
  8
0
100
AcDbText
 10
196.639350043926
 20
284.0518765286951
 30
0.0
 40
2.2
  1
Ｍ
 41
1.5
  7
EXTFONT
100
AcDbText
  0
TEXT
  5
4C
330
1E
100
AcDbEntity
  8
0
100
AcDbText
 10
199.3473089335321
 20
283.9494442707039
 30
0.0
 40
2.2
  1
Ｉ
 41
1.5
  7
EXTFONT
100
AcDbText
  0
TEXT
  5
4D
330
1E
100
AcDbEntity
  8
0
100
AcDbText
 10
201.7543863166592
 20
284.0906943942729
 30
0.0
 40
2.2
  1
Ｙ
 41
1.5
  7
EXTFONT
100
AcDbText
  0
TEXT
  5
4E
330
1E
100
AcDbEntity
  8
0
100
AcDbText
 10
207.4711892211066
 20
284.0725185489707
 30
0.0
 40
2.2
  1
Ｓ
 41
1.5
  7
EXTFONT
100
AcDbText
  0
TEXT
  5
4F
330
1E
100
AcDbEntity
  8
0
100
AcDbText
 10
210.4048137640174
 20
284.1245777776159
 30
0.0
 40
2.2
  1
Ｈ
 41
1.5
  7
EXTFONT
100
AcDbText
  0
TEXT
  5
50
330
1E
100
AcDbEntity
  8
0
100
AcDbText
 10
212.6614485845265
 20
284.0312345084198
 30
0.0
 40
2.2
  1
Ｉ
 41
1.5
  7
EXTFONT
100
AcDbText
  0
TEXT
  5
51
330
1E
100
AcDbEntity
  8
0
100
AcDbText
 10
193.7101511271926
 20
262.9666379948138
 30
0.0
 40
2.2
  1
Ｍ
 41
1.5
  7
EXTFONT
100
AcDbText
  0
TEXT
  5
52
330
1E
100
AcDbEntity
  8
0
100
AcDbText
 10
196.718995142034
 20
262.9575490060186
 30
0.0
 40
2.2
  1
Ｄ
 41
1.5
  7
EXTFONT
100
AcDbText
  0
TEXT
  5
53
330
1E
100
AcDbEntity
  8
0
100
AcDbText
 10
208.9800368547043
 20
262.9963690038844
 30
0.0
 40
2.2
  1
１
 41
1.5
  7
EXTFONT
100
AcDbText
  0
TEXT
  5
54
330
1E
100
AcDbEntity
  8
0
100
AcDbText
 10
211.1614522032831
 20
262.9872800150892
 30
0.0
 40
2.2
  1
／
 41
1.5
  7
EXTFONT
100
AcDbText
  0
TEXT
  5
55
330
1E
100
AcDbEntity
  8
0
100
AcDbText
 10
217.2112168902927
 20
262.9781931585823
 30
0.0
 40
2.2
  1
２
 41
1.5
  7
EXTFONT
100
AcDbText
  0
LINE
  5
56
330
1E
100
AcDbEntity
  8
0
100
AcDbLine
 10
206.8999999999999
 20
285.8
 30
0.0
 11
206.8999999999999
 21
284.6
 31
0.0
  0
LINE
  5
57
330
1E
100
AcDbEntity
  8
0
100
AcDbLine
 10
205.1
 20
284.6
 30
0.0
 11
205.1
 21
285.8
 31
0.0
  0
ARC
  5
58
330
1E
100
AcDbEntity
  8
0
100
AcDbCircle
 10
206.0
 20
284.6
 30
0.0
 40
1.499999999999886
100
AcDbArc
 50
53.1301023541538
 51
70.49367631277132
  0
ARC
  5
59
330
1E
100
AcDbEntity
  8
0
100
AcDbCircle
 10
206.0
 20
285.7999999999999
 30
0.0
 40
1.49999999999993
100
AcDbArc
 50
233.130102354155
 51
250.4710960001137
  0
ARC
  5
5A
330
1E
100
AcDbEntity
  8
0
100
AcDbCircle
 10
206.0
 20
284.6
 30
0.0
 40
1.499999999999886
100
AcDbArc
 50
109.4016673413537
 51
126.8698976458469
  0
ARC
  5
5B
330
1E
100
AcDbEntity
  8
0
100
AcDbCircle
 10
206.0
 20
285.7999999999999
 30
0.0
 40
1.49999999999993
100
AcDbArc
 50
289.5790168239396
 51
306.8698976458458
  0
TEXT
  5
5C
330
1E
100
AcDbEntity
  8
11
100
AcDbText
 10
644.8900342229967
 20
28.73310750047712
 30
0.0
 40
10.0
  1
１／１２
  7
BIGFONT
100
AcDbText
  0
TEXT
  5
5D
330
1E
100
AcDbEntity
  8
0
100
AcDbText
 10
215.3588782486016
 20
293.306625980744
 30
0.0
 40
2.2
  1
１
 41
1.5
  7
EXTFONT
100
AcDbText
  0
TEXT
  5
5E
330
1E
100
AcDbEntity
  8
0
100
AcDbText
 10
224.1188719153461
 20
285.0880671714094
 30
0.0
 40
2.2
  1
２
 41
1.5
  7
EXTFONT
100
AcDbText
  0
TEXT
  5
5F
330
1E
100
AcDbEntity
  8
0
100
AcDbText
 10
227.7578178393102
 20
272.9311848363868
 30
0.0
 40
2.2
  1
３
 41
1.5
  7
EXTFONT
100
AcDbText
  0
TEXT
  5
60
330
1E
100
AcDbEntity
  8
0
100
AcDbText
 10
224.6336075670028
 20
261.9152731247373
 30
0.0
 40
2.2
  1
４
 41
1.5
  7
EXTFONT
100
AcDbText
  0
TEXT
  5
61
330
1E
100
AcDbEntity
  8
0
100
AcDbText
 10
216.5925631415595
 20
252.9463487778278
 30
0.0
 40
2.2
  1
５
 41
1.5
  7
EXTFONT
100
AcDbText
  0
TEXT
  5
62
330
1E
100
AcDbEntity
  8
0
100
AcDbText
 10
204.5841489302
 20
250.6345420495871
 30
0.0
 40
2.2
  1
６
 41
1.5
  7
EXTFONT
100
AcDbText
  0
TEXT
  5
63
330
1E
100
AcDbEntity
  8
0
100
AcDbText
 10
193.5904703704974
 20
253.0892499865057
 30
0.0
 40
2.2
  1
７
 41
1.5
  7
EXTFONT
100
AcDbText
  0
TEXT
  5
64
330
1E
100
AcDbEntity
  8
0
100
AcDbText
 10
184.5052153713274
 20
261.5762604431688
 30
0.0
 40
2.2
  1
８
 41
1.5
  7
EXTFONT
100
AcDbText
  0
TEXT
  5
65
330
1E
100
AcDbEntity
  8
0
100
AcDbText
 10
178.9578458868305
 20
272.8444725422749
 30
0.0
 40
2.2
  1
９
 41
1.5
  7
EXTFONT
100
AcDbText
  0
TEXT
  5
66
330
1E
100
AcDbEntity
  8
0
100
AcDbText
 10
183.8599480070661
 20
284.253655264754
 30
0.0
 40
2.2
  1
１
 41
1.5
  7
EXTFONT
100
AcDbText
  0
TEXT
  5
67
330
1E
100
AcDbEntity
  8
0
100
AcDbText
 10
186.3304767037528
 20
284.2392035711167
 30
0.0
 40
2.2
  1
０
 41
1.5
  7
EXTFONT
100
AcDbText
  0
TEXT
  5
68
330
1E
100
AcDbEntity
  8
0
100
AcDbText
 10
193.1378362362378
 20
293.2570501326476
 30
0.0
 40
2.2
  1
１
 41
1.5
  7
EXTFONT
100
AcDbText
  0
TEXT
  5
69
330
1E
100
AcDbEntity
  8
0
100
AcDbText
 10
194.7799446897288
 20
293.3519954855007
 30
0.0
 40
2.2
  1
１
 41
1.5
  7
EXTFONT
100
AcDbText
  0
TEXT
  5
6A
330
1E
100
AcDbEntity
  8
11
100
AcDbText
 10
563.6512313472525
 20
27.82094445730534
 30
0.0
 40
10.0
  1
ＭＤ－７５Ｒ
  7
BIGFONT
100
AcDbText
  0
LINE
  5
6B
330
1E
100
AcDbEntity
  8
1
100
AcDbLine
 10
206.0
 20
274.0
 30
0.0
 11
245.9999999999999
 21
274.0
 31
0.0
  0
LINE
  5
6C
330
1E
100
AcDbEntity
  8
1
100
AcDbLine
 10
206.0
 20
274.0
 30
0.0
 11
166.0
 21
274.0
 31
0.0
  0
LINE
  5
6D
330
1E
100
AcDbEntity
  8
1
100
AcDbLine
 10
206.0
 20
274.0
 30
0.0
 11
206.0
 21
314.0
 31
0.0
  0
CIRCLE
  5
6F
330
1E
100
AcDbEntity
  8
0
100
AcDbCircle
 10
206.0
 20
274.0
 30
0.0
 40
31.5
  0
LINE
  5
70
330
1E
100
AcDbEntity
  8
1
100
AcDbLine
 10
206.0
 20
274.0
 30
0.0
 11
206.0
 21
233.9999999999998
 31
0.0
  0
LINE
  5
71
330
1E
100
AcDbEntity
  8
11
100
AcDbLine
 10
231.0
 20
274.0
 30
0.0
 11
237.5
 21
274.0
 31
0.0
  0
LINE
  5
72
330
1E
100
AcDbEntity
  8
11
100
AcDbLine
 10
180.0
 20
281.0
 30
0.0
 11
175.5
 21
281.9999999999998
 31
0.0
  0
LINE
  5
73
330
1E
100
AcDbEntity
  8
11
100
AcDbLine
 10
212.7964809162029
 20
299.911583493024
 30
0.0
 11
214.0
 21
304.4999999999999
 31
0.0
  0
LINE
  5
74
330
1E
100
AcDbEntity
  8
11
100
AcDbLine
 10
218.2257115783667
 20
295.6907786067796
 30
0.0
 11
221.4999999999998
 21
301.5
 31
0.0
  0
LINE
  5
75
330
1E
100
AcDbEntity
  8
11
100
AcDbLine
 10
225.0782061739518
 20
293.0782061739518
 30
0.0
 11
228.0
 21
295.9999999999999
 31
0.0
  0
LINE
  5
76
330
1E
100
AcDbEntity
  8
11
100
AcDbLine
 10
227.7807312267403
 20
286.5037531116472
 30
0.0
 11
233.0
 21
289.4999999999999
 31
0.0
  0
LINE
  5
77
330
1E
100
AcDbEntity
  8
11
100
AcDbLine
 10
232.09185648013
 20
280.8437656341324
 30
0.0
 11
236.5
 21
281.9999999999998
 31
0.0
  0
LINE
  5
78
330
1E
100
AcDbEntity
  8
11
100
AcDbLine
 10
232.1001976970895
 20
267.1540465056813
 30
0.0
 11
236.5
 21
266.0
 31
0.0
  0
LINE
  5
79
330
1E
100
AcDbEntity
  8
11
100
AcDbLine
 10
227.7954067921872
 20
261.4878220267072
 30
0.0
 11
233.0
 21
258.4999999999999
 31
0.0
  0
LINE
  5
7A
330
1E
100
AcDbEntity
  8
11
100
AcDbLine
 10
225.2585845567161
 20
254.7414154432837
 30
0.0
 11
228.0
 21
252.0
 31
0.0
  0
LINE
  5
7B
330
1E
100
AcDbEntity
  8
11
100
AcDbLine
 10
218.546593493637
 20
252.435542432811
 30
0.0
 11
222.0
 21
246.4999999999998
 31
0.0
  0
LINE
  5
7C
330
1E
100
AcDbEntity
  8
11
100
AcDbLine
 10
212.8449043646736
 20
247.9038021096811
 30
0.0
 11
214.0
 21
243.5
 31
0.0
  0
LINE
  5
7D
330
1E
100
AcDbEntity
  8
11
100
AcDbLine
 10
199.1075175925439
 20
247.7224108215741
 30
0.0
 11
198.0
 21
243.5
 31
0.0
  0
LINE
  5
7E
330
1E
100
AcDbEntity
  8
11
100
AcDbLine
 10
193.6618121916922
 20
252.1096667917121
 30
0.0
 11
190.5
 21
246.4999999999998
 31
0.0
  0
LINE
  5
7F
330
1E
100
AcDbEntity
  8
11
100
AcDbLine
 10
186.8465751514701
 20
254.8465751514701
 30
0.0
 11
184.0
 21
252.0
 31
0.0
  0
LINE
  5
80
330
1E
100
AcDbEntity
  8
11
100
AcDbLine
 10
184.336189949826
 20
261.7894888808111
 30
0.0
 11
178.5
 21
258.4999999999999
 31
0.0
  0
LINE
  5
81
330
1E
100
AcDbEntity
  8
11
100
AcDbLine
 10
179.9437665380268
 20
267.1655781083349
 30
0.0
 11
175.5
 21
266.0
 31
0.0
  0
LINE
  5
82
330
1E
100
AcDbEntity
  8
11
100
AcDbLine
 10
184.2965546544581
 20
286.2328510129417
 30
0.0
 11
178.5
 21
289.4999999999999
 31
0.0
  0
LINE
  5
83
330
1E
100
AcDbEntity
  8
11
100
AcDbLine
 10
186.7302232337487
 20
292.841559504779
 30
0.0
 11
183.4999999999998
 21
295.9999999999999
 31
0.0
  0
LINE
  5
84
330
1E
100
AcDbEntity
  8
11
100
AcDbLine
 10
193.7856180321728
 20
295.6706776848544
 30
0.0
 11
190.5
 21
301.5
 31
0.0
  0
LINE
  5
85
330
1E
100
AcDbEntity
  8
11
100
AcDbLine
 10
199.1559410410148
 20
300.0929747811309
 30
0.0
 11
198.0
 21
304.4999999999999
 31
0.0
  0
LINE
  5
86
330
1E
100
AcDbEntity
  8
11
100
AcDbLine
 10
206.0
 20
297.5
 30
0.0
 11
206.0
 21
305.5
 31
0.0
  0
LINE
  5
87
330
1E
100
AcDbEntity
  8
11
100
AcDbLine
 10
206.0
 20
250.0
 30
0.0
 11
206.0
 21
242.5
 31
0.0
  0
TEXT
  5
88
330
1E
100
AcDbEntity
  8
0
100
AcDbText
 10
199.681037779483
 20
262.874901073851
 30
0.0
 40
2.2
  1
７
 41
1.5
  7
EXTFONT
100
AcDbText
  0
TEXT
  5
89
330
1E
100
AcDbEntity
  8
0
100
AcDbText
 10
202.2717815283546
 20
262.9364100153208
 30
0.0
 40
2.2
  1
５
 41
1.5
  7
EXTFONT
100
AcDbText
  0
TEXT
  5
8A
330
1E
100
AcDbEntity
  8
0
100
AcDbText
 10
213.873793406971
 20
262.9979146922142
 30
0.0
 40
2.2
  1
１
 41
1.5
  7
EXTFONT
100
AcDbText
  0
LINE
  5
8B
330
1E
100
AcDbEntity
  8
0
100
AcDbLine
 10
205.5
 20
289.0
 30
0.0
 11
205.5
 21
299.0
 31
0.0
  0
LINE
  5
8C
330
1E
100
AcDbEntity
  8
0
100
AcDbLine
 10
205.5
 20
299.0
 30
0.0
 11
206.4999999999999
 21
299.0
 31
0.0
  0
LINE
  5
8D
330
1E
100
AcDbEntity
  8
0
100
AcDbLine
 10
206.4999999999999
 20
299.0
 30
0.0
 11
206.4999999999999
 21
289.0
 31
0.0
  0
LINE
  5
8E
330
1E
100
AcDbEntity
  8
0
100
AcDbLine
 10
218.0
 20
274.5
 30
0.0
 11
227.0
 21
274.5
 31
0.0
  0
LINE
  5
8F
330
1E
100
AcDbEntity
  8
0
100
AcDbLine
 10
227.0
 20
274.5
 30
0.0
 11
227.0
 21
273.4999999999998
 31
0.0
  0
LINE
  5
90
330
1E
100
AcDbEntity
  8
0
100
AcDbLine
 10
227.0
 20
273.4999999999998
 30
0.0
 11
218.0
 21
273.4999999999998
 31
0.0
  0
LINE
  5
91
330
1E
100
AcDbEntity
  8
1
100
AcDbLine
 10
500.9999999999999
 20
274.0
 30
0.0
 11
586.0
 21
274.0
 31
0.0
  0
LINE
  5
92
330
1E
100
AcDbEntity
  8
1
100
AcDbLine
 10
544.0
 20
314.5
 30
0.0
 11
544.0
 21
233.0
 31
0.0
  0
LINE
  5
93
330
1E
100
AcDbEntity
  8
1
100
AcDbLine
 10
198.5
 20
308.4999999999999
 30
0.0
 11
214.0
 21
308.4999999999999
 31
0.0
  0
CIRCLE
  5
94
330
1E
100
AcDbEntity
  8
0
100
AcDbCircle
 10
206.0
 20
308.4999999999999
 30
0.0
 40
2.5
  0
LINE
  5
95
330
1E
100
AcDbEntity
  8
0
100
AcDbLine
 10
205.5
 20
310.0
 30
0.0
 11
206.4999999999999
 21
310.0
 31
0.0
  0
LINE
  5
96
330
1E
100
AcDbEntity
  8
0
100
AcDbLine
 10
206.4999999999999
 20
310.0
 30
0.0
 11
206.4999999999999
 21
308.9999999999998
 31
0.0
  0
LINE
  5
97
330
1E
100
AcDbEntity
  8
0
100
AcDbLine
 10
206.4999999999999
 20
308.9999999999998
 30
0.0
 11
207.5
 21
308.9999999999998
 31
0.0
  0
LINE
  5
98
330
1E
100
AcDbEntity
  8
0
100
AcDbLine
 10
207.5
 20
308.9999999999998
 30
0.0
 11
207.5
 21
308.0
 31
0.0
  0
LINE
  5
99
330
1E
100
AcDbEntity
  8
0
100
AcDbLine
 10
207.5
 20
308.0
 30
0.0
 11
206.4999999999999
 21
308.0
 31
0.0
  0
LINE
  5
9A
330
1E
100
AcDbEntity
  8
0
100
AcDbLine
 10
206.4999999999999
 20
308.0
 30
0.0
 11
206.4999999999999
 21
307.0
 31
0.0
  0
LINE
  5
9B
330
1E
100
AcDbEntity
  8
0
100
AcDbLine
 10
206.4999999999999
 20
307.0
 30
0.0
 11
205.5
 21
307.0
 31
0.0
  0
LINE
  5
9C
330
1E
100
AcDbEntity
  8
0
100
AcDbLine
 10
205.5
 20
307.0
 30
0.0
 11
205.5
 21
308.0
 31
0.0
  0
LINE
  5
9D
330
1E
100
AcDbEntity
  8
0
100
AcDbLine
 10
205.5
 20
308.0
 30
0.0
 11
204.4999999999999
 21
308.0
 31
0.0
  0
LINE
  5
9E
330
1E
100
AcDbEntity
  8
0
100
AcDbLine
 10
204.4999999999999
 20
308.0
 30
0.0
 11
204.4999999999999
 21
308.9999999999998
 31
0.0
  0
LINE
  5
9F
330
1E
100
AcDbEntity
  8
0
100
AcDbLine
 10
204.4999999999999
 20
308.9999999999998
 30
0.0
 11
205.5
 21
308.9999999999998
 31
0.0
  0
LINE
  5
A0
330
1E
100
AcDbEntity
  8
0
100
AcDbLine
 10
205.5
 20
308.9999999999998
 30
0.0
 11
205.5
 21
310.0
 31
0.0
  0
CIRCLE
  5
A2
330
1E
100
AcDbEntity
  8
0
100
AcDbCircle
 10
544.0
 20
274.0
 30
0.0
 40
36.5
  0
CIRCLE
  5
A3
330
1E
100
AcDbEntity
  8
0
100
AcDbCircle
 10
544.0
 20
274.0
 30
0.0
 40
33.5
  0
CIRCLE
  5
A4
330
1E
100
AcDbEntity
  8
0
100
AcDbCircle
 10
544.0
 20
274.0
 30
0.0
 40
4.5
  0
POLYLINE
  5
A5
330
1E
100
AcDbEntity
  8
0
100
AcDb2dPolyline
 66
     1
 10
0.0
 20
0.0
 30
0.0
 70
   129
  0
VERTEX
  5
A6
330
A5
100
AcDbEntity
  8
0
100
AcDbVertex
100
AcDb2dVertex
 10
544.0
 20
278.0
 30
0.0
  0
VERTEX
  5
A7
330
A5
100
AcDbEntity
  8
0
100
AcDbVertex
100
AcDb2dVertex
 10
540.5358983848623
 20
276.0
 30
0.0
  0
VERTEX
  5
A8
330
A5
100
AcDbEntity
  8
0
100
AcDbVertex
100
AcDb2dVertex
 10
540.5358983848623
 20
272.0
 30
0.0
  0
VERTEX
  5
A9
330
A5
100
AcDbEntity
  8
0
100
AcDbVertex
100
AcDb2dVertex
 10
544.0
 20
270.0
 30
0.0
  0
VERTEX
  5
AA
330
A5
100
AcDbEntity
  8
0
100
AcDbVertex
100
AcDb2dVertex
 10
547.4641016151377
 20
272.0
 30
0.0
  0
VERTEX
  5
AB
330
A5
100
AcDbEntity
  8
0
100
AcDbVertex
100
AcDb2dVertex
 10
547.4641016151377
 20
276.0
 30
0.0
  0
SEQEND
  5
AC
330
A5
100
AcDbEntity
  8
0
  0
CIRCLE
  5
AD
330
1E
100
AcDbEntity
  8
0
100
AcDbCircle
 10
544.0
 20
274.0
 30
0.0
 40
3.39023357031391
  0
CIRCLE
  5
AE
330
1E
100
AcDbEntity
  8
0
100
AcDbCircle
 10
544.0
 20
274.0
 30
0.0
 40
2.0
  0
CIRCLE
  5
AF
330
1E
100
AcDbEntity
  8
0
100
AcDbCircle
 10
544.0
 20
274.0
 30
0.0
 40
1.5
  0
LINE
  5
B0
330
1E
100
AcDbEntity
  8
1
100
AcDbLine
 10
359.4947127398143
 20
274.0
 30
0.0
 11
403.4947127398143
 21
274.0
 31
0.0
  0
LINE
  5
B1
330
1E
100
AcDbEntity
  8
0
100
AcDbLine
 10
364.4947127398143
 20
310.7999999999999
 30
0.0
 11
364.4947127398143
 21
237.1999999999999
 31
0.0
  0
LINE
  5
B2
330
1E
100
AcDbEntity
  8
0
100
AcDbLine
 10
365.4947127398143
 20
236.2
 30
0.0
 11
382.4947127398143
 21
236.2
 31
0.0
  0
LINE
  5
B3
330
1E
100
AcDbEntity
  8
0
100
AcDbLine
 10
365.4947127398143
 20
311.8
 30
0.0
 11
382.4947127398143
 21
311.8
 31
0.0
  0
LINE
  5
B4
330
1E
100
AcDbEntity
  8
1
100
AcDbLine
 10
359.9947127398142
 20
308.7999999999999
 30
0.0
 11
365.9947127398142
 21
308.7999999999999
 31
0.0
  0
LINE
  5
B5
330
1E
100
AcDbEntity
  8
0
100
AcDbLine
 10
382.4947127398143
 20
311.8
 30
0.0
 11
383.4947127398143
 21
311.8
 31
0.0
  0
LINE
  5
B6
330
1E
100
AcDbEntity
  8
0
100
AcDbLine
 10
383.4947127398143
 20
311.8
 30
0.0
 11
383.4947127398143
 21
236.2
 31
0.0
  0
LINE
  5
B7
330
1E
100
AcDbEntity
  8
0
100
AcDbLine
 10
383.4947127398143
 20
236.2
 30
0.0
 11
382.4947127398143
 21
236.2
 31
0.0
  0
LINE
  5
B8
330
1E
100
AcDbEntity
  8
0
100
AcDbLine
 10
386.4947127398142
 20
307.8
 30
0.0
 11
386.4947127398142
 21
240.2
 31
0.0
  0
ARC
  5
B9
330
1E
100
AcDbEntity
  8
0
100
AcDbCircle
 10
365.6690460093364
 20
310.6256667304777
 30
0.0
 40
1.187202896209835
100
AcDbArc
 50
98.44405856080737
 51
171.5559414391925
  0
ARC
  5
BA
330
1E
100
AcDbEntity
  8
0
100
AcDbCircle
 10
383.7948917399586
 20
308.1001790001444
 30
0.0
 40
2.716457410560488
100
AcDbArc
 50
353.6556389248881
 51
96.3443610751117
  0
ARC
  5
BB
330
1E
100
AcDbEntity
  8
0
100
AcDbCircle
 10
365.4112179532365
 20
237.116505213422
 30
0.0
 40
0.920300595248965
100
AcDbArc
 50
174.794650629565
 51
275.2053493704348
  0
ARC
  5
BC
330
1E
100
AcDbEntity
  8
0
100
AcDbCircle
 10
383.4708192141722
 20
240.2238935256419
 30
0.0
 40
3.023987922427521
100
AcDbArc
 50
270.4527175561386
 51
359.5472824438612
  0
LINE
  5
BD
330
1E
100
AcDbEntity
  8
0
100
AcDbLine
 10
364.4947127398143
 20
310.7999999999999
 30
0.0
 11
364.4947127398143
 21
311.2999999999999
 31
0.0
  0
LINE
  5
BE
330
1E
100
AcDbEntity
  8
0
100
AcDbLine
 10
364.4947127398143
 20
311.2999999999999
 30
0.0
 11
363.4947127398143
 21
311.2999999999999
 31
0.0
  0
LINE
  5
BF
330
1E
100
AcDbEntity
  8
0
100
AcDbLine
 10
364.4947127398143
 20
306.3
 30
0.0
 11
363.4947127398143
 21
306.3
 31
0.0
  0
LINE
  5
C0
330
1E
100
AcDbEntity
  8
0
100
AcDbLine
 10
362.4947127398143
 20
307.3
 30
0.0
 11
362.4947127398143
 21
310.3
 31
0.0
  0
ARC
  5
C1
330
1E
100
AcDbEntity
  8
0
100
AcDbCircle
 10
363.6621055281735
 20
310.1326072116407
 30
0.0
 40
1.17933297584183
100
AcDbArc
 50
98.16003615531927
 51
171.8399638446807
  0
ARC
  5
C2
330
1E
100
AcDbEntity
  8
0
100
AcDbCircle
 10
363.5907182100974
 20
307.3960054702829
 30
0.0
 40
1.100202272863781
100
AcDbArc
 50
185.0060914873174
 51
264.9939085126824
  0
LINE
  5
C3
330
1E
100
AcDbEntity
  8
0
100
AcDbLine
 10
386.4947127398142
 20
278.5
 30
0.0
 11
386.9947127398143
 21
278.5
 31
0.0
  0
LINE
  5
C4
330
1E
100
AcDbEntity
  8
0
100
AcDbLine
 10
386.9947127398143
 20
278.5
 30
0.0
 11
386.9947127398143
 21
269.4999999999998
 31
0.0
  0
LINE
  5
C5
330
1E
100
AcDbEntity
  8
0
100
AcDbLine
 10
386.9947127398143
 20
269.4999999999998
 30
0.0
 11
386.4947127398142
 21
269.4999999999998
 31
0.0
  0
LINE
  5
C6
330
1E
100
AcDbEntity
  8
0
100
AcDbLine
 10
386.9947127398143
 20
278.0
 30
0.0
 11
389.4947127398143
 21
278.0
 31
0.0
  0
LINE
  5
C7
330
1E
100
AcDbEntity
  8
0
100
AcDbLine
 10
389.4947127398143
 20
278.0
 30
0.0
 11
389.9947127398143
 21
277.4999999999999
 31
0.0
  0
LINE
  5
C8
330
1E
100
AcDbEntity
  8
0
100
AcDbLine
 10
389.9947127398143
 20
277.4999999999999
 30
0.0
 11
389.9947127398143
 21
270.5
 31
0.0
  0
LINE
  5
C9
330
1E
100
AcDbEntity
  8
0
100
AcDbLine
 10
389.9947127398143
 20
270.5
 30
0.0
 11
389.4947127398143
 21
270.0
 31
0.0
  0
LINE
  5
CA
330
1E
100
AcDbEntity
  8
0
100
AcDbLine
 10
389.4947127398143
 20
270.0
 30
0.0
 11
386.9947127398143
 21
270.0
 31
0.0
  0
LINE
  5
CB
330
1E
100
AcDbEntity
  8
0
100
AcDbLine
 10
386.9947127398143
 20
276.0
 30
0.0
 11
389.9947127398143
 21
276.0
 31
0.0
  0
LINE
  5
CC
330
1E
100
AcDbEntity
  8
0
100
AcDbLine
 10
386.9947127398143
 20
272.0
 30
0.0
 11
389.9947127398143
 21
272.0
 31
0.0
  0
LINE
  5
CD
330
1E
100
AcDbEntity
  8
2
100
AcDbLine
 10
365.9947127398142
 20
242.5
 30
0.0
 11
365.9947127398142
 21
305.5
 31
0.0
  0
LINE
  5
106
330
1E
100
AcDbEntity
  8
0
100
AcDbLine
 10
206.9999999999998
 20
294.4999999999998
 30
0.0
 11
206.9999999999998
 21
295.9999999999999
 31
0.0
  0
LINE
  5
107
330
1E
100
AcDbEntity
  8
0
100
AcDbLine
 10
204.9999999999998
 20
294.4999999999998
 30
0.0
 11
204.9999999999998
 21
295.9999999999999
 31
0.0
  0
ARC
  5
108
330
1E
100
AcDbEntity
  8
0
100
AcDbCircle
 10
206.2473059436283
 20
295.7473059436283
 30
0.0
 40
0.7939789850007008
100
AcDbArc
 50
18.55790507951248
 51
71.44209492048751
  0
ARC
  5
109
330
1E
100
AcDbEntity
  8
0
100
AcDbCircle
 10
205.8920396248249
 20
295.6079603751748
 30
0.0
 40
0.9743868634638801
100
AcDbArc
 50
113.7248541249506
 51
156.2751458750548
  0
ARC
  5
10A
330
1E
100
AcDbEntity
  8
0
100
AcDbCircle
 10
206.4111789642747
 20
295.4111789642747
 30
0.0
 40
1.679783668853874
100
AcDbArc
 50
212.8497778973124
 51
237.1502221026875
  0
ARC
  5
10B
330
1E
100
AcDbEntity
  8
0
100
AcDbCircle
 10
206.2757758560292
 20
294.7242241439706
 30
0.0
 40
0.7581405393787774
100
AcDbArc
 50
287.2028388342105
 51
342.7971611657894
  0
CIRCLE
  5
1EA
330
1E
100
AcDbEntity
  8
0
100
AcDbCircle
 10
206.0
 20
274.0
 30
0.0
 40
37.79999999999999
  0
CIRCLE
  5
1EB
330
1E
100
AcDbEntity
  8
0
100
AcDbCircle
 10
544.0
 20
274.0
 30
0.0
 40
37.79999999999999
  0
ENDSEC
  0
SECTION
  2
OBJECTS
  0
DICTIONARY
  5
C
330
0
100
AcDbDictionary
281
     1
  3
ACAD_GROUP
350
D
  3
ACAD_LAYOUT
350
19
  3
ACAD_MLINESTYLE
350
16
  3
ACAD_PLOTSETTINGS
350
18
  3
ACAD_PLOTSTYLENAME
350
E
  3
AcDbVariableDictionary
350
1F4
  3
AcmDictionary
350
1C6
  3
AMG
350
10E
  3
AMGSNAPSETTINGS
350
1E3
  3
DWGPROPS
350
1C9
  3
MAPISURF_MODULE
350
199
  0
DICTIONARY
  5
1EC
330
1E
100
AcDbDictionary
280
     1
281
     1
  3
ACAD_INDEX
360
1ED
  0
DICTIONARY
  5
D
102
{ACAD_REACTORS
330
C
102
}
330
C
100
AcDbDictionary
281
     1
  0
DICTIONARY
  5
19
102
{ACAD_REACTORS
330
C
102
}
330
C
100
AcDbDictionary
281
     1
  3
Model
350
21
  3
ﾚｲｱｳﾄ1
350
1D
  0
DICTIONARY
  5
16
102
{ACAD_REACTORS
330
C
102
}
330
C
100
AcDbDictionary
281
     1
  3
Standard
350
17
  0
DICTIONARY
  5
18
102
{ACAD_REACTORS
330
C
102
}
330
C
100
AcDbDictionary
281
     1
  0
ACDBDICTIONARYWDFLT
  5
E
102
{ACAD_REACTORS
330
C
102
}
330
C
100
AcDbDictionary
281
     1
  3
Normal
350
F
100
AcDbDictionaryWithDefault
340
F
  0
DICTIONARY
  5
1F4
102
{ACAD_REACTORS
330
C
102
}
330
C
100
AcDbDictionary
281
     1
  3
DIMASSOC
350
1F6
  3
INDEXCTL
350
1F5
  0
DICTIONARY
  5
1C6
102
{ACAD_REACTORS
330
C
102
}
330
C
100
AcDbDictionary
281
     1
  3
AcmBOMDATA
350
1C7
  0
DICTIONARY
  5
10E
102
{ACAD_REACTORS
330
C
102
}
330
C
100
AcDbDictionary
281
     1
  3
AcMgSettings
350
10F
  3
AMGLAYCFG
350
1D3
  0
DICTIONARY
  5
1E3
102
{ACAD_REACTORS
330
C
102
}
330
C
100
AcDbDictionary
281
     1
  3
DIMENSION
350
1E8
  3
FEA
350
1E7
  3
HATCH (1)
350
1E4
  3
HATCH (2)
350
1E5
  3
SIMPLE WELD
350
1E9
  3
SYMBOLS
350
1E6
  0
XRECORD
  5
1C9
102
{ACAD_REACTORS
330
C
102
}
330
C
100
AcDbXrecord
280
     1
  1
DWGPROPS COOKIE
  2

  3

  4

  6

  7

  8

  9

300
AmdtFileType=84
301
=
302
=
303
=
304
=
305
=
306
=
307
=
308
=
309
=
 40
0.0000046990740741
 41
2450686.812743055
 42
2450686.812743055
  1

 90
        1
  0
DICTIONARY
  5
1ED
102
{ACAD_REACTORS
330
1EC
102
}
330
1EC
100
AcDbDictionary
281
     1
  3
*A1
350
1EE
  0
LAYOUT
  5
21
102
{ACAD_REACTORS
330
19
102
}
330
19
100
AcDbPlotSettings
  1

  2
\\KONISHIDENXP\SHARP MX-2700FG
  4

  6

 40
0.0
 41
0.0
 42
0.0
 43
0.0
 44
0.0
 45
0.0
 46
0.0
 47
0.0
 48
0.0
 49
0.0
140
0.0
141
0.0
142
1.0
143
1.0
 70
  1712
 72
     0
 73
     0
 74
     0
  7

 75
     0
147
1.0
148
0.0
149
0.0
100
AcDbLayout
  1
Model
 70
     1
 71
     0
 10
0.0
 20
0.0
 11
12.0
 21
9.0
 12
0.0
 22
0.0
 32
0.0
 14
0.0
 24
0.0
 34
0.0
 15
0.0
 25
0.0
 35
0.0
146
0.0
 13
0.0
 23
0.0
 33
0.0
 16
1.0
 26
0.0
 36
0.0
 17
0.0
 27
1.0
 37
0.0
 76
     0
330
1E
  0
LAYOUT
  5
1D
102
{ACAD_REACTORS
330
19
102
}
330
19
100
AcDbPlotSettings
  1

  2
\\KONISHIDENXP\SHARP MX-2700FG
  4

  6

 40
0.0
 41
0.0
 42
0.0
 43
0.0
 44
0.0
 45
0.0
 46
0.0
 47
0.0
 48
0.0
 49
0.0
140
0.0
141
0.0
142
1.0
143
1.0
 70
   688
 72
     0
 73
     0
 74
     5
  7

 75
    16
147
1.0
148
0.0
149
0.0
100
AcDbLayout
  1
ﾚｲｱｳﾄ1
 70
     0
 71
     1
 10
0.0
 20
0.0
 11
12.0
 21
9.0
 12
0.0
 22
0.0
 32
0.0
 14
1.000000000000000E+20
 24
1.000000000000000E+20
 34
1.000000000000000E+20
 15
-1.000000000000000E+20
 25
-1.000000000000000E+20
 35
-1.000000000000000E+20
146
0.0
 13
0.0
 23
0.0
 33
0.0
 16
1.0
 26
0.0
 36
0.0
 17
0.0
 27
1.0
 37
0.0
 76
     0
330
1A
  0
MLINESTYLE
  5
17
102
{ACAD_REACTORS
330
16
102
}
330
16
100
AcDbMlineStyle
  2
STANDARD
 70
     0
  3

 62
   256
 51
90.0
 52
90.0
 71
     2
 49
0.5
 62
   256
  6
BYLAYER
 49
-0.5
 62
   256
  6
BYLAYER
  0
ACDBPLACEHOLDER
  5
F
102
{ACAD_REACTORS
330
E
102
}
330
E
  0
DICTIONARYVAR
  5
1F6
102
{ACAD_REACTORS
330
1F4
102
}
330
1F4
100
DictionaryVariables
280
     0
  1
0
  0
DICTIONARYVAR
  5
1F5
102
{ACAD_REACTORS
330
1F4
102
}
330
1F4
100
DictionaryVariables
280
     0
  1
1
  0
ACMDATADICTIONARY
  5
1C7
102
{ACAD_REACTORS
330
1C6
102
}
330
1C6
100
AcDbDictionary
281
     1
  3
*A1
350
1C8
100
AcmDataDictionary
  0
DICTIONARY
  5
10F
102
{ACAD_REACTORS
330
10E
102
}
330
10E
100
AcDbDictionary
281
     1
  3
DWGSETTINGS
350
110
  0
ACAMGFILTERDAT
  5
1E8
102
{ACAD_REACTORS
330
1E3
102
}
330
1E3
100
AcAmgFilterDat
 70
    15
  1
DIMENSION,AMDT_*_DIM
  2
*
  3
*
  4
*
  5
*
290
     1
  0
ACAMGFILTERDAT
  5
1E7
102
{ACAD_REACTORS
330
1E3
102
}
330
1E3
100
AcAmgFilterDat
 70
    15
  1
*
  2
AM_FEA-AM_*
  3
*
  4
*
  5
*
290
     1
  0
ACAMGFILTERDAT
  5
1E4
102
{ACAD_REACTORS
330
1E3
102
}
330
1E3
100
AcAmgFilterDat
 70
    15
  1
HATCH
  2
*
  3
*
  4
*
  5
*
290
     1
  0
ACAMGFILTERDAT
  5
1E5
102
{ACAD_REACTORS
330
1E3
102
}
330
1E3
100
AcAmgFilterDat
 70
    15
  1
LINE
  2
8,8N,*-8,*-8N,AM_8,AM_8N,*-AM_8,*-AM_8N
  3
*
  4
*
  5
INSERT,STDPART2D
290
     1
  0
ACAMGFILTERDAT
  5
1E9
102
{ACAD_REACTORS
330
1E3
102
}
330
1E3
100
AcAmgFilterDat
 70
    15
  1
ARC
  2
AM_5
  3
*
  4
2
  5
INSERT
290
     0
  0
ACAMGFILTERDAT
  5
1E6
102
{ACAD_REACTORS
330
1E3
102
}
330
1E3
100
AcAmgFilterDat
 70
    15
  1
ACMFCFRAME,ACMDATUMTARGET,ACMDATUMID,ACMWELDSYM,ACMSURFSYM,ACMFEATID,ACMPARTREF,ACMBALLOON,AMDTEDGESYM,AMGSCREWCALCTABLE
  2
*
  3
*
  4
*
  5
*
290
     1
  0
LAYER_INDEX
  5
1EE
102
{ACAD_REACTORS
330
1ED
102
}
330
1ED
100
AcDbIndex
 40
2456524.570365301
100
AcDbLayerIndex
  8
0
360
1EF
 90
      102
  8
1
360
1F0
 90
        9
  8
10
360
1F1
 90
        0
  8
11
360
1F2
 90
       26
  8
2
360
1F3
 90
        1
  0
ACMDATAENTRYBLOCK
  5
1C8
102
{ACAD_REACTORS
330
1C7
102
}
330
1C7
100
AcmDataEntry
100
AcmDataEntryBlock
  0
IDBUFFER
  5
1EF
330
0
100
AcDbIdBuffer
330
95
330
96
330
97
330
98
330
99
330
9A
330
9B
330
9C
330
9D
330
9E
330
9F
330
A0
330
A2
330
A3
330
A4
330
A5
330
AD
330
AE
330
AF
330
B1
330
B2
330
B3
330
B5
330
B6
330
B7
330
B8
330
B9
330
BA
330
BB
330
BC
330
BD
330
BE
330
BF
330
C0
330
C1
330
C2
330
C3
330
C4
330
C5
330
C6
330
C7
330
C8
330
C9
330
CA
330
CB
330
CC
330
106
330
107
330
108
330
109
330
10A
330
10B
330
1EA
330
1EB
330
44
330
45
330
46
330
47
330
48
330
49
330
4A
330
4B
330
4C
330
4D
330
4E
330
4F
330
50
330
51
330
52
330
53
330
54
330
55
330
56
330
57
330
58
330
59
330
5A
330
5B
330
5D
330
5E
330
5F
330
60
330
61
330
62
330
63
330
64
330
65
330
66
330
67
330
68
330
69
330
6F
330
88
330
89
330
8A
330
8B
330
8C
330
8D
330
8E
330
8F
330
90
330
94
  0
IDBUFFER
  5
1F0
330
0
100
AcDbIdBuffer
330
6B
330
6C
330
6D
330
70
330
91
330
92
330
93
330
B0
330
B4
  0
IDBUFFER
  5
1F1
330
0
100
AcDbIdBuffer
  0
IDBUFFER
  5
1F2
330
0
100
AcDbIdBuffer
330
7E
330
7F
330
80
330
81
330
82
330
83
330
84
330
85
330
86
330
87
330
43
330
5C
330
6A
330
71
330
72
330
73
330
74
330
75
330
76
330
77
330
78
330
79
330
7A
330
7B
330
7C
330
7D
  0
IDBUFFER
  5
1F3
330
0
100
AcDbIdBuffer
330
CD
  0
ENDSEC
  0
EOF
