  0
SECTION
  2
HEADER
  9
$ACADVER
  1
AC1015
  9
$ACADMAINTVER
 70
    13
  9
$DWGCODEPAGE
  3
ANSI_932
  9
$INSBASE
 10
0.0
 20
0.0
 30
0.0
  9
$EXTMIN
 10
0.0
 20
0.0
 30
0.0
  9
$EXTMAX
 10
750.0
 20
540.0
 30
0.0
  9
$LIMMIN
 10
0.0
 20
0.0
  9
$LIMMAX
 10
750.0
 20
540.0
  9
$ORTHOMODE
 70
     1
  9
$REGENMODE
 70
     1
  9
$FILLMODE
 70
     1
  9
$QTEXTMODE
 70
     0
  9
$MIRRTEXT
 70
     1
  9
$LTSCALE
 40
20.0
  9
$ATTMODE
 70
     1
  9
$TEXTSIZE
 40
10.0
  9
$TRACEWID
 40
0.05
  9
$TEXTSTYLE
  7
BIGFONT
  9
$CLAYER
  8
0
  9
$CELTYPE
  6
ByLayer
  9
$CECOLOR
 62
   256
  9
$CELTSCALE
 40
1.0
  9
$DISPSILH
 70
     0
  9
$DIMSCALE
 40
2.0
  9
$DIMASZ
 40
3.0
  9
$DIMEXO
 40
2.0
  9
$DIMDLI
 40
0.38
  9
$DIMRND
 40
0.0
  9
$DIMDLE
 40
0.0
  9
$DIMEXE
 40
2.0
  9
$DIMTP
 40
0.0
  9
$DIMTM
 40
0.0
  9
$DIMTXT
 40
3.2
  9
$DIMCEN
 40
0.09
  9
$DIMTSZ
 40
0.0
  9
$DIMTOL
 70
     0
  9
$DIMLIM
 70
     0
  9
$DIMTIH
 70
     0
  9
$DIMTOH
 70
     0
  9
$DIMSE1
 70
     0
  9
$DIMSE2
 70
     0
  9
$DIMTAD
 70
     1
  9
$DIMZIN
 70
     0
  9
$DIMBLK
  1

  9
$DIMASO
 70
     0
  9
$DIMSHO
 70
     0
  9
$DIMPOST
  1

  9
$DIMAPOST
  1

  9
$DIMALT
 70
     0
  9
$DIMALTD
 70
     2
  9
$DIMALTF
 40
25.4
  9
$DIMLFAC
 40
1.0
  9
$DIMTOFL
 70
     0
  9
$DIMTVP
 40
1.6
  9
$DIMTIX
 70
     1
  9
$DIMSOXD
 70
     0
  9
$DIMSAH
 70
     0
  9
$DIMBLK1
  1

  9
$DIMBLK2
  1

  9
$DIMSTYLE
  2
STANDARD
  9
$DIMCLRD
 70
     0
  9
$DIMCLRE
 70
     0
  9
$DIMCLRT
 70
     0
  9
$DIMTFAC
 40
1.0
  9
$DIMGAP
 40
0.09
  9
$DIMJUST
 70
     0
  9
$DIMSD1
 70
     0
  9
$DIMSD2
 70
     0
  9
$DIMTOLJ
 70
     1
  9
$DIMTZIN
 70
     0
  9
$DIMALTZ
 70
     0
  9
$DIMALTTZ
 70
     0
  9
$DIMUPT
 70
     0
  9
$DIMDEC
 70
     4
  9
$DIMTDEC
 70
     4
  9
$DIMALTU
 70
     2
  9
$DIMALTTD
 70
     2
  9
$DIMTXSTY
  7
STANDARD
  9
$DIMAUNIT
 70
     0
  9
$DIMADEC
 70
     0
  9
$DIMALTRND
 40
0.0
  9
$DIMAZIN
 70
     0
  9
$DIMDSEP
 70
    46
  9
$DIMATFIT
 70
     3
  9
$DIMFRAC
 70
     0
  9
$DIMLDRBLK
  1

  9
$DIMLUNIT
 70
     2
  9
$DIMLWD
 70
    -2
  9
$DIMLWE
 70
    -2
  9
$DIMTMOVE
 70
     0
  9
$LUNITS
 70
     2
  9
$LUPREC
 70
     4
  9
$SKETCHINC
 40
0.1
  9
$FILLETRAD
 40
0.0
  9
$AUNITS
 70
     0
  9
$AUPREC
 70
     0
  9
$MENU
  1
ACAD
  9
$ELEVATION
 40
0.0
  9
$PELEVATION
 40
0.0
  9
$THICKNESS
 40
0.0
  9
$LIMCHECK
 70
     0
  9
$CHAMFERA
 40
0.0
  9
$CHAMFERB
 40
0.0
  9
$CHAMFERC
 40
0.0
  9
$CHAMFERD
 40
0.0
  9
$SKPOLY
 70
     0
  9
$TDCREATE
 40
2450686.812975000
  9
$TDUCREATE
 40
2450686.437975000
  9
$TDUPDATE
 40
2456524.564567418
  9
$TDUUPDATE
 40
2456524.189567419
  9
$TDINDWG
 40
0.0026056134
  9
$TDUSRTIMER
 40
0.0026054398
  9
$USRTIMER
 70
     1
  9
$ANGBASE
 50
0.0
  9
$ANGDIR
 70
     0
  9
$PDMODE
 70
     0
  9
$PDSIZE
 40
0.0
  9
$PLINEWID
 40
0.0
  9
$SPLFRAME
 70
     0
  9
$SPLINETYPE
 70
     6
  9
$SPLINESEGS
 70
     8
  9
$HANDSEED
  5
355
  9
$SURFTAB1
 70
     6
  9
$SURFTAB2
 70
     6
  9
$SURFTYPE
 70
     6
  9
$SURFU
 70
     6
  9
$SURFV
 70
     6
  9
$UCSBASE
  2

  9
$UCSNAME
  2

  9
$UCSORG
 10
0.0
 20
0.0
 30
0.0
  9
$UCSXDIR
 10
1.0
 20
0.0
 30
0.0
  9
$UCSYDIR
 10
0.0
 20
1.0
 30
0.0
  9
$UCSORTHOREF
  2

  9
$UCSORTHOVIEW
 70
     0
  9
$UCSORGTOP
 10
0.0
 20
0.0
 30
0.0
  9
$UCSORGBOTTOM
 10
0.0
 20
0.0
 30
0.0
  9
$UCSORGLEFT
 10
0.0
 20
0.0
 30
0.0
  9
$UCSORGRIGHT
 10
0.0
 20
0.0
 30
0.0
  9
$UCSORGFRONT
 10
0.0
 20
0.0
 30
0.0
  9
$UCSORGBACK
 10
0.0
 20
0.0
 30
0.0
  9
$PUCSBASE
  2

  9
$PUCSNAME
  2

  9
$PUCSORG
 10
0.0
 20
0.0
 30
0.0
  9
$PUCSXDIR
 10
1.0
 20
0.0
 30
0.0
  9
$PUCSYDIR
 10
0.0
 20
1.0
 30
0.0
  9
$PUCSORTHOREF
  2

  9
$PUCSORTHOVIEW
 70
     0
  9
$PUCSORGTOP
 10
0.0
 20
0.0
 30
0.0
  9
$PUCSORGBOTTOM
 10
0.0
 20
0.0
 30
0.0
  9
$PUCSORGLEFT
 10
0.0
 20
0.0
 30
0.0
  9
$PUCSORGRIGHT
 10
0.0
 20
0.0
 30
0.0
  9
$PUCSORGFRONT
 10
0.0
 20
0.0
 30
0.0
  9
$PUCSORGBACK
 10
0.0
 20
0.0
 30
0.0
  9
$USERI1
 70
     0
  9
$USERI2
 70
     0
  9
$USERI3
 70
     0
  9
$USERI4
 70
     0
  9
$USERI5
 70
     0
  9
$USERR1
 40
0.0
  9
$USERR2
 40
0.0
  9
$USERR3
 40
0.0
  9
$USERR4
 40
0.0
  9
$USERR5
 40
0.0
  9
$WORLDVIEW
 70
     1
  9
$SHADEDGE
 70
     3
  9
$SHADEDIF
 70
    70
  9
$TILEMODE
 70
     1
  9
$MAXACTVP
 70
    16
  9
$PINSBASE
 10
0.0
 20
0.0
 30
0.0
  9
$PLIMCHECK
 70
     0
  9
$PEXTMIN
 10
1.000000000000000E+20
 20
1.000000000000000E+20
 30
1.000000000000000E+20
  9
$PEXTMAX
 10
-1.000000000000000E+20
 20
-1.000000000000000E+20
 30
-1.000000000000000E+20
  9
$PLIMMIN
 10
0.0
 20
0.0
  9
$PLIMMAX
 10
12.0
 20
9.0
  9
$UNITMODE
 70
     0
  9
$VISRETAIN
 70
     0
  9
$PLINEGEN
 70
     1
  9
$PSLTSCALE
 70
     0
  9
$TREEDEPTH
 70
  3020
  9
$CMLSTYLE
  2
Standard
  9
$CMLJUST
 70
     0
  9
$CMLSCALE
 40
1.0
  9
$PROXYGRAPHICS
 70
     1
  9
$MEASUREMENT
 70
     0
  9
$CELWEIGHT
370
    -1
  9
$ENDCAPS
280
     0
  9
$JOINSTYLE
280
     0
  9
$LWDISPLAY
290
     0
  9
$INSUNITS
 70
     0
  9
$HYPERLINKBASE
  1

  9
$STYLESHEET
  1

  9
$XEDIT
290
     1
  9
$CEPSNTYPE
380
     0
  9
$PSTYLEMODE
290
     1
  9
$FINGERPRINTGUID
  2
{93B9343B-DCC4-4DD7-82A7-F29C8C067DCA}
  9
$VERSIONGUID
  2
{1F5BA296-3067-4A57-BF44-6E8521DFDA74}
  9
$EXTNAMES
290
     1
  9
$PSVPSCALE
 40
0.0
  9
$OLESTARTUP
290
     0
  0
ENDSEC
  0
SECTION
  2
CLASSES
  0
CLASS
  1
ACDBDICTIONARYWDFLT
  2
AcDbDictionaryWithDefault
  3
AutoCAD 2000
 90
        0
280
     0
281
     0
  0
CLASS
  1
ACDBPLACEHOLDER
  2
AcDbPlaceHolder
  3
AutoCAD 2000
 90
        0
280
     0
281
     0
  0
CLASS
  1
LAYOUT
  2
AcDbLayout
  3
AutoCAD 2000
 90
        0
280
     0
281
     0
  0
CLASS
  1
AMGSETTINGSOBJ
  2
AmgSettingsObj
  3
"AcadM|Product Description: AutoCAD Mechanical 2000|Company: Autodesk"
 90
        0
280
     0
281
     0
  0
CLASS
  1
ACME_DOCUMENT
  2
AcMeDbDoc
  3
AcMeServices
 90
        0
280
     0
281
     0
  0
CLASS
  1
ACMESCOPE
  2
AcMeScope
  3
AcMeServices
 90
        0
280
     0
281
     0
  0
CLASS
  1
ACMECOMMANDHISTORY
  2
AcMeCommandHistory
  3
AcMeServices
 90
        0
280
     0
281
     0
  0
CLASS
  1
ACIMSYSVARMAN
  2
AcImSysVarManager
  3
AcMeServices
 90
        0
280
     0
281
     0
  0
CLASS
  1
ACIMREALSYSVAR
  2
AcImRealSysVar
  3
AcMeServices
 90
        0
280
     0
281
     0
  0
CLASS
  1
ACIMINTSYSVAR
  2
AcImIntSysVar
  3
AcMeServices
 90
        0
280
     0
281
     0
  0
CLASS
  1
ACMEDRAWINGMAN
  2
AcMeDrawingMan
  3
AcMeServices
 90
        0
280
     0
281
     0
  0
CLASS
  1
ACMEVIEW
  2
AcMeView
  3
AcMeServices
 90
        0
280
     0
281
     0
  0
CLASS
  1
ACDBENTITYCACHE
  2
AcMeEntityCache
  3
AcMeServices
 90
        0
280
     0
281
     0
  0
CLASS
  1
GSMANAGER
  2
AcMeGSManager
  3
AcMeServices
 90
        0
280
     0
281
     0
  0
CLASS
  1
AMDTINTERNALREACTOR
  2
AmdtInternalReactor
  3
AcMeServices
 90
        0
280
     0
281
     0
  0
CLASS
  1
ACMESTATEMGR
  2
AcMeStateMgr
  3
AcMeServices
 90
        0
280
     0
281
     0
  0
CLASS
  1
ACGREFMASTER
  2
AcGrefMaster
  3
AcAttribServices
 90
        0
280
     0
281
     0
  0
CLASS
  1
AM_DRAWING_MGR
  2
AcDmDwgMgr
  3
AcMechDwgViewMgmt
 90
        0
280
     0
281
     0
  0
CLASS
  1
AM_DWG_DOCUMENT
  2
AcDmDwgDocument
  3
AcMechDwgViewMgmt
 90
        0
280
     0
281
     0
  0
CLASS
  1
AM_DWG_SHEET
  2
AcDmSheet
  3
AcMechDwgViewMgmt
 90
        0
280
     0
281
     0
  0
CLASS
  1
AM_VIEWDIMPARMAP
  2
AcDmViewDimParMap
  3
AcMechDwgViewMgmt
 90
        0
280
     0
281
     0
  0
CLASS
  1
AM_DWGMGR_NAME
  2
AcDmDwgMgrName
  3
AcMechDwgViewMgmt
 90
        0
280
     0
281
     0
  0
CLASS
  1
ACME_DATABASE
  2
AcMeDbDatabase
  3
AcMeServices
 90
        0
280
     0
281
     0
  0
CLASS
  1
ACRFINSADJUSTERMGR
  2
AcRfInsAdjusterMgr
  3
AcMeServices
 90
        0
280
     0
281
     0
  0
CLASS
  1
ACGREFACADMASTER
  2
AcGrefacadMaster
  3
AcGrefServices
 90
        0
280
     0
281
     0
  0
CLASS
  1
AMDTMENUSTATEMGR
  2
AmdtMenuStateMgr
  3
McadcomServices
 90
        0
280
     0
281
     0
  0
CLASS
  1
AMDTMCOMMENUSTATE
  2
AmdtMcomMenuState
  3
McadcomServices
 90
        0
280
     0
281
     0
  0
CLASS
  1
AMIMASTER
  2
AmiMaster
  3
AmiServices
 90
        0
280
     0
281
     0
  0
CLASS
  1
ASAPP
  2
AcAsAppObject
  3
AutoSurfServices
 90
        0
280
     0
281
     0
  0
CLASS
  1
IM_STATIC_MAN
  2
AcImStaticVarManager
  3
AcMeServices
 90
        0
280
     0
281
     0
  0
CLASS
  1
ACIMSTRSYSVAR
  2
AcImStrSysVar
  3
AcMeServices
 90
        0
280
     0
281
     0
  0
CLASS
  1
ACIMDBLSTATICVAR
  2
AcImDblStaticVar
  3
AcMeServices
 90
        0
280
     0
281
     0
  0
CLASS
  1
ACIMSTRSTATICVAR
  2
AcImStrStaticVar
  3
AcMeServices
 90
        0
280
     0
281
     0
  0
CLASS
  1
ACIMINTSTATICVAR
  2
AcImIntStaticVar
  3
AcMeServices
 90
        0
280
     0
281
     0
  0
CLASS
  1
ACASGREFMASTER
  2
AcAsGrefMaster
  3
AutoSurfResolverServices
 90
        0
280
     0
281
     0
  0
CLASS
  1
ACADGREFMODULE
  2
AcAdGrefModule
  3
AdGrefServices
 90
        0
280
     0
281
     0
  0
CLASS
  1
AMDTMAPISURFMOUDULE
  2
AmdtMApiSurfModule
  3
MApiSurfServices
 90
        0
280
     0
281
     0
  0
CLASS
  1
MAPIAMMOUDLE
  2
MApiAmModule
  3
MApiAmServices
 90
        0
280
     0
281
     0
  0
CLASS
  1
AMDTADMENUSTATE
  2
AmdtAdMenuState
  3
DesignerServices
 90
        0
280
     0
281
     0
  0
CLASS
  1
ADAPPL
  2
AcAdAppl
  3
DesignerServices
 90
        0
280
     0
281
     0
  0
CLASS
  1
DEPMGR
  2
AcAdDepMgr
  3
DesignerServices
 90
        0
280
     0
281
     0
  0
CLASS
  1
PARAMMGR
  2
AcAdParamMgr
  3
DesignerServices
 90
        0
280
     0
281
     0
  0
CLASS
  1
PARAMSCOPE
  2
AcAdParamScope
  3
DesignerServices
 90
        0
280
     0
281
     0
  0
CLASS
  1
NAMEDAPPL
  2
AcAdNamedAppl
  3
DesignerServices
 90
        0
280
     0
281
     0
  0
CLASS
  1
AMDTDMMENUSTATE
  2
AmdtDmMenuState
  3
AcMechDwgViewMgmt
 90
        0
280
     0
281
     0
  0
CLASS
  1
MAPIADMODULE
  2
MApiAdModule
  3
MApiAdServices
 90
        0
280
     0
281
     0
  0
CLASS
  1
AMDTAMMENUSTATE
  2
AmdtAmMenuState
  3
DesignerAssemblies
 90
        0
280
     0
281
     0
  0
CLASS
  1
ACAMPROJECT
  2
AcAmProject
  3
DesignerAssemblies
 90
        0
280
     0
281
     0
  0
CLASS
  1
ACAMGRCOMPDEF
  2
AcAmGrCompDef
  3
DesignerAssemblies
 90
        0
280
     0
281
     0
  0
CLASS
  1
ACCMCONTEXT
  2
AcCmContext
  3
DesignerAssemblies
 90
        0
280
     0
281
     0
  0
CLASS
  1
ACAMCOMPDEF
  2
AcAmCompDef
  3
DesignerAssemblies
 90
        0
280
     0
281
     0
  0
CLASS
  1
ACAMCOMPDEFMGR
  2
AcAmCompDefMgr
  3
DesignerAssemblies
 90
        0
280
     0
281
     0
  0
CLASS
  1
AMCONTEXTMGR
  2
AcAmContextMgr
  3
DesignerAssemblies
 90
        0
280
     0
281
     0
  0
CLASS
  1
ACAMCONTEXTMODELER
  2
AcAmContextModeler
  3
DesignerAssemblies
 90
        0
280
     0
281
     0
  0
CLASS
  1
ACMDATADICTIONARY
  2
AcmDataDictionary
  3
"AcmSymBB|Product Description: AutoCAD Mechanical 2000|Company: Autodesk"
 90
        0
280
     0
281
     0
  0
CLASS
  1
ACMDATAENTRYBLOCK
  2
AcmDataEntryBlock
  3
"AcmSymBB|Product Description: AutoCAD Mechanical 2000|Company: Autodesk"
 90
        0
280
     0
281
     0
  0
CLASS
  1
CATALOGSTATE
  2
AcAmCatalogState
  3
DesignerAssemblies
 90
        0
280
     0
281
     0
  0
CLASS
  1
ACAMGRCOMPDEFSET
  2
AcAmGrCompDefSet
  3
DesignerAssemblies
 90
        0
280
     0
281
     0
  0
CLASS
  1
AMDTBROWSERDBTAB
  2
AmdtBrowserDbTab
  3
McadcomServices
 90
        0
280
     0
281
     0
  0
CLASS
  1
CBROWSERAPPOBJECT
  2
CBrowserAppObject
  3
McadcomServices
 90
        0
280
     0
281
     0
  0
CLASS
  1
DM_PLACEHOLDER
  2
AcDmSelsetPlaceholder
  3
AcMechDwgViewMgmt
 90
        0
280
     0
281
     0
  0
CLASS
  1
AMGOBJPROPCFG
  2
AmgObjPropCfg
  3
"AmgLay|Product Description: AutoCAD Mechanical 2000|Company: Autodesk"
 90
        1
280
     0
281
     0
  0
CLASS
  1
ACAMGFILTERDAT
  2
AcAmgFilterDat
  3
"AcadM|Product Description: AutoCAD Mechanical 2000|Company: Autodesk"
 90
        0
280
     0
281
     0
  0
CLASS
  1
LAYER_INDEX
  2
AcDbLayerIndex
  3
AutoCAD 2000
 90
        0
280
     0
281
     0
  0
CLASS
  1
IDBUFFER
  2
AcDbIdBuffer
  3
AutoCAD 2000
 90
        0
280
     0
281
     0
  0
CLASS
  1
DICTIONARYVAR
  2
AcDbDictionaryVar
  3
AutoCAD 2000
 90
        0
280
     0
281
     0
  0
ENDSEC
  0
SECTION
  2
TABLES
  0
TABLE
  2
VPORT
  5
155
330
0
100
AcDbSymbolTable
 70
     3
  0
VPORT
  5
354
330
155
100
AcDbSymbolTableRecord
100
AcDbViewportTableRecord
  2
*Active
 70
     0
 10
0.0
 20
0.0
 11
1.0
 21
1.0
 12
0.0
 22
0.0
 13
0.0
 23
0.0
 14
0.5
 24
0.5
 15
1.0
 25
1.0
 16
0.0
 26
0.0
 36
1.0
 17
507.2471894680694
 27
340.4979839999999
 37
0.0
 40
680.9959669999999
 41
1.489721886336154
 42
50.0
 43
0.0
 44
0.0
 50
0.0
 51
0.0
 71
     0
 72
   500
 73
     1
 74
     1
 75
     0
 76
     0
 77
     0
 78
     1
281
     0
 65
     0
110
0.0
120
0.0
130
0.0
111
1.0
121
0.0
131
0.0
112
0.0
122
1.0
132
0.0
 79
     0
146
0.0
  0
ENDTAB
  0
TABLE
  2
LTYPE
  5
152
330
0
100
AcDbSymbolTable
 70
    17
  0
LTYPE
  5
160
330
152
100
AcDbSymbolTableRecord
100
AcDbLinetypeTableRecord
  2
ByBlock
 70
     0
  3

 72
    65
 73
     0
 40
0.0
  0
LTYPE
  5
161
330
152
100
AcDbSymbolTableRecord
100
AcDbLinetypeTableRecord
  2
ByLayer
 70
     0
  3

 72
    65
 73
     0
 40
0.0
  0
LTYPE
  5
162
330
152
100
AcDbSymbolTableRecord
100
AcDbLinetypeTableRecord
  2
CONTINUOUS
 70
     0
  3
実線
 72
    65
 73
     0
 40
0.0
  0
LTYPE
  5
171
330
152
100
AcDbSymbolTableRecord
100
AcDbLinetypeTableRecord
  2
CENTER
 70
     0
  3
____ _ ____ _ ____ _ ____ _ ____ _ ____ _ ____
 72
    65
 73
     4
 40
2.0
 49
1.25
 74
     0
 49
-0.25
 74
     0
 49
0.25
 74
     0
 49
-0.25
 74
     0
  0
LTYPE
  5
172
330
152
100
AcDbSymbolTableRecord
100
AcDbLinetypeTableRecord
  2
HIDDEN
 70
     0
  3
_ _ _ _ _ _ _ _ _ _ _ _ _ _ _ _ _ _ _ _ _ _ _
 72
    65
 73
     2
 40
0.375
 49
0.25
 74
     0
 49
-0.125
 74
     0
  0
LTYPE
  5
173
330
152
100
AcDbSymbolTableRecord
100
AcDbLinetypeTableRecord
  2
TENSEN1
 70
     0
  3

 72
    65
 73
     2
 40
0.4
 49
0.3
 74
     0
 49
-0.1
 74
     0
  0
LTYPE
  5
289
330
152
100
AcDbSymbolTableRecord
100
AcDbLinetypeTableRecord
  2
PHANTOM2
 70
     0
  3
Phantom (.5x) ___ _ _ ___ _ _ ___ _ _ ___ _ _
 72
    65
 73
     6
 40
1.25
 49
0.625
 74
     0
 49
-0.125
 74
     0
 49
0.125
 74
     0
 49
-0.125
 74
     0
 49
0.125
 74
     0
 49
-0.125
 74
     0
  0
LTYPE
  5
2EB
330
152
100
AcDbSymbolTableRecord
100
AcDbLinetypeTableRecord
  2
ASULTYPE
 70
     0
  3
実線
 72
    65
 73
     2
 40
3.0
 49
2.5
 74
     0
 49
0.5
 74
     0
  0
LTYPE
  5
2EC
330
152
100
AcDbSymbolTableRecord
100
AcDbLinetypeTableRecord
  2
ASVLTYPE
 70
     0
  3
__ __ __ __ __ __ __ __ __ __ __ __ __ __ __ __ __ __ __ __ __
 72
    65
 73
     2
 40
0.75
 49
0.5
 74
     0
 49
-0.25
 74
     0
  0
LTYPE
  5
32D
330
152
100
AcDbSymbolTableRecord
100
AcDbLinetypeTableRecord
  2
AM_ISO02W050
 70
     0
  3
__ __ __ __ __ __ __ __ __ __ __ __ __ __ __
 72
    65
 73
     2
 40
7.5
 49
6.0
 74
     0
 49
-1.5
 74
     0
  0
LTYPE
  5
32E
330
152
100
AcDbSymbolTableRecord
100
AcDbLinetypeTableRecord
  2
AM_ISO08W050
 70
     0
  3
____ . ____ . ____ . ____ . ____ . ____ . ____
 72
    65
 73
     4
 40
18.0
 49
12.0
 74
     0
 49
-1.5
 74
     0
 49
3.0
 74
     0
 49
-1.5
 74
     0
  0
LTYPE
  5
32F
330
152
100
AcDbSymbolTableRecord
100
AcDbLinetypeTableRecord
  2
AM_ISO09W050
 70
     0
  3
_____ . . _____ . . _____ . . ____ .. ____
 72
    65
 73
     6
 40
22.5
 49
12.0
 74
     0
 49
-1.5
 74
     0
 49
3.0
 74
     0
 49
-1.5
 74
     0
 49
3.0
 74
     0
 49
-1.5
 74
     0
  0
LTYPE
  5
330
330
152
100
AcDbSymbolTableRecord
100
AcDbLinetypeTableRecord
  2
Amconstr
 70
     0
  3
_______________________
 72
    65
 73
     2
 40
9999.0
 49
9999.0
 74
     0
 49
0.0
 74
     0
  0
LTYPE
  5
331
330
152
100
AcDbSymbolTableRecord
100
AcDbLinetypeTableRecord
  2
AM_ISO08W050x2
 70
     0
  3
__ . __ . __ . __ . __ . __
 72
    65
 73
     4
 40
9.0
 49
6.0
 74
     0
 49
-0.75
 74
     0
 49
1.5
 74
     0
 49
-0.75
 74
     0
  0
LTYPE
  5
332
330
152
100
AcDbSymbolTableRecord
100
AcDbLinetypeTableRecord
  2
AM_ISO02W050x2
 70
     0
  3
 _ _ _ _ _ _ _ _ _ _ _ _
 72
    65
 73
     2
 40
3.75
 49
3.0
 74
     0
 49
-0.75
 74
     0
  0
LTYPE
  5
335
330
152
100
AcDbSymbolTableRecord
100
AcDbLinetypeTableRecord
  2
Amzigzag
 70
     0
  3
/\/-/\/-/\/-/\/-/\/-/\/
 72
    65
 73
     2
 40
11.00009999999999
 49
0.0001
 74
     4
 75
   135
340
334
 46
0.04
 50
0.0
 44
0.0
 45
0.0
 49
-11.0
 74
     0
  0
LTYPE
  5
336
330
152
100
AcDbSymbolTableRecord
100
AcDbLinetypeTableRecord
  2
CENTER2
 70
     0
  3
Center (.5x) ___ _ ___ _ ___ _ ___ _ ___ _ ___
 72
    65
 73
     4
 40
1.125
 49
0.75
 74
     0
 49
-0.125
 74
     0
 49
0.125
 74
     0
 49
-0.125
 74
     0
  0
LTYPE
  5
337
330
152
100
AcDbSymbolTableRecord
100
AcDbLinetypeTableRecord
  2
HIDDEN2
 70
     0
  3
Hidden (.5x) _ _ _ _ _ _ _ _ _ _ _ _ _ _ _ _ _
 72
    65
 73
     2
 40
0.1875
 49
0.125
 74
     0
 49
-0.0625
 74
     0
  0
LTYPE
  5
338
330
152
100
AcDbSymbolTableRecord
100
AcDbLinetypeTableRecord
  2
Amzigzag2
 70
     0
  3
/\/-/\/-/\/-/\/-/\/-/\/
 72
    65
 73
     2
 40
0.4401
 49
0.0001
 74
     4
 75
   135
340
334
 46
0.0016
 50
0.0
 44
0.0
 45
0.0
 49
-0.4400000000000001
 74
     0
  0
ENDTAB
  0
TABLE
  2
LAYER
  5
14F
330
0
100
AcDbSymbolTable
 70
     6
  0
LAYER
  5
15D
330
14F
100
AcDbSymbolTableRecord
100
AcDbLayerTableRecord
  2
0
 70
     0
 62
     7
  6
CONTINUOUS
370
    -3
390
15C
  0
LAYER
  5
174
330
14F
100
AcDbSymbolTableRecord
100
AcDbLayerTableRecord
  2
1
 70
     0
 62
     1
  6
CENTER
370
    -3
390
15C
  0
LAYER
  5
175
330
14F
100
AcDbSymbolTableRecord
100
AcDbLayerTableRecord
  2
4
 70
     0
 62
     2
  6
TENSEN1
370
    -3
390
15C
  0
LAYER
  5
176
330
14F
100
AcDbSymbolTableRecord
100
AcDbLayerTableRecord
  2
10
 70
     0
 62
     7
  6
CONTINUOUS
370
    -3
390
15C
  0
LAYER
  5
177
330
14F
100
AcDbSymbolTableRecord
100
AcDbLayerTableRecord
  2
11
 70
     0
 62
     3
  6
CONTINUOUS
370
    -3
390
15C
  0
LAYER
  5
178
330
14F
100
AcDbSymbolTableRecord
100
AcDbLayerTableRecord
  2
2
 70
     0
 62
     2
  6
HIDDEN
370
    -3
390
15C
  0
ENDTAB
  0
TABLE
  2
STYLE
  5
150
330
0
100
AcDbSymbolTable
 70
     6
  0
STYLE
  5
15E
330
150
100
AcDbSymbolTableRecord
100
AcDbTextStyleTableRecord
  2
STANDARD
 70
     0
 40
0.0
 41
1.0
 50
0.0
 71
     0
 42
0.2
  3
TXT
  4
BIGFONT
  0
STYLE
  5
16F
330
150
100
AcDbSymbolTableRecord
100
AcDbTextStyleTableRecord
  2
BIGFONT
 70
     0
 40
10.0
 41
1.0
 50
0.0
 71
     0
 42
10.0
  3

  4
bigfont
  0
STYLE
  5
179
330
150
100
AcDbSymbolTableRecord
100
AcDbTextStyleTableRecord
  2
K80
 70
     0
 40
0.0
 41
0.8
 50
0.0
 71
     0
 42
0.2
  3
TXT
  4
BIGFONT
  0
STYLE
  5
17A
330
150
100
AcDbSymbolTableRecord
100
AcDbTextStyleTableRecord
  2
07500
 70
     0
 40
0.0
 41
0.75
 50
0.0
 71
     0
 42
0.2
  3
TXT
  4
BIGFONT
  0
STYLE
  5
17B
330
150
100
AcDbSymbolTableRecord
100
AcDbTextStyleTableRecord
  2
EXTFONT
 70
     0
 40
2.2
 41
1.5
 50
0.0
 71
     0
 42
2.2
  3

  4
extfont
  0
STYLE
  5
334
330
150
100
AcDbSymbolTableRecord
100
AcDbTextStyleTableRecord
  2

 70
     1
 40
0.0
 41
1.0
 50
0.0
 71
     0
 42
10.0
  3
ltypeshp.shx
  4

  0
ENDTAB
  0
TABLE
  2
VIEW
  5
153
330
0
100
AcDbSymbolTable
 70
     1
  0
VIEW
  5
17C
330
153
100
AcDbSymbolTableRecord
100
AcDbViewTableRecord
  2
ALL
 70
     0
 40
540.0
 10
441.9831929999999
 20
270.0
 41
0.0
 11
0.0
 21
0.0
 31
1.0
 12
0.0
 22
0.0
 32
0.0
 42
0.0
 43
0.0
 44
0.0
 50
0.0
 71
     0
281
     0
 72
     0
  0
ENDTAB
  0
TABLE
  2
UCS
  5
154
330
0
100
AcDbSymbolTable
 70
     0
  0
ENDTAB
  0
TABLE
  2
APPID
  5
156
330
0
100
AcDbSymbolTable
 70
    12
  0
APPID
  5
15F
330
156
100
AcDbSymbolTableRecord
100
AcDbRegAppTableRecord
  2
ACAD
 70
     0
  0
APPID
  5
268
330
156
100
AcDbSymbolTableRecord
100
AcDbRegAppTableRecord
  2
GENIUS_GENDIM_13
 70
     0
  0
APPID
  5
269
330
156
100
AcDbSymbolTableRecord
100
AcDbRegAppTableRecord
  2
GENIUS_GENDTOL_13
 70
     0
  0
APPID
  5
26A
330
156
100
AcDbSymbolTableRecord
100
AcDbRegAppTableRecord
  2
GENIUS_GE3DTOL_13
 70
     0
  0
APPID
  5
26C
330
156
100
AcDbSymbolTableRecord
100
AcDbRegAppTableRecord
  2
MCAD_NO_VIS
 70
     0
  0
APPID
  5
26D
330
156
100
AcDbSymbolTableRecord
100
AcDbRegAppTableRecord
  2
ACAD_TEMP_GRAPHIC
 70
     0
  0
APPID
  5
29E
330
156
100
AcDbSymbolTableRecord
100
AcDbRegAppTableRecord
  2
AD_DRAW
 70
     0
  0
APPID
  5
2A1
330
156
100
AcDbSymbolTableRecord
100
AcDbRegAppTableRecord
  2
ACATTRIBSERVICES
 70
     0
  0
APPID
  5
2ED
330
156
100
AcDbSymbolTableRecord
100
AcDbRegAppTableRecord
  2
ASURF_PCURVE_APPNAME
 70
     0
  0
APPID
  5
31C
330
156
100
AcDbSymbolTableRecord
100
AcDbRegAppTableRecord
  2
DESIGNERASSEMBLIES
 70
     0
  0
APPID
  5
324
330
156
100
AcDbSymbolTableRecord
100
AcDbRegAppTableRecord
  2
ACADM_DIM_EDIT
 70
     0
  0
APPID
  5
325
330
156
100
AcDbSymbolTableRecord
100
AcDbRegAppTableRecord
  2
AMDT_DM_ADJ
 70
     0
  0
ENDTAB
  0
TABLE
  2
DIMSTYLE
  5
157
330
0
100
AcDbSymbolTable
 70
     1
100
AcDbDimStyleTable
 71
     1
340
17D
  0
DIMSTYLE
105
17D
330
157
100
AcDbSymbolTableRecord
100
AcDbDimStyleTableRecord
  2
STANDARD
 70
     0
279
     2
340
16F
  0
ENDTAB
  0
TABLE
  2
BLOCK_RECORD
  5
14E
330
0
100
AcDbSymbolTable
 70
     4
  0
BLOCK_RECORD
  5
16B
102
{ACAD_XDICTIONARY
360
348
102
}
330
14E
100
AcDbSymbolTableRecord
100
AcDbBlockTableRecord
  2
*Model_Space
340
16E
  0
BLOCK_RECORD
  5
167
330
14E
100
AcDbSymbolTableRecord
100
AcDbBlockTableRecord
  2
*Paper_Space
340
16A
  0
BLOCK_RECORD
  5
181
330
14E
100
AcDbSymbolTableRecord
100
AcDbBlockTableRecord
  2
$MODEL_SPACE
340
0
  0
BLOCK_RECORD
  5
184
330
14E
100
AcDbSymbolTableRecord
100
AcDbBlockTableRecord
  2
$PAPER_SPACE
340
0
  0
BLOCK_RECORD
  5
187
330
14E
100
AcDbSymbolTableRecord
100
AcDbBlockTableRecord
  2
QQ
340
0
102
{BLKREFS
331
193
102
}
  0
BLOCK_RECORD
  5
313
330
14E
100
AcDbSymbolTableRecord
100
AcDbBlockTableRecord
  2
*U3
340
0
  0
ENDTAB
  0
ENDSEC
  0
SECTION
  2
BLOCKS
  0
BLOCK
  5
16C
330
16B
100
AcDbEntity
  8
0
100
AcDbBlockBegin
  2
*Model_Space
 70
     0
 10
0.0
 20
0.0
 30
0.0
  3
*Model_Space
  1

  0
ENDBLK
  5
16D
330
16B
100
AcDbEntity
  8
0
100
AcDbBlockEnd
  0
BLOCK
  5
168
330
167
100
AcDbEntity
 67
     1
  8
0
100
AcDbBlockBegin
  2
*Paper_Space
 70
     0
 10
0.0
 20
0.0
 30
0.0
  3
*Paper_Space
  1

  0
ENDBLK
  5
169
330
167
100
AcDbEntity
 67
     1
  8
0
100
AcDbBlockEnd
  0
BLOCK
  5
182
330
181
100
AcDbEntity
  8
0
100
AcDbBlockBegin
  2
$MODEL_SPACE
 70
     0
 10
0.0
 20
0.0
 30
0.0
  3
$MODEL_SPACE
  1

  0
ENDBLK
  5
183
330
181
100
AcDbEntity
  8
0
100
AcDbBlockEnd
  0
BLOCK
  5
185
330
184
100
AcDbEntity
  8
0
100
AcDbBlockBegin
  2
$PAPER_SPACE
 70
     0
 10
0.0
 20
0.0
 30
0.0
  3
$PAPER_SPACE
  1

  0
ENDBLK
  5
186
330
184
100
AcDbEntity
  8
0
100
AcDbBlockEnd
  0
BLOCK
  5
188
330
187
100
AcDbEntity
  8
0
100
AcDbBlockBegin
  2
QQ
 70
     0
 10
270.0
 20
0.0
 30
0.0
  3
QQ
  1

  0
LINE
  5
189
330
187
100
AcDbEntity
  8
11
100
AcDbLine
 10
173.0
 20
36.0
 30
0.0
 11
270.0
 21
36.0
 31
0.0
  0
TEXT
  5
18A
330
187
100
AcDbEntity
  8
11
100
AcDbText
 10
175.0
 20
32.5
 30
0.0
 40
2.5
  1
部品名称
100
AcDbText
  0
LINE
  5
18B
330
187
100
AcDbEntity
  8
11
100
AcDbLine
 10
173.0
 20
36.0
 30
0.0
 11
173.0
 21
0.0
 31
0.0
  0
LINE
  5
18C
330
187
100
AcDbEntity
  8
11
100
AcDbLine
 10
173.0
 20
24.0
 30
0.0
 11
270.0
 21
24.0
 31
0.0
  0
TEXT
  5
18D
330
187
100
AcDbEntity
  8
11
100
AcDbText
 10
175.0
 20
20.5
 30
0.0
 40
2.5
  1
品番
100
AcDbText
  0
LINE
  5
18E
330
187
100
AcDbEntity
  8
11
100
AcDbLine
 10
173.0
 20
12.0
 30
0.0
 11
270.0
 21
12.0
 31
0.0
  0
TEXT
  5
18F
330
187
100
AcDbEntity
  8
11
100
AcDbText
 10
175.0
 20
8.5
 30
0.0
 40
2.5
  1
尺度
100
AcDbText
  0
TEXT
  5
190
330
187
100
AcDbEntity
  8
11
100
AcDbText
 10
200.0
 20
8.5
 30
0.0
 40
2.5
  1
図番
100
AcDbText
  0
LINE
  5
191
330
187
100
AcDbEntity
  8
11
100
AcDbLine
 10
198.0
 20
0.0
 30
0.0
 11
198.0
 21
12.0
 31
0.0
  0
ENDBLK
  5
192
330
187
100
AcDbEntity
  8
0
100
AcDbBlockEnd
  0
BLOCK
  5
314
330
313
100
AcDbEntity
  8
0
100
AcDbBlockBegin
  2
*U3
 70
     1
 10
0.0
 20
0.0
 30
0.0
  3
*U3
  1

  0
ENDBLK
  5
315
330
313
100
AcDbEntity
  8
0
100
AcDbBlockEnd
  0
ENDSEC
  0
SECTION
  2
ENTITIES
  0
TEXT
  5
199
330
16B
100
AcDbEntity
  8
11
100
AcDbText
 10
562.7384359999999
 20
51.537162
 30
0.0
 40
10.0
  1
ダイアル・インジケーター
  7
BIGFONT
100
AcDbText
  0
LINE
  5
19A
330
16B
100
AcDbEntity
  8
0
100
AcDbLine
 10
205.5
 20
289.0
 30
0.0
 11
205.5
 21
276.9581749999999
 31
0.0
  0
LINE
  5
19B
330
16B
100
AcDbEntity
  8
0
100
AcDbLine
 10
218.0
 20
273.4999999999999
 30
0.0
 11
208.959866
 21
273.4999999999999
 31
0.0
  0
LINE
  5
19C
330
16B
100
AcDbEntity
  8
0
100
AcDbLine
 10
206.4999999999999
 20
276.9581749999999
 30
0.0
 11
206.4999999999999
 21
289.0
 31
0.0
  0
LINE
  5
19D
330
16B
100
AcDbEntity
  8
0
100
AcDbLine
 10
205.50002
 20
276.957403
 30
0.0
 11
205.50002
 21
276.9582189999999
 31
0.0
  0
LINE
  5
19E
330
16B
100
AcDbEntity
  8
0
100
AcDbLine
 10
208.959866
 20
274.5
 30
0.0
 11
218.0
 21
274.5
 31
0.0
  0
LINE
  5
19F
330
16B
100
AcDbEntity
  8
0
100
AcDbLine
 10
208.95755
 20
274.499994
 30
0.0
 11
208.9599339999999
 21
274.499994
 31
0.0
  0
ARC
  5
1A0
330
16B
100
AcDbEntity
  8
0
100
AcDbCircle
 10
206.0
 20
274.0
 30
0.0
 40
3.0
100
AcDbArc
 50
99.616567
 51
80.4272
  0
TEXT
  5
1A1
330
16B
100
AcDbEntity
  8
0
100
AcDbText
 10
196.63935
 20
284.051877
 30
0.0
 40
2.2
  1
Ｍ
 41
1.5
  7
EXTFONT
100
AcDbText
  0
TEXT
  5
1A2
330
16B
100
AcDbEntity
  8
0
100
AcDbText
 10
199.3473089999999
 20
283.9494439999999
 30
0.0
 40
2.2
  1
Ｉ
 41
1.5
  7
EXTFONT
100
AcDbText
  0
TEXT
  5
1A3
330
16B
100
AcDbEntity
  8
0
100
AcDbText
 10
201.7543859999999
 20
284.0906939999999
 30
0.0
 40
2.2
  1
Ｙ
 41
1.5
  7
EXTFONT
100
AcDbText
  0
TEXT
  5
1A4
330
16B
100
AcDbEntity
  8
0
100
AcDbText
 10
207.4711889999999
 20
284.072519
 30
0.0
 40
2.2
  1
Ｓ
 41
1.5
  7
EXTFONT
100
AcDbText
  0
TEXT
  5
1A5
330
16B
100
AcDbEntity
  8
0
100
AcDbText
 10
210.404814
 20
284.1245779999999
 30
0.0
 40
2.2
  1
Ｈ
 41
1.5
  7
EXTFONT
100
AcDbText
  0
TEXT
  5
1A6
330
16B
100
AcDbEntity
  8
0
100
AcDbText
 10
212.661449
 20
284.0312349999999
 30
0.0
 40
2.2
  1
Ｉ
 41
1.5
  7
EXTFONT
100
AcDbText
  0
TEXT
  5
1A7
330
16B
100
AcDbEntity
  8
0
100
AcDbText
 10
193.7101509999999
 20
262.9666379999999
 30
0.0
 40
2.2
  1
Ｍ
 41
1.5
  7
EXTFONT
100
AcDbText
  0
TEXT
  5
1A8
330
16B
100
AcDbEntity
  8
0
100
AcDbText
 10
196.718995
 20
262.957549
 30
0.0
 40
2.2
  1
Ｄ
 41
1.5
  7
EXTFONT
100
AcDbText
  0
TEXT
  5
1A9
330
16B
100
AcDbEntity
  8
0
100
AcDbText
 10
208.980037
 20
262.996369
 30
0.0
 40
2.2
  1
１
 41
1.5
  7
EXTFONT
100
AcDbText
  0
TEXT
  5
1AA
330
16B
100
AcDbEntity
  8
0
100
AcDbText
 10
211.1614519999999
 20
262.98728
 30
0.0
 40
2.2
  1
／
 41
1.5
  7
EXTFONT
100
AcDbText
  0
TEXT
  5
1AB
330
16B
100
AcDbEntity
  8
0
100
AcDbText
 10
217.211217
 20
262.978193
 30
0.0
 40
2.2
  1
２
 41
1.5
  7
EXTFONT
100
AcDbText
  0
LINE
  5
1AC
330
16B
100
AcDbEntity
  8
0
100
AcDbLine
 10
206.8999999999999
 20
285.8
 30
0.0
 11
206.8999999999999
 21
284.6
 31
0.0
  0
LINE
  5
1AD
330
16B
100
AcDbEntity
  8
0
100
AcDbLine
 10
205.1
 20
284.6
 30
0.0
 11
205.1
 21
285.8
 31
0.0
  0
ARC
  5
1AE
330
16B
100
AcDbEntity
  8
0
100
AcDbCircle
 10
206.0
 20
284.6
 30
0.0
 40
1.5
100
AcDbArc
 50
53.130102
 51
70.493676
  0
ARC
  5
1AF
330
16B
100
AcDbEntity
  8
0
100
AcDbCircle
 10
206.0
 20
285.8
 30
0.0
 40
1.5
100
AcDbArc
 50
233.130102
 51
250.471096
  0
ARC
  5
1B0
330
16B
100
AcDbEntity
  8
0
100
AcDbCircle
 10
206.0
 20
284.6
 30
0.0
 40
1.5
100
AcDbArc
 50
109.401667
 51
126.869898
  0
ARC
  5
1B1
330
16B
100
AcDbEntity
  8
0
100
AcDbCircle
 10
206.0
 20
285.8
 30
0.0
 40
1.5
100
AcDbArc
 50
289.5790169999999
 51
306.8698979999999
  0
TEXT
  5
1B2
330
16B
100
AcDbEntity
  8
11
100
AcDbText
 10
644.890034
 20
26.908781
 30
0.0
 40
10.0
  1
１／１２
  7
BIGFONT
100
AcDbText
  0
TEXT
  5
1B3
330
16B
100
AcDbEntity
  8
0
100
AcDbText
 10
214.4846299999999
 20
293.181821
 30
0.0
 40
2.2
  1
１
 41
1.5
  7
EXTFONT
100
AcDbText
  0
TEXT
  5
1B4
330
16B
100
AcDbEntity
  8
0
100
AcDbText
 10
184.9025819999999
 20
284.0896189999999
 30
0.0
 40
2.2
  1
２
 41
1.5
  7
EXTFONT
100
AcDbText
  0
TEXT
  5
1B5
330
16B
100
AcDbEntity
  8
0
100
AcDbText
 10
178.924802
 20
272.681573
 30
0.0
 40
2.2
  1
３
 41
1.5
  7
EXTFONT
100
AcDbText
  0
TEXT
  5
1B6
330
16B
100
AcDbEntity
  8
0
100
AcDbText
 10
184.6679629999999
 20
261.665661
 30
0.0
 40
2.2
  1
４
 41
1.5
  7
EXTFONT
100
AcDbText
  0
TEXT
  5
1B7
330
16B
100
AcDbEntity
  8
0
100
AcDbText
 10
193.487422
 20
252.946349
 30
0.0
 40
2.2
  1
５
 41
1.5
  7
EXTFONT
100
AcDbText
  0
TEXT
  5
1B8
330
16B
100
AcDbEntity
  8
0
100
AcDbText
 10
204.5841489999999
 20
250.6345419999999
 30
0.0
 40
2.2
  1
６
 41
1.5
  7
EXTFONT
100
AcDbText
  0
TEXT
  5
1B9
330
16B
100
AcDbEntity
  8
0
100
AcDbText
 10
216.196039
 20
253.0892499999999
 30
0.0
 40
2.2
  1
７
 41
1.5
  7
EXTFONT
100
AcDbText
  0
TEXT
  5
1BA
330
16B
100
AcDbEntity
  8
0
100
AcDbText
 10
224.8455379999999
 20
261.825872
 30
0.0
 40
2.2
  1
８
 41
1.5
  7
EXTFONT
100
AcDbText
  0
TEXT
  5
1BB
330
16B
100
AcDbEntity
  8
0
100
AcDbText
 10
227.790866
 20
272.844473
 30
0.0
 40
2.2
  1
９
 41
1.5
  7
EXTFONT
100
AcDbText
  0
TEXT
  5
1BC
330
16B
100
AcDbEntity
  8
0
100
AcDbText
 10
222.576665
 20
284.2536549999999
 30
0.0
 40
2.2
  1
１
 41
1.5
  7
EXTFONT
100
AcDbText
  0
TEXT
  5
1BD
330
16B
100
AcDbEntity
  8
0
100
AcDbText
 10
224.2978359999999
 20
284.239204
 30
0.0
 40
2.2
  1
０
 41
1.5
  7
EXTFONT
100
AcDbText
  0
TEXT
  5
1BE
330
16B
100
AcDbEntity
  8
0
100
AcDbText
 10
193.137836
 20
293.25705
 30
0.0
 40
2.2
  1
１
 41
1.5
  7
EXTFONT
100
AcDbText
  0
TEXT
  5
1BF
330
16B
100
AcDbEntity
  8
0
100
AcDbText
 10
216.0116919999999
 20
293.227191
 30
0.0
 40
2.2
  1
１
 41
1.5
  7
EXTFONT
100
AcDbText
  0
LINE
  5
1C0
330
16B
100
AcDbEntity
  8
1
100
AcDbLine
 10
206.0
 20
274.0
 30
0.0
 11
246.0
 21
274.0
 31
0.0
  0
LINE
  5
1C1
330
16B
100
AcDbEntity
  8
1
100
AcDbLine
 10
206.0
 20
274.0
 30
0.0
 11
166.0
 21
274.0
 31
0.0
  0
LINE
  5
1C2
330
16B
100
AcDbEntity
  8
1
100
AcDbLine
 10
206.0
 20
274.0
 30
0.0
 11
206.0
 21
314.0
 31
0.0
  0
CIRCLE
  5
1C4
330
16B
100
AcDbEntity
  8
0
100
AcDbCircle
 10
206.0
 20
274.0
 30
0.0
 40
31.5
  0
LINE
  5
1C5
330
16B
100
AcDbEntity
  8
1
100
AcDbLine
 10
206.0
 20
274.0
 30
0.0
 11
206.0
 21
234.0
 31
0.0
  0
LINE
  5
1C6
330
16B
100
AcDbEntity
  8
11
100
AcDbLine
 10
231.0
 20
274.0
 30
0.0
 11
237.5
 21
274.0
 31
0.0
  0
LINE
  5
1C7
330
16B
100
AcDbEntity
  8
11
100
AcDbLine
 10
180.0
 20
281.0
 30
0.0
 11
175.5
 21
282.0
 31
0.0
  0
LINE
  5
1C8
330
16B
100
AcDbEntity
  8
11
100
AcDbLine
 10
212.7964809999999
 20
299.911583
 30
0.0
 11
214.0
 21
304.4999999999999
 31
0.0
  0
LINE
  5
1C9
330
16B
100
AcDbEntity
  8
11
100
AcDbLine
 10
218.225712
 20
295.690779
 30
0.0
 11
221.4999999999999
 21
301.5
 31
0.0
  0
LINE
  5
1CA
330
16B
100
AcDbEntity
  8
11
100
AcDbLine
 10
225.078206
 20
293.078206
 30
0.0
 11
228.0
 21
296.0
 31
0.0
  0
LINE
  5
1CB
330
16B
100
AcDbEntity
  8
11
100
AcDbLine
 10
227.780731
 20
286.5037529999999
 30
0.0
 11
233.0
 21
289.4999999999999
 31
0.0
  0
LINE
  5
1CC
330
16B
100
AcDbEntity
  8
11
100
AcDbLine
 10
232.0918559999999
 20
280.843766
 30
0.0
 11
236.5
 21
282.0
 31
0.0
  0
LINE
  5
1CD
330
16B
100
AcDbEntity
  8
11
100
AcDbLine
 10
232.100198
 20
267.154047
 30
0.0
 11
236.5
 21
266.0
 31
0.0
  0
LINE
  5
1CE
330
16B
100
AcDbEntity
  8
11
100
AcDbLine
 10
227.7954069999999
 20
261.487822
 30
0.0
 11
233.0
 21
258.4999999999999
 31
0.0
  0
LINE
  5
1CF
330
16B
100
AcDbEntity
  8
11
100
AcDbLine
 10
225.258585
 20
254.7414149999999
 30
0.0
 11
228.0
 21
252.0
 31
0.0
  0
LINE
  5
1D0
330
16B
100
AcDbEntity
  8
11
100
AcDbLine
 10
218.546593
 20
252.435542
 30
0.0
 11
222.0
 21
246.4999999999999
 31
0.0
  0
LINE
  5
1D1
330
16B
100
AcDbEntity
  8
11
100
AcDbLine
 10
212.844904
 20
247.903802
 30
0.0
 11
214.0
 21
243.5
 31
0.0
  0
LINE
  5
1D2
330
16B
100
AcDbEntity
  8
11
100
AcDbLine
 10
199.1075179999999
 20
247.7224109999999
 30
0.0
 11
198.0
 21
243.5
 31
0.0
  0
LINE
  5
1D3
330
16B
100
AcDbEntity
  8
11
100
AcDbLine
 10
193.661812
 20
252.1096669999999
 30
0.0
 11
190.5
 21
246.4999999999999
 31
0.0
  0
LINE
  5
1D4
330
16B
100
AcDbEntity
  8
11
100
AcDbLine
 10
186.846575
 20
254.846575
 30
0.0
 11
184.0
 21
252.0
 31
0.0
  0
LINE
  5
1D5
330
16B
100
AcDbEntity
  8
11
100
AcDbLine
 10
184.3361899999999
 20
261.789489
 30
0.0
 11
178.5
 21
258.4999999999999
 31
0.0
  0
LINE
  5
1D6
330
16B
100
AcDbEntity
  8
11
100
AcDbLine
 10
179.9437669999999
 20
267.165578
 30
0.0
 11
175.5
 21
266.0
 31
0.0
  0
LINE
  5
1D7
330
16B
100
AcDbEntity
  8
11
100
AcDbLine
 10
184.296555
 20
286.2328509999999
 30
0.0
 11
178.5
 21
289.4999999999999
 31
0.0
  0
LINE
  5
1D8
330
16B
100
AcDbEntity
  8
11
100
AcDbLine
 10
186.7302229999999
 20
292.84156
 30
0.0
 11
183.4999999999999
 21
296.0
 31
0.0
  0
LINE
  5
1D9
330
16B
100
AcDbEntity
  8
11
100
AcDbLine
 10
193.7856179999999
 20
295.6706779999999
 30
0.0
 11
190.5
 21
301.5
 31
0.0
  0
LINE
  5
1DA
330
16B
100
AcDbEntity
  8
11
100
AcDbLine
 10
199.1559409999999
 20
300.092975
 30
0.0
 11
198.0
 21
304.4999999999999
 31
0.0
  0
LINE
  5
1DB
330
16B
100
AcDbEntity
  8
11
100
AcDbLine
 10
206.0
 20
297.5
 30
0.0
 11
206.0
 21
305.5
 31
0.0
  0
LINE
  5
1DC
330
16B
100
AcDbEntity
  8
11
100
AcDbLine
 10
206.0
 20
250.0
 30
0.0
 11
206.0
 21
242.5
 31
0.0
  0
TEXT
  5
1DD
330
16B
100
AcDbEntity
  8
0
100
AcDbText
 10
199.681038
 20
262.8749009999999
 30
0.0
 40
2.2
  1
７
 41
1.5
  7
EXTFONT
100
AcDbText
  0
TEXT
  5
1DE
330
16B
100
AcDbEntity
  8
0
100
AcDbText
 10
202.2717819999999
 20
262.93641
 30
0.0
 40
2.2
  1
５
 41
1.5
  7
EXTFONT
100
AcDbText
  0
TEXT
  5
1DF
330
16B
100
AcDbEntity
  8
0
100
AcDbText
 10
213.873793
 20
262.997915
 30
0.0
 40
2.2
  1
１
 41
1.5
  7
EXTFONT
100
AcDbText
  0
LINE
  5
1E0
330
16B
100
AcDbEntity
  8
0
100
AcDbLine
 10
205.5
 20
289.0
 30
0.0
 11
205.5
 21
299.0
 31
0.0
  0
LINE
  5
1E1
330
16B
100
AcDbEntity
  8
0
100
AcDbLine
 10
205.5
 20
299.0
 30
0.0
 11
206.4999999999999
 21
299.0
 31
0.0
  0
LINE
  5
1E2
330
16B
100
AcDbEntity
  8
0
100
AcDbLine
 10
206.4999999999999
 20
299.0
 30
0.0
 11
206.4999999999999
 21
289.0
 31
0.0
  0
LINE
  5
1E3
330
16B
100
AcDbEntity
  8
0
100
AcDbLine
 10
218.0
 20
274.5
 30
0.0
 11
227.0
 21
274.5
 31
0.0
  0
LINE
  5
1E4
330
16B
100
AcDbEntity
  8
0
100
AcDbLine
 10
227.0
 20
274.5
 30
0.0
 11
227.0
 21
273.4999999999999
 31
0.0
  0
LINE
  5
1E5
330
16B
100
AcDbEntity
  8
0
100
AcDbLine
 10
227.0
 20
273.4999999999999
 30
0.0
 11
218.0
 21
273.4999999999999
 31
0.0
  0
LINE
  5
1E6
330
16B
100
AcDbEntity
  8
1
100
AcDbLine
 10
501.0
 20
274.0
 30
0.0
 11
586.0
 21
274.0
 31
0.0
  0
LINE
  5
1E7
330
16B
100
AcDbEntity
  8
1
100
AcDbLine
 10
544.0
 20
314.5
 30
0.0
 11
544.0
 21
233.0
 31
0.0
  0
LINE
  5
1E8
330
16B
100
AcDbEntity
  8
1
100
AcDbLine
 10
198.5
 20
308.4999999999999
 30
0.0
 11
214.0
 21
308.4999999999999
 31
0.0
  0
CIRCLE
  5
1E9
330
16B
100
AcDbEntity
  8
0
100
AcDbCircle
 10
206.0
 20
308.4999999999999
 30
0.0
 40
2.5
  0
LINE
  5
1EA
330
16B
100
AcDbEntity
  8
0
100
AcDbLine
 10
205.5
 20
310.0
 30
0.0
 11
206.4999999999999
 21
310.0
 31
0.0
  0
LINE
  5
1EB
330
16B
100
AcDbEntity
  8
0
100
AcDbLine
 10
206.4999999999999
 20
310.0
 30
0.0
 11
206.4999999999999
 21
309.0
 31
0.0
  0
LINE
  5
1EC
330
16B
100
AcDbEntity
  8
0
100
AcDbLine
 10
206.4999999999999
 20
309.0
 30
0.0
 11
207.5
 21
309.0
 31
0.0
  0
LINE
  5
1ED
330
16B
100
AcDbEntity
  8
0
100
AcDbLine
 10
207.5
 20
309.0
 30
0.0
 11
207.5
 21
308.0
 31
0.0
  0
LINE
  5
1EE
330
16B
100
AcDbEntity
  8
0
100
AcDbLine
 10
207.5
 20
308.0
 30
0.0
 11
206.4999999999999
 21
308.0
 31
0.0
  0
LINE
  5
1EF
330
16B
100
AcDbEntity
  8
0
100
AcDbLine
 10
206.4999999999999
 20
308.0
 30
0.0
 11
206.4999999999999
 21
307.0
 31
0.0
  0
LINE
  5
1F0
330
16B
100
AcDbEntity
  8
0
100
AcDbLine
 10
206.4999999999999
 20
307.0
 30
0.0
 11
205.5
 21
307.0
 31
0.0
  0
LINE
  5
1F1
330
16B
100
AcDbEntity
  8
0
100
AcDbLine
 10
205.5
 20
307.0
 30
0.0
 11
205.5
 21
308.0
 31
0.0
  0
LINE
  5
1F2
330
16B
100
AcDbEntity
  8
0
100
AcDbLine
 10
205.5
 20
308.0
 30
0.0
 11
204.4999999999999
 21
308.0
 31
0.0
  0
LINE
  5
1F3
330
16B
100
AcDbEntity
  8
0
100
AcDbLine
 10
204.4999999999999
 20
308.0
 30
0.0
 11
204.4999999999999
 21
309.0
 31
0.0
  0
LINE
  5
1F4
330
16B
100
AcDbEntity
  8
0
100
AcDbLine
 10
204.4999999999999
 20
309.0
 30
0.0
 11
205.5
 21
309.0
 31
0.0
  0
LINE
  5
1F5
330
16B
100
AcDbEntity
  8
0
100
AcDbLine
 10
205.5
 20
309.0
 30
0.0
 11
205.5
 21
310.0
 31
0.0
  0
CIRCLE
  5
1F7
330
16B
100
AcDbEntity
  8
0
100
AcDbCircle
 10
544.0
 20
274.0
 30
0.0
 40
36.5
  0
CIRCLE
  5
1F8
330
16B
100
AcDbEntity
  8
0
100
AcDbCircle
 10
544.0
 20
274.0
 30
0.0
 40
33.5
  0
CIRCLE
  5
1F9
330
16B
100
AcDbEntity
  8
0
100
AcDbCircle
 10
544.0
 20
274.0
 30
0.0
 40
4.5
  0
POLYLINE
  5
1FA
330
16B
100
AcDbEntity
  8
0
100
AcDb2dPolyline
 66
     1
 10
0.0
 20
0.0
 30
0.0
 70
   129
  0
VERTEX
  5
1FB
330
1FA
100
AcDbEntity
  8
0
100
AcDbVertex
100
AcDb2dVertex
 10
544.0
 20
278.0
 30
0.0
  0
VERTEX
  5
1FC
330
1FA
100
AcDbEntity
  8
0
100
AcDbVertex
100
AcDb2dVertex
 10
540.535898
 20
276.0
 30
0.0
  0
VERTEX
  5
1FD
330
1FA
100
AcDbEntity
  8
0
100
AcDbVertex
100
AcDb2dVertex
 10
540.535898
 20
272.0
 30
0.0
  0
VERTEX
  5
1FE
330
1FA
100
AcDbEntity
  8
0
100
AcDbVertex
100
AcDb2dVertex
 10
544.0
 20
270.0
 30
0.0
  0
VERTEX
  5
1FF
330
1FA
100
AcDbEntity
  8
0
100
AcDbVertex
100
AcDb2dVertex
 10
547.4641019999999
 20
272.0
 30
0.0
  0
VERTEX
  5
200
330
1FA
100
AcDbEntity
  8
0
100
AcDbVertex
100
AcDb2dVertex
 10
547.4641019999999
 20
276.0
 30
0.0
  0
SEQEND
  5
201
330
1FA
100
AcDbEntity
  8
0
  0
CIRCLE
  5
202
330
16B
100
AcDbEntity
  8
0
100
AcDbCircle
 10
544.0
 20
274.0
 30
0.0
 40
3.390233999999999
  0
CIRCLE
  5
203
330
16B
100
AcDbEntity
  8
0
100
AcDbCircle
 10
544.0
 20
274.0
 30
0.0
 40
2.0
  0
CIRCLE
  5
204
330
16B
100
AcDbEntity
  8
0
100
AcDbCircle
 10
544.0
 20
274.0
 30
0.0
 40
1.5
  0
LINE
  5
205
330
16B
100
AcDbEntity
  8
1
100
AcDbLine
 10
359.4947129999999
 20
274.0
 30
0.0
 11
403.4947129999999
 21
274.0
 31
0.0
  0
LINE
  5
206
330
16B
100
AcDbEntity
  8
0
100
AcDbLine
 10
364.4947129999999
 20
310.8
 30
0.0
 11
364.4947129999999
 21
237.1999999999999
 31
0.0
  0
LINE
  5
207
330
16B
100
AcDbEntity
  8
0
100
AcDbLine
 10
365.494713
 20
236.2
 30
0.0
 11
382.4947129999999
 21
236.2
 31
0.0
  0
LINE
  5
208
330
16B
100
AcDbEntity
  8
0
100
AcDbLine
 10
365.494713
 20
311.8
 30
0.0
 11
382.4947129999999
 21
311.8
 31
0.0
  0
LINE
  5
209
330
16B
100
AcDbEntity
  8
1
100
AcDbLine
 10
359.9947129999999
 20
308.8
 30
0.0
 11
365.9947129999999
 21
308.8
 31
0.0
  0
LINE
  5
20A
330
16B
100
AcDbEntity
  8
0
100
AcDbLine
 10
382.4947129999999
 20
311.8
 30
0.0
 11
383.4947129999999
 21
311.8
 31
0.0
  0
LINE
  5
20B
330
16B
100
AcDbEntity
  8
0
100
AcDbLine
 10
383.4947129999999
 20
311.8
 30
0.0
 11
383.4947129999999
 21
236.2
 31
0.0
  0
LINE
  5
20C
330
16B
100
AcDbEntity
  8
0
100
AcDbLine
 10
383.4947129999999
 20
236.2
 30
0.0
 11
382.4947129999999
 21
236.2
 31
0.0
  0
LINE
  5
20D
330
16B
100
AcDbEntity
  8
0
100
AcDbLine
 10
386.494713
 20
307.8
 30
0.0
 11
386.494713
 21
240.2
 31
0.0
  0
ARC
  5
20E
330
16B
100
AcDbEntity
  8
0
100
AcDbCircle
 10
365.669046
 20
310.625667
 30
0.0
 40
1.187203
100
AcDbArc
 50
98.44405899999999
 51
171.555941
  0
ARC
  5
20F
330
16B
100
AcDbEntity
  8
0
100
AcDbCircle
 10
383.794892
 20
308.100179
 30
0.0
 40
2.716457
100
AcDbArc
 50
353.655639
 51
96.344361
  0
ARC
  5
210
330
16B
100
AcDbEntity
  8
0
100
AcDbCircle
 10
365.411218
 20
237.1165049999999
 30
0.0
 40
0.920301
100
AcDbArc
 50
174.794651
 51
275.205349
  0
ARC
  5
211
330
16B
100
AcDbEntity
  8
0
100
AcDbCircle
 10
383.470819
 20
240.2238939999999
 30
0.0
 40
3.023988
100
AcDbArc
 50
270.4527179999999
 51
359.5472819999999
  0
LINE
  5
212
330
16B
100
AcDbEntity
  8
0
100
AcDbLine
 10
364.4947129999999
 20
310.8
 30
0.0
 11
364.4947129999999
 21
311.2999999999999
 31
0.0
  0
LINE
  5
213
330
16B
100
AcDbEntity
  8
0
100
AcDbLine
 10
364.4947129999999
 20
311.2999999999999
 30
0.0
 11
363.494713
 21
311.2999999999999
 31
0.0
  0
LINE
  5
214
330
16B
100
AcDbEntity
  8
0
100
AcDbLine
 10
364.4947129999999
 20
306.3
 30
0.0
 11
363.494713
 21
306.3
 31
0.0
  0
LINE
  5
215
330
16B
100
AcDbEntity
  8
0
100
AcDbLine
 10
362.4947129999999
 20
307.3
 30
0.0
 11
362.4947129999999
 21
310.3
 31
0.0
  0
ARC
  5
216
330
16B
100
AcDbEntity
  8
0
100
AcDbCircle
 10
363.6621059999999
 20
310.132607
 30
0.0
 40
1.179332999999999
100
AcDbArc
 50
98.16003600000001
 51
171.8399639999999
  0
ARC
  5
217
330
16B
100
AcDbEntity
  8
0
100
AcDbCircle
 10
363.590718
 20
307.396005
 30
0.0
 40
1.100202
100
AcDbArc
 50
185.006091
 51
264.9939089999999
  0
LINE
  5
218
330
16B
100
AcDbEntity
  8
0
100
AcDbLine
 10
386.494713
 20
278.5
 30
0.0
 11
386.9947129999999
 21
278.5
 31
0.0
  0
LINE
  5
219
330
16B
100
AcDbEntity
  8
0
100
AcDbLine
 10
386.9947129999999
 20
278.5
 30
0.0
 11
386.9947129999999
 21
269.4999999999999
 31
0.0
  0
LINE
  5
21A
330
16B
100
AcDbEntity
  8
0
100
AcDbLine
 10
386.9947129999999
 20
269.4999999999999
 30
0.0
 11
386.494713
 21
269.4999999999999
 31
0.0
  0
LINE
  5
21B
330
16B
100
AcDbEntity
  8
0
100
AcDbLine
 10
386.9947129999999
 20
278.0
 30
0.0
 11
389.4947129999999
 21
278.0
 31
0.0
  0
LINE
  5
21C
330
16B
100
AcDbEntity
  8
0
100
AcDbLine
 10
389.4947129999999
 20
278.0
 30
0.0
 11
389.994713
 21
277.4999999999999
 31
0.0
  0
LINE
  5
21D
330
16B
100
AcDbEntity
  8
0
100
AcDbLine
 10
389.994713
 20
277.4999999999999
 30
0.0
 11
389.994713
 21
270.5
 31
0.0
  0
LINE
  5
21E
330
16B
100
AcDbEntity
  8
0
100
AcDbLine
 10
389.994713
 20
270.5
 30
0.0
 11
389.4947129999999
 21
270.0
 31
0.0
  0
LINE
  5
21F
330
16B
100
AcDbEntity
  8
0
100
AcDbLine
 10
389.4947129999999
 20
270.0
 30
0.0
 11
386.9947129999999
 21
270.0
 31
0.0
  0
LINE
  5
220
330
16B
100
AcDbEntity
  8
0
100
AcDbLine
 10
386.9947129999999
 20
276.0
 30
0.0
 11
389.994713
 21
276.0
 31
0.0
  0
LINE
  5
221
330
16B
100
AcDbEntity
  8
0
100
AcDbLine
 10
386.9947129999999
 20
272.0
 30
0.0
 11
389.994713
 21
272.0
 31
0.0
  0
LINE
  5
222
330
16B
100
AcDbEntity
  8
2
100
AcDbLine
 10
365.9947129999999
 20
242.5
 30
0.0
 11
365.9947129999999
 21
305.5
 31
0.0
  0
TEXT
  5
25B
330
16B
100
AcDbEntity
  8
11
100
AcDbText
 10
562.7384359999999
 20
26.908781
 30
0.0
 40
10.0
  1
ＭＤ－７５
  7
BIGFONT
100
AcDbText
  0
TEXT
  5
25C
330
16B
100
AcDbEntity
  8
11
100
AcDbText
 10
625.721329
 20
26.76689
 30
0.0
 40
10.0
  1
Ｌ
  7
BIGFONT
100
AcDbText
  0
LINE
  5
25D
330
16B
100
AcDbEntity
  8
0
100
AcDbLine
 10
207.0
 20
297.5
 30
0.0
 11
207.0
 21
296.0
 31
0.0
  0
LINE
  5
25E
330
16B
100
AcDbEntity
  8
0
100
AcDbLine
 10
205.0
 20
296.0
 30
0.0
 11
205.0
 21
297.5
 31
0.0
  0
ARC
  5
25F
330
16B
100
AcDbEntity
  8
0
100
AcDbCircle
 10
205.9326829999999
 20
296.8523359999999
 30
0.0
 40
1.248453
100
AcDbArc
 50
31.249984
 51
63.17259399999999
  0
ARC
  5
260
330
16B
100
AcDbEntity
  8
0
100
AcDbCircle
 10
206.1596849999999
 20
296.7595049999999
 30
0.0
 40
1.375267999999999
100
AcDbArc
 50
118.6477699999999
 51
147.29353
  0
ARC
  5
261
330
16B
100
AcDbEntity
  8
0
100
AcDbCircle
 10
205.998602
 20
296.778994
 30
0.0
 40
1.274855999999999
100
AcDbArc
 50
292.9700509999999
 51
321.944115
  0
ARC
  5
262
330
16B
100
AcDbEntity
  8
0
100
AcDbCircle
 10
205.5589509999999
 20
296.206897
 30
0.0
 40
0.596129
100
AcDbArc
 50
201.013285
 51
264.358485
  0
LINE
  5
344
330
16B
100
AcDbEntity
  8
0
100
AcDbLine
 10
205.8199999999999
 20
274.0
 30
0.0
 11
206.18
 21
274.0
 31
0.0
  0
LINE
  5
345
330
16B
100
AcDbEntity
  8
0
100
AcDbLine
 10
205.9999999999999
 20
273.8199999999999
 30
0.0
 11
205.9999999999999
 21
274.18
 31
0.0
  0
CIRCLE
  5
346
330
16B
100
AcDbEntity
  8
0
100
AcDbCircle
 10
206.18
 20
274.0
 30
0.0
 40
37.79999999999999
  0
CIRCLE
  5
347
330
16B
100
AcDbEntity
  8
0
100
AcDbCircle
 10
544.0
 20
274.0
 30
0.0
 40
37.79999999999999
  0
ENDSEC
  0
SECTION
  2
OBJECTS
  0
DICTIONARY
  5
159
330
0
100
AcDbDictionary
281
     1
  3
ACAD_GROUP
350
15A
  3
ACAD_LAYOUT
350
166
  3
ACAD_MLINESTYLE
350
163
  3
ACAD_PLOTSETTINGS
350
165
  3
ACAD_PLOTSTYLENAME
350
15B
  3
AcDbVariableDictionary
350
351
  3
AcmDictionary
350
31D
  3
AMG
350
265
  3
AMGSNAPSETTINGS
350
33A
  3
DWGPROPS
350
320
  3
MAPISURF_MODULE
350
2F0
  0
DICTIONARY
  5
348
330
16B
100
AcDbDictionary
280
     1
281
     1
  3
ACAD_INDEX
360
349
  0
DICTIONARY
  5
15A
102
{ACAD_REACTORS
330
159
102
}
330
159
100
AcDbDictionary
281
     1
  0
DICTIONARY
  5
166
102
{ACAD_REACTORS
330
159
102
}
330
159
100
AcDbDictionary
281
     1
  3
Model
350
16E
  3
ﾚｲｱｳﾄ1
350
16A
  0
DICTIONARY
  5
163
102
{ACAD_REACTORS
330
159
102
}
330
159
100
AcDbDictionary
281
     1
  3
Standard
350
164
  0
DICTIONARY
  5
165
102
{ACAD_REACTORS
330
159
102
}
330
159
100
AcDbDictionary
281
     1
  0
ACDBDICTIONARYWDFLT
  5
15B
102
{ACAD_REACTORS
330
159
102
}
330
159
100
AcDbDictionary
281
     1
  3
Normal
350
15C
100
AcDbDictionaryWithDefault
340
15C
  0
DICTIONARY
  5
351
102
{ACAD_REACTORS
330
159
102
}
330
159
100
AcDbDictionary
281
     1
  3
DIMASSOC
350
353
  3
INDEXCTL
350
352
  0
DICTIONARY
  5
31D
102
{ACAD_REACTORS
330
159
102
}
330
159
100
AcDbDictionary
281
     1
  3
AcmBOMDATA
350
31E
  0
DICTIONARY
  5
265
102
{ACAD_REACTORS
330
159
102
}
330
159
100
AcDbDictionary
281
     1
  3
AcMgSettings
350
266
  3
AMGLAYCFG
350
32A
  0
DICTIONARY
  5
33A
102
{ACAD_REACTORS
330
159
102
}
330
159
100
AcDbDictionary
281
     1
  3
DIMENSION
350
33F
  3
FEA
350
33E
  3
HATCH (1)
350
33B
  3
HATCH (2)
350
33C
  3
SIMPLE WELD
350
340
  3
SYMBOLS
350
33D
  0
XRECORD
  5
320
102
{ACAD_REACTORS
330
159
102
}
330
159
100
AcDbXrecord
280
     1
  1
DWGPROPS COOKIE
  2

  3

  4

  6

  7

  8

  9

300
AmdtFileType=84
301
=
302
=
303
=
304
=
305
=
306
=
307
=
308
=
309
=
 40
0.0000046990740741
 41
2450686.812975
 42
2450686.812975
  1

 90
        1
  0
DICTIONARY
  5
349
102
{ACAD_REACTORS
330
348
102
}
330
348
100
AcDbDictionary
281
     1
  3
*A1
350
34A
  0
LAYOUT
  5
16E
102
{ACAD_REACTORS
330
166
102
}
330
166
100
AcDbPlotSettings
  1

  2
\\KONISHIDENXP\SHARP MX-2700FG
  4

  6

 40
0.0
 41
0.0
 42
0.0
 43
0.0
 44
0.0
 45
0.0
 46
0.0
 47
0.0
 48
0.0
 49
0.0
140
0.0
141
0.0
142
1.0
143
1.0
 70
  1712
 72
     0
 73
     0
 74
     0
  7

 75
     0
147
1.0
148
0.0
149
0.0
100
AcDbLayout
  1
Model
 70
     1
 71
     0
 10
0.0
 20
0.0
 11
12.0
 21
9.0
 12
0.0
 22
0.0
 32
0.0
 14
0.0
 24
0.0
 34
0.0
 15
0.0
 25
0.0
 35
0.0
146
0.0
 13
0.0
 23
0.0
 33
0.0
 16
1.0
 26
0.0
 36
0.0
 17
0.0
 27
1.0
 37
0.0
 76
     0
330
16B
  0
LAYOUT
  5
16A
102
{ACAD_REACTORS
330
166
102
}
330
166
100
AcDbPlotSettings
  1

  2
\\KONISHIDENXP\SHARP MX-2700FG
  4

  6

 40
0.0
 41
0.0
 42
0.0
 43
0.0
 44
0.0
 45
0.0
 46
0.0
 47
0.0
 48
0.0
 49
0.0
140
0.0
141
0.0
142
1.0
143
1.0
 70
   688
 72
     0
 73
     0
 74
     5
  7

 75
    16
147
1.0
148
0.0
149
0.0
100
AcDbLayout
  1
ﾚｲｱｳﾄ1
 70
     0
 71
     1
 10
0.0
 20
0.0
 11
12.0
 21
9.0
 12
0.0
 22
0.0
 32
0.0
 14
1.000000000000000E+20
 24
1.000000000000000E+20
 34
1.000000000000000E+20
 15
-1.000000000000000E+20
 25
-1.000000000000000E+20
 35
-1.000000000000000E+20
146
0.0
 13
0.0
 23
0.0
 33
0.0
 16
1.0
 26
0.0
 36
0.0
 17
0.0
 27
1.0
 37
0.0
 76
     0
330
167
  0
MLINESTYLE
  5
164
102
{ACAD_REACTORS
330
163
102
}
330
163
100
AcDbMlineStyle
  2
STANDARD
 70
     0
  3

 62
   256
 51
90.0
 52
90.0
 71
     2
 49
0.5
 62
   256
  6
BYLAYER
 49
-0.5
 62
   256
  6
BYLAYER
  0
ACDBPLACEHOLDER
  5
15C
102
{ACAD_REACTORS
330
15B
102
}
330
15B
  0
DICTIONARYVAR
  5
353
102
{ACAD_REACTORS
330
351
102
}
330
351
100
DictionaryVariables
280
     0
  1
0
  0
DICTIONARYVAR
  5
352
102
{ACAD_REACTORS
330
351
102
}
330
351
100
DictionaryVariables
280
     0
  1
1
  0
ACMDATADICTIONARY
  5
31E
102
{ACAD_REACTORS
330
31D
102
}
330
31D
100
AcDbDictionary
281
     1
  3
*A1
350
31F
100
AcmDataDictionary
  0
DICTIONARY
  5
266
102
{ACAD_REACTORS
330
265
102
}
330
265
100
AcDbDictionary
281
     1
  3
DWGSETTINGS
350
267
  0
ACAMGFILTERDAT
  5
33F
102
{ACAD_REACTORS
330
33A
102
}
330
33A
100
AcAmgFilterDat
 70
    15
  1
DIMENSION,AMDT_*_DIM
  2
*
  3
*
  4
*
  5
*
290
     1
  0
ACAMGFILTERDAT
  5
33E
102
{ACAD_REACTORS
330
33A
102
}
330
33A
100
AcAmgFilterDat
 70
    15
  1
*
  2
AM_FEA-AM_*
  3
*
  4
*
  5
*
290
     1
  0
ACAMGFILTERDAT
  5
33B
102
{ACAD_REACTORS
330
33A
102
}
330
33A
100
AcAmgFilterDat
 70
    15
  1
HATCH
  2
*
  3
*
  4
*
  5
*
290
     1
  0
ACAMGFILTERDAT
  5
33C
102
{ACAD_REACTORS
330
33A
102
}
330
33A
100
AcAmgFilterDat
 70
    15
  1
LINE
  2
8,8N,*-8,*-8N,AM_8,AM_8N,*-AM_8,*-AM_8N
  3
*
  4
*
  5
INSERT,STDPART2D
290
     1
  0
ACAMGFILTERDAT
  5
340
102
{ACAD_REACTORS
330
33A
102
}
330
33A
100
AcAmgFilterDat
 70
    15
  1
ARC
  2
AM_5
  3
*
  4
2
  5
INSERT
290
     0
  0
ACAMGFILTERDAT
  5
33D
102
{ACAD_REACTORS
330
33A
102
}
330
33A
100
AcAmgFilterDat
 70
    15
  1
ACMFCFRAME,ACMDATUMTARGET,ACMDATUMID,ACMWELDSYM,ACMSURFSYM,ACMFEATID,ACMPARTREF,ACMBALLOON,AMDTEDGESYM,AMGSCREWCALCTABLE
  2
*
  3
*
  4
*
  5
*
290
     1
  0
LAYER_INDEX
  5
34A
102
{ACAD_REACTORS
330
349
102
}
330
349
100
AcDbIndex
 40
2456524.564567418
100
AcDbLayerIndex
  8
0
360
34B
 90
      104
  8
1
360
34C
 90
        9
  8
4
360
34D
 90
        0
  8
10
360
34E
 90
        0
  8
11
360
34F
 90
       27
  8
2
360
350
 90
        1
  0
ACMDATAENTRYBLOCK
  5
31F
102
{ACAD_REACTORS
330
31E
102
}
330
31E
100
AcmDataEntry
100
AcmDataEntryBlock
  0
IDBUFFER
  5
34B
330
0
100
AcDbIdBuffer
330
1EA
330
1EB
330
1EC
330
1ED
330
1EE
330
1EF
330
1F0
330
1F1
330
1F2
330
1F3
330
1F4
330
1F5
330
1F7
330
1F8
330
1F9
330
1FA
330
202
330
203
330
204
330
206
330
207
330
208
330
20A
330
20B
330
20C
330
20D
330
20E
330
20F
330
210
330
211
330
212
330
213
330
214
330
215
330
216
330
217
330
218
330
219
330
21A
330
21B
330
21C
330
21D
330
21E
330
21F
330
220
330
221
330
25D
330
25E
330
25F
330
260
330
261
330
262
330
344
330
345
330
346
330
347
330
19A
330
19B
330
19C
330
19D
330
19E
330
19F
330
1A0
330
1A1
330
1A2
330
1A3
330
1A4
330
1A5
330
1A6
330
1A7
330
1A8
330
1A9
330
1AA
330
1AB
330
1AC
330
1AD
330
1AE
330
1AF
330
1B0
330
1B1
330
1B3
330
1B4
330
1B5
330
1B6
330
1B7
330
1B8
330
1B9
330
1BA
330
1BB
330
1BC
330
1BD
330
1BE
330
1BF
330
1C4
330
1DD
330
1DE
330
1DF
330
1E0
330
1E1
330
1E2
330
1E3
330
1E4
330
1E5
330
1E9
  0
IDBUFFER
  5
34C
330
0
100
AcDbIdBuffer
330
1C0
330
1C1
330
1C2
330
1C5
330
1E6
330
1E7
330
1E8
330
205
330
209
  0
IDBUFFER
  5
34D
330
0
100
AcDbIdBuffer
  0
IDBUFFER
  5
34E
330
0
100
AcDbIdBuffer
  0
IDBUFFER
  5
34F
330
0
100
AcDbIdBuffer
330
1D4
330
1D5
330
1D6
330
1D7
330
1D8
330
1D9
330
1DA
330
1DB
330
1DC
330
25B
330
25C
330
199
330
1B2
330
1C6
330
1C7
330
1C8
330
1C9
330
1CA
330
1CB
330
1CC
330
1CD
330
1CE
330
1CF
330
1D0
330
1D1
330
1D2
330
1D3
  0
IDBUFFER
  5
350
330
0
100
AcDbIdBuffer
330
222
  0
ENDSEC
  0
EOF
