  0
SECTION
  2
HEADER
  9
$ACADVER
  1
AC1015
  9
$ACADMAINTVER
 70
    13
  9
$DWGCODEPAGE
  3
ANSI_932
  9
$INSBASE
 10
0.0
 20
0.0
 30
0.0
  9
$EXTMIN
 10
0.0
 20
0.0
 30
0.0
  9
$EXTMAX
 10
750.0
 20
540.0
 30
0.0
  9
$LIMMIN
 10
0.0
 20
0.0
  9
$LIMMAX
 10
750.0
 20
540.0
  9
$ORTHOMODE
 70
     1
  9
$REGENMODE
 70
     1
  9
$FILLMODE
 70
     1
  9
$QTEXTMODE
 70
     0
  9
$MIRRTEXT
 70
     1
  9
$LTSCALE
 40
20.0
  9
$ATTMODE
 70
     1
  9
$TEXTSIZE
 40
10.0
  9
$TRACEWID
 40
0.05
  9
$TEXTSTYLE
  7
BIGFONT
  9
$CLAYER
  8
0
  9
$CELTYPE
  6
ByLayer
  9
$CECOLOR
 62
   256
  9
$CELTSCALE
 40
1.0
  9
$DISPSILH
 70
     0
  9
$DIMSCALE
 40
2.0
  9
$DIMASZ
 40
3.0
  9
$DIMEXO
 40
2.0
  9
$DIMDLI
 40
0.3799999999999999
  9
$DIMRND
 40
0.0
  9
$DIMDLE
 40
0.0
  9
$DIMEXE
 40
2.0
  9
$DIMTP
 40
0.0
  9
$DIMTM
 40
0.0
  9
$DIMTXT
 40
3.2
  9
$DIMCEN
 40
0.09
  9
$DIMTSZ
 40
0.0
  9
$DIMTOL
 70
     0
  9
$DIMLIM
 70
     0
  9
$DIMTIH
 70
     0
  9
$DIMTOH
 70
     0
  9
$DIMSE1
 70
     0
  9
$DIMSE2
 70
     0
  9
$DIMTAD
 70
     1
  9
$DIMZIN
 70
     0
  9
$DIMBLK
  1

  9
$DIMASO
 70
     0
  9
$DIMSHO
 70
     0
  9
$DIMPOST
  1

  9
$DIMAPOST
  1

  9
$DIMALT
 70
     0
  9
$DIMALTD
 70
     2
  9
$DIMALTF
 40
25.4
  9
$DIMLFAC
 40
1.0
  9
$DIMTOFL
 70
     0
  9
$DIMTVP
 40
1.6
  9
$DIMTIX
 70
     1
  9
$DIMSOXD
 70
     0
  9
$DIMSAH
 70
     0
  9
$DIMBLK1
  1

  9
$DIMBLK2
  1

  9
$DIMSTYLE
  2
STANDARD
  9
$DIMCLRD
 70
     0
  9
$DIMCLRE
 70
     0
  9
$DIMCLRT
 70
     0
  9
$DIMTFAC
 40
1.0
  9
$DIMGAP
 40
0.09
  9
$DIMJUST
 70
     0
  9
$DIMSD1
 70
     0
  9
$DIMSD2
 70
     0
  9
$DIMTOLJ
 70
     1
  9
$DIMTZIN
 70
     0
  9
$DIMALTZ
 70
     0
  9
$DIMALTTZ
 70
     0
  9
$DIMUPT
 70
     0
  9
$DIMDEC
 70
     4
  9
$DIMTDEC
 70
     4
  9
$DIMALTU
 70
     2
  9
$DIMALTTD
 70
     2
  9
$DIMTXSTY
  7
STANDARD
  9
$DIMAUNIT
 70
     0
  9
$DIMADEC
 70
     0
  9
$DIMALTRND
 40
0.0
  9
$DIMAZIN
 70
     0
  9
$DIMDSEP
 70
    46
  9
$DIMATFIT
 70
     3
  9
$DIMFRAC
 70
     0
  9
$DIMLDRBLK
  1

  9
$DIMLUNIT
 70
     2
  9
$DIMLWD
 70
    -2
  9
$DIMLWE
 70
    -2
  9
$DIMTMOVE
 70
     0
  9
$LUNITS
 70
     2
  9
$LUPREC
 70
     4
  9
$SKETCHINC
 40
0.1
  9
$FILLETRAD
 40
0.0
  9
$AUNITS
 70
     0
  9
$AUPREC
 70
     0
  9
$MENU
  1
ACAD
  9
$ELEVATION
 40
0.0
  9
$PELEVATION
 40
0.0
  9
$THICKNESS
 40
0.0
  9
$LIMCHECK
 70
     0
  9
$CHAMFERA
 40
0.0
  9
$CHAMFERB
 40
0.0
  9
$CHAMFERC
 40
0.0
  9
$CHAMFERD
 40
0.0
  9
$SKPOLY
 70
     0
  9
$TDCREATE
 40
2450686.812326388
  9
$TDUCREATE
 40
2450686.437326389
  9
$TDUPDATE
 40
2456526.368322662
  9
$TDUUPDATE
 40
2456525.993322662
  9
$TDINDWG
 40
0.0015832986
  9
$TDUSRTIMER
 40
0.0015832986
  9
$USRTIMER
 70
     1
  9
$ANGBASE
 50
0.0
  9
$ANGDIR
 70
     0
  9
$PDMODE
 70
     0
  9
$PDSIZE
 40
0.0
  9
$PLINEWID
 40
0.0
  9
$SPLFRAME
 70
     0
  9
$SPLINETYPE
 70
     6
  9
$SPLINESEGS
 70
     8
  9
$HANDSEED
  5
230
  9
$SURFTAB1
 70
     6
  9
$SURFTAB2
 70
     6
  9
$SURFTYPE
 70
     6
  9
$SURFU
 70
     6
  9
$SURFV
 70
     6
  9
$UCSBASE
  2

  9
$UCSNAME
  2

  9
$UCSORG
 10
0.0
 20
0.0
 30
0.0
  9
$UCSXDIR
 10
1.0
 20
0.0
 30
0.0
  9
$UCSYDIR
 10
0.0
 20
1.0
 30
0.0
  9
$UCSORTHOREF
  2

  9
$UCSORTHOVIEW
 70
     0
  9
$UCSORGTOP
 10
0.0
 20
0.0
 30
0.0
  9
$UCSORGBOTTOM
 10
0.0
 20
0.0
 30
0.0
  9
$UCSORGLEFT
 10
0.0
 20
0.0
 30
0.0
  9
$UCSORGRIGHT
 10
0.0
 20
0.0
 30
0.0
  9
$UCSORGFRONT
 10
0.0
 20
0.0
 30
0.0
  9
$UCSORGBACK
 10
0.0
 20
0.0
 30
0.0
  9
$PUCSBASE
  2

  9
$PUCSNAME
  2

  9
$PUCSORG
 10
0.0
 20
0.0
 30
0.0
  9
$PUCSXDIR
 10
1.0
 20
0.0
 30
0.0
  9
$PUCSYDIR
 10
0.0
 20
1.0
 30
0.0
  9
$PUCSORTHOREF
  2

  9
$PUCSORTHOVIEW
 70
     0
  9
$PUCSORGTOP
 10
0.0
 20
0.0
 30
0.0
  9
$PUCSORGBOTTOM
 10
0.0
 20
0.0
 30
0.0
  9
$PUCSORGLEFT
 10
0.0
 20
0.0
 30
0.0
  9
$PUCSORGRIGHT
 10
0.0
 20
0.0
 30
0.0
  9
$PUCSORGFRONT
 10
0.0
 20
0.0
 30
0.0
  9
$PUCSORGBACK
 10
0.0
 20
0.0
 30
0.0
  9
$USERI1
 70
     0
  9
$USERI2
 70
     0
  9
$USERI3
 70
     0
  9
$USERI4
 70
     0
  9
$USERI5
 70
     0
  9
$USERR1
 40
0.0
  9
$USERR2
 40
0.0
  9
$USERR3
 40
0.0
  9
$USERR4
 40
0.0
  9
$USERR5
 40
0.0
  9
$WORLDVIEW
 70
     1
  9
$SHADEDGE
 70
     3
  9
$SHADEDIF
 70
    70
  9
$TILEMODE
 70
     1
  9
$MAXACTVP
 70
    16
  9
$PINSBASE
 10
0.0
 20
0.0
 30
0.0
  9
$PLIMCHECK
 70
     0
  9
$PEXTMIN
 10
1.000000000000000E+20
 20
1.000000000000000E+20
 30
1.000000000000000E+20
  9
$PEXTMAX
 10
-1.000000000000000E+20
 20
-1.000000000000000E+20
 30
-1.000000000000000E+20
  9
$PLIMMIN
 10
0.0
 20
0.0
  9
$PLIMMAX
 10
12.0
 20
9.0
  9
$UNITMODE
 70
     0
  9
$VISRETAIN
 70
     0
  9
$PLINEGEN
 70
     1
  9
$PSLTSCALE
 70
     0
  9
$TREEDEPTH
 70
  3020
  9
$CMLSTYLE
  2
Standard
  9
$CMLJUST
 70
     0
  9
$CMLSCALE
 40
1.0
  9
$PROXYGRAPHICS
 70
     1
  9
$MEASUREMENT
 70
     0
  9
$CELWEIGHT
370
    -1
  9
$ENDCAPS
280
     0
  9
$JOINSTYLE
280
     0
  9
$LWDISPLAY
290
     0
  9
$INSUNITS
 70
     0
  9
$HYPERLINKBASE
  1

  9
$STYLESHEET
  1

  9
$XEDIT
290
     1
  9
$CEPSNTYPE
380
     0
  9
$PSTYLEMODE
290
     1
  9
$FINGERPRINTGUID
  2
{4FE772B2-005E-4107-8DBC-A132B356F251}
  9
$VERSIONGUID
  2
{5220B5CD-174E-482B-BC76-517035381ADC}
  9
$EXTNAMES
290
     1
  9
$PSVPSCALE
 40
0.0
  9
$OLESTARTUP
290
     0
  0
ENDSEC
  0
SECTION
  2
CLASSES
  0
CLASS
  1
ACDBDICTIONARYWDFLT
  2
AcDbDictionaryWithDefault
  3
AutoCAD 2000
 90
        0
280
     0
281
     0
  0
CLASS
  1
ACDBPLACEHOLDER
  2
AcDbPlaceHolder
  3
AutoCAD 2000
 90
        0
280
     0
281
     0
  0
CLASS
  1
LAYOUT
  2
AcDbLayout
  3
AutoCAD 2000
 90
        0
280
     0
281
     0
  0
CLASS
  1
AMGSETTINGSOBJ
  2
AmgSettingsObj
  3
"AcadM|Product Description: AutoCAD Mechanical 2000|Company: Autodesk"
 90
        0
280
     0
281
     0
  0
CLASS
  1
ACME_DOCUMENT
  2
AcMeDbDoc
  3
AcMeServices
 90
        0
280
     0
281
     0
  0
CLASS
  1
ACMESCOPE
  2
AcMeScope
  3
AcMeServices
 90
        0
280
     0
281
     0
  0
CLASS
  1
ACMECOMMANDHISTORY
  2
AcMeCommandHistory
  3
AcMeServices
 90
        0
280
     0
281
     0
  0
CLASS
  1
ACIMSYSVARMAN
  2
AcImSysVarManager
  3
AcMeServices
 90
        0
280
     0
281
     0
  0
CLASS
  1
ACIMREALSYSVAR
  2
AcImRealSysVar
  3
AcMeServices
 90
        0
280
     0
281
     0
  0
CLASS
  1
ACIMINTSYSVAR
  2
AcImIntSysVar
  3
AcMeServices
 90
        0
280
     0
281
     0
  0
CLASS
  1
ACMEDRAWINGMAN
  2
AcMeDrawingMan
  3
AcMeServices
 90
        0
280
     0
281
     0
  0
CLASS
  1
ACMEVIEW
  2
AcMeView
  3
AcMeServices
 90
        0
280
     0
281
     0
  0
CLASS
  1
ACDBENTITYCACHE
  2
AcMeEntityCache
  3
AcMeServices
 90
        0
280
     0
281
     0
  0
CLASS
  1
GSMANAGER
  2
AcMeGSManager
  3
AcMeServices
 90
        0
280
     0
281
     0
  0
CLASS
  1
AMDTINTERNALREACTOR
  2
AmdtInternalReactor
  3
AcMeServices
 90
        0
280
     0
281
     0
  0
CLASS
  1
ACMESTATEMGR
  2
AcMeStateMgr
  3
AcMeServices
 90
        0
280
     0
281
     0
  0
CLASS
  1
ACGREFMASTER
  2
AcGrefMaster
  3
AcAttribServices
 90
        0
280
     0
281
     0
  0
CLASS
  1
AM_DRAWING_MGR
  2
AcDmDwgMgr
  3
AcMechDwgViewMgmt
 90
        0
280
     0
281
     0
  0
CLASS
  1
AM_DWG_DOCUMENT
  2
AcDmDwgDocument
  3
AcMechDwgViewMgmt
 90
        0
280
     0
281
     0
  0
CLASS
  1
AM_DWG_SHEET
  2
AcDmSheet
  3
AcMechDwgViewMgmt
 90
        0
280
     0
281
     0
  0
CLASS
  1
AM_VIEWDIMPARMAP
  2
AcDmViewDimParMap
  3
AcMechDwgViewMgmt
 90
        0
280
     0
281
     0
  0
CLASS
  1
AM_DWGMGR_NAME
  2
AcDmDwgMgrName
  3
AcMechDwgViewMgmt
 90
        0
280
     0
281
     0
  0
CLASS
  1
ACME_DATABASE
  2
AcMeDbDatabase
  3
AcMeServices
 90
        0
280
     0
281
     0
  0
CLASS
  1
ACRFINSADJUSTERMGR
  2
AcRfInsAdjusterMgr
  3
AcMeServices
 90
        0
280
     0
281
     0
  0
CLASS
  1
ACGREFACADMASTER
  2
AcGrefacadMaster
  3
AcGrefServices
 90
        0
280
     0
281
     0
  0
CLASS
  1
AMDTMENUSTATEMGR
  2
AmdtMenuStateMgr
  3
McadcomServices
 90
        0
280
     0
281
     0
  0
CLASS
  1
AMDTMCOMMENUSTATE
  2
AmdtMcomMenuState
  3
McadcomServices
 90
        0
280
     0
281
     0
  0
CLASS
  1
AMIMASTER
  2
AmiMaster
  3
AmiServices
 90
        0
280
     0
281
     0
  0
CLASS
  1
ASAPP
  2
AcAsAppObject
  3
AutoSurfServices
 90
        0
280
     0
281
     0
  0
CLASS
  1
IM_STATIC_MAN
  2
AcImStaticVarManager
  3
AcMeServices
 90
        0
280
     0
281
     0
  0
CLASS
  1
ACIMSTRSYSVAR
  2
AcImStrSysVar
  3
AcMeServices
 90
        0
280
     0
281
     0
  0
CLASS
  1
ACIMDBLSTATICVAR
  2
AcImDblStaticVar
  3
AcMeServices
 90
        0
280
     0
281
     0
  0
CLASS
  1
ACIMSTRSTATICVAR
  2
AcImStrStaticVar
  3
AcMeServices
 90
        0
280
     0
281
     0
  0
CLASS
  1
ACIMINTSTATICVAR
  2
AcImIntStaticVar
  3
AcMeServices
 90
        0
280
     0
281
     0
  0
CLASS
  1
ACASGREFMASTER
  2
AcAsGrefMaster
  3
AutoSurfResolverServices
 90
        0
280
     0
281
     0
  0
CLASS
  1
ACADGREFMODULE
  2
AcAdGrefModule
  3
AdGrefServices
 90
        0
280
     0
281
     0
  0
CLASS
  1
AMDTMAPISURFMOUDULE
  2
AmdtMApiSurfModule
  3
MApiSurfServices
 90
        0
280
     0
281
     0
  0
CLASS
  1
MAPIAMMOUDLE
  2
MApiAmModule
  3
MApiAmServices
 90
        0
280
     0
281
     0
  0
CLASS
  1
AMDTADMENUSTATE
  2
AmdtAdMenuState
  3
DesignerServices
 90
        0
280
     0
281
     0
  0
CLASS
  1
ADAPPL
  2
AcAdAppl
  3
DesignerServices
 90
        0
280
     0
281
     0
  0
CLASS
  1
DEPMGR
  2
AcAdDepMgr
  3
DesignerServices
 90
        0
280
     0
281
     0
  0
CLASS
  1
PARAMMGR
  2
AcAdParamMgr
  3
DesignerServices
 90
        0
280
     0
281
     0
  0
CLASS
  1
PARAMSCOPE
  2
AcAdParamScope
  3
DesignerServices
 90
        0
280
     0
281
     0
  0
CLASS
  1
NAMEDAPPL
  2
AcAdNamedAppl
  3
DesignerServices
 90
        0
280
     0
281
     0
  0
CLASS
  1
AMDTDMMENUSTATE
  2
AmdtDmMenuState
  3
AcMechDwgViewMgmt
 90
        0
280
     0
281
     0
  0
CLASS
  1
MAPIADMODULE
  2
MApiAdModule
  3
MApiAdServices
 90
        0
280
     0
281
     0
  0
CLASS
  1
AMDTAMMENUSTATE
  2
AmdtAmMenuState
  3
DesignerAssemblies
 90
        0
280
     0
281
     0
  0
CLASS
  1
ACAMPROJECT
  2
AcAmProject
  3
DesignerAssemblies
 90
        0
280
     0
281
     0
  0
CLASS
  1
ACAMGRCOMPDEF
  2
AcAmGrCompDef
  3
DesignerAssemblies
 90
        0
280
     0
281
     0
  0
CLASS
  1
ACCMCONTEXT
  2
AcCmContext
  3
DesignerAssemblies
 90
        0
280
     0
281
     0
  0
CLASS
  1
ACAMCOMPDEF
  2
AcAmCompDef
  3
DesignerAssemblies
 90
        0
280
     0
281
     0
  0
CLASS
  1
ACAMCOMPDEFMGR
  2
AcAmCompDefMgr
  3
DesignerAssemblies
 90
        0
280
     0
281
     0
  0
CLASS
  1
AMCONTEXTMGR
  2
AcAmContextMgr
  3
DesignerAssemblies
 90
        0
280
     0
281
     0
  0
CLASS
  1
ACAMCONTEXTMODELER
  2
AcAmContextModeler
  3
DesignerAssemblies
 90
        0
280
     0
281
     0
  0
CLASS
  1
ACMDATADICTIONARY
  2
AcmDataDictionary
  3
"AcmSymBB|Product Description: AutoCAD Mechanical 2000|Company: Autodesk"
 90
        0
280
     0
281
     0
  0
CLASS
  1
ACMDATAENTRYBLOCK
  2
AcmDataEntryBlock
  3
"AcmSymBB|Product Description: AutoCAD Mechanical 2000|Company: Autodesk"
 90
        0
280
     0
281
     0
  0
CLASS
  1
CATALOGSTATE
  2
AcAmCatalogState
  3
DesignerAssemblies
 90
        0
280
     0
281
     0
  0
CLASS
  1
ACAMGRCOMPDEFSET
  2
AcAmGrCompDefSet
  3
DesignerAssemblies
 90
        0
280
     0
281
     0
  0
CLASS
  1
AMDTBROWSERDBTAB
  2
AmdtBrowserDbTab
  3
McadcomServices
 90
        0
280
     0
281
     0
  0
CLASS
  1
CBROWSERAPPOBJECT
  2
CBrowserAppObject
  3
McadcomServices
 90
        0
280
     0
281
     0
  0
CLASS
  1
DM_PLACEHOLDER
  2
AcDmSelsetPlaceholder
  3
AcMechDwgViewMgmt
 90
        0
280
     0
281
     0
  0
CLASS
  1
AMGOBJPROPCFG
  2
AmgObjPropCfg
  3
"AmgLay|Product Description: AutoCAD Mechanical 2000|Company: Autodesk"
 90
        1
280
     0
281
     0
  0
CLASS
  1
ACAMGFILTERDAT
  2
AcAmgFilterDat
  3
"AcadM|Product Description: AutoCAD Mechanical 2000|Company: Autodesk"
 90
        0
280
     0
281
     0
  0
CLASS
  1
LAYER_INDEX
  2
AcDbLayerIndex
  3
AutoCAD 2000
 90
        0
280
     0
281
     0
  0
CLASS
  1
IDBUFFER
  2
AcDbIdBuffer
  3
AutoCAD 2000
 90
        0
280
     0
281
     0
  0
CLASS
  1
DICTIONARYVAR
  2
AcDbDictionaryVar
  3
AutoCAD 2000
 90
        0
280
     0
281
     0
  0
ENDSEC
  0
SECTION
  2
TABLES
  0
TABLE
  2
VPORT
  5
8
330
0
100
AcDbSymbolTable
 70
     3
  0
VPORT
  5
22F
330
8
100
AcDbSymbolTableRecord
100
AcDbViewportTableRecord
  2
*Active
 70
     0
 10
0.0
 20
0.0
 11
1.0
 21
1.0
 12
0.0
 22
0.0
 13
0.0
 23
0.0
 14
0.5
 24
0.5
 15
1.0
 25
1.0
 16
0.0
 26
0.0
 36
1.0
 17
458.2233502538068
 27
307.5898625486185
 37
0.0
 40
1230.359450194474
 41
1.489721886336154
 42
50.0
 43
0.0
 44
0.0
 50
0.0
 51
0.0
 71
     0
 72
   500
 73
     1
 74
     1
 75
     0
 76
     0
 77
     0
 78
     1
281
     0
 65
     0
110
0.0
120
0.0
130
0.0
111
1.0
121
0.0
131
0.0
112
0.0
122
1.0
132
0.0
 79
     0
146
0.0
  0
ENDTAB
  0
TABLE
  2
LTYPE
  5
5
330
0
100
AcDbSymbolTable
 70
    17
  0
LTYPE
  5
13
330
5
100
AcDbSymbolTableRecord
100
AcDbLinetypeTableRecord
  2
ByBlock
 70
     0
  3

 72
    65
 73
     0
 40
0.0
  0
LTYPE
  5
14
330
5
100
AcDbSymbolTableRecord
100
AcDbLinetypeTableRecord
  2
ByLayer
 70
     0
  3

 72
    65
 73
     0
 40
0.0
  0
LTYPE
  5
15
330
5
100
AcDbSymbolTableRecord
100
AcDbLinetypeTableRecord
  2
CONTINUOUS
 70
     0
  3
実線
 72
    65
 73
     0
 40
0.0
  0
LTYPE
  5
23
330
5
100
AcDbSymbolTableRecord
100
AcDbLinetypeTableRecord
  2
BYLAYER
 70
     0
  3

 72
    65
 73
     0
 40
0.0
  0
LTYPE
  5
24
330
5
100
AcDbSymbolTableRecord
100
AcDbLinetypeTableRecord
  2
CENTER
 70
     0
  3
____ _ ____ _ ____ _ ____ _ ____ _ ____ _ ____
 72
    65
 73
     4
 40
2.0
 49
1.25
 74
     0
 49
-0.25
 74
     0
 49
0.25
 74
     0
 49
-0.25
 74
     0
  0
LTYPE
  5
25
330
5
100
AcDbSymbolTableRecord
100
AcDbLinetypeTableRecord
  2
HIDDEN
 70
     0
  3
_ _ _ _ _ _ _ _ _ _ _ _ _ _ _ _ _ _ _ _ _ _ _
 72
    65
 73
     2
 40
0.375
 49
0.25
 74
     0
 49
-0.125
 74
     0
  0
LTYPE
  5
14A
330
5
100
AcDbSymbolTableRecord
100
AcDbLinetypeTableRecord
  2
PHANTOM2
 70
     0
  3
Phantom (.5x) ___ _ _ ___ _ _ ___ _ _ ___ _ _
 72
    65
 73
     6
 40
1.25
 49
0.625
 74
     0
 49
-0.125
 74
     0
 49
0.125
 74
     0
 49
-0.125
 74
     0
 49
0.125
 74
     0
 49
-0.125
 74
     0
  0
LTYPE
  5
1AC
330
5
100
AcDbSymbolTableRecord
100
AcDbLinetypeTableRecord
  2
ASULTYPE
 70
     0
  3
実線
 72
    65
 73
     2
 40
3.0
 49
2.5
 74
     0
 49
0.5
 74
     0
  0
LTYPE
  5
1AD
330
5
100
AcDbSymbolTableRecord
100
AcDbLinetypeTableRecord
  2
ASVLTYPE
 70
     0
  3
__ __ __ __ __ __ __ __ __ __ __ __ __ __ __ __ __ __ __ __ __
 72
    65
 73
     2
 40
0.75
 49
0.5
 74
     0
 49
-0.25
 74
     0
  0
LTYPE
  5
1EE
330
5
100
AcDbSymbolTableRecord
100
AcDbLinetypeTableRecord
  2
AM_ISO02W050
 70
     0
  3
__ __ __ __ __ __ __ __ __ __ __ __ __ __ __
 72
    65
 73
     2
 40
7.5
 49
6.0
 74
     0
 49
-1.5
 74
     0
  0
LTYPE
  5
1EF
330
5
100
AcDbSymbolTableRecord
100
AcDbLinetypeTableRecord
  2
AM_ISO08W050
 70
     0
  3
____ . ____ . ____ . ____ . ____ . ____ . ____
 72
    65
 73
     4
 40
18.0
 49
12.0
 74
     0
 49
-1.5
 74
     0
 49
3.0
 74
     0
 49
-1.5
 74
     0
  0
LTYPE
  5
1F0
330
5
100
AcDbSymbolTableRecord
100
AcDbLinetypeTableRecord
  2
AM_ISO09W050
 70
     0
  3
_____ . . _____ . . _____ . . ____ .. ____
 72
    65
 73
     6
 40
22.5
 49
12.0
 74
     0
 49
-1.5
 74
     0
 49
3.0
 74
     0
 49
-1.5
 74
     0
 49
3.0
 74
     0
 49
-1.5
 74
     0
  0
LTYPE
  5
1F1
330
5
100
AcDbSymbolTableRecord
100
AcDbLinetypeTableRecord
  2
Amconstr
 70
     0
  3
_______________________
 72
    65
 73
     2
 40
9999.0
 49
9999.0
 74
     0
 49
0.0
 74
     0
  0
LTYPE
  5
1F2
330
5
100
AcDbSymbolTableRecord
100
AcDbLinetypeTableRecord
  2
AM_ISO08W050x2
 70
     0
  3
__ . __ . __ . __ . __ . __
 72
    65
 73
     4
 40
9.0
 49
6.0
 74
     0
 49
-0.75
 74
     0
 49
1.5
 74
     0
 49
-0.75
 74
     0
  0
LTYPE
  5
1F3
330
5
100
AcDbSymbolTableRecord
100
AcDbLinetypeTableRecord
  2
AM_ISO02W050x2
 70
     0
  3
 _ _ _ _ _ _ _ _ _ _ _ _
 72
    65
 73
     2
 40
3.75
 49
3.0
 74
     0
 49
-0.75
 74
     0
  0
LTYPE
  5
1F6
330
5
100
AcDbSymbolTableRecord
100
AcDbLinetypeTableRecord
  2
Amzigzag
 70
     0
  3
/\/-/\/-/\/-/\/-/\/-/\/
 72
    65
 73
     2
 40
11.00009999999999
 49
0.0001
 74
     4
 75
   135
340
1F5
 46
0.04
 50
0.0
 44
0.0
 45
0.0
 49
-11.0
 74
     0
  0
LTYPE
  5
1F7
330
5
100
AcDbSymbolTableRecord
100
AcDbLinetypeTableRecord
  2
CENTER2
 70
     0
  3
Center (.5x) ___ _ ___ _ ___ _ ___ _ ___ _ ___
 72
    65
 73
     4
 40
1.125
 49
0.75
 74
     0
 49
-0.125
 74
     0
 49
0.125
 74
     0
 49
-0.125
 74
     0
  0
LTYPE
  5
1F8
330
5
100
AcDbSymbolTableRecord
100
AcDbLinetypeTableRecord
  2
HIDDEN2
 70
     0
  3
Hidden (.5x) _ _ _ _ _ _ _ _ _ _ _ _ _ _ _ _ _
 72
    65
 73
     2
 40
0.1875
 49
0.125
 74
     0
 49
-0.0625
 74
     0
  0
LTYPE
  5
1F9
330
5
100
AcDbSymbolTableRecord
100
AcDbLinetypeTableRecord
  2
Amzigzag2
 70
     0
  3
/\/-/\/-/\/-/\/-/\/-/\/
 72
    65
 73
     2
 40
0.4401
 49
0.0001
 74
     4
 75
   135
340
1F5
 46
0.0016
 50
0.0
 44
0.0
 45
0.0
 49
-0.4400000000000001
 74
     0
  0
ENDTAB
  0
TABLE
  2
LAYER
  5
2
330
0
100
AcDbSymbolTable
 70
     5
  0
LAYER
  5
10
330
2
100
AcDbSymbolTableRecord
100
AcDbLayerTableRecord
  2
0
 70
     0
 62
     7
  6
CONTINUOUS
370
    -3
390
F
  0
LAYER
  5
26
330
2
100
AcDbSymbolTableRecord
100
AcDbLayerTableRecord
  2
1
 70
     0
 62
     1
  6
CENTER
370
    -3
390
F
  0
LAYER
  5
27
330
2
100
AcDbSymbolTableRecord
100
AcDbLayerTableRecord
  2
10
 70
     0
 62
     7
  6
CONTINUOUS
370
    -3
390
F
  0
LAYER
  5
28
330
2
100
AcDbSymbolTableRecord
100
AcDbLayerTableRecord
  2
11
 70
     0
 62
     3
  6
CONTINUOUS
370
    -3
390
F
  0
LAYER
  5
29
330
2
100
AcDbSymbolTableRecord
100
AcDbLayerTableRecord
  2
2
 70
     0
 62
     2
  6
HIDDEN
370
    -3
390
F
  0
ENDTAB
  0
TABLE
  2
STYLE
  5
3
330
0
100
AcDbSymbolTable
 70
     4
  0
STYLE
  5
11
330
3
100
AcDbSymbolTableRecord
100
AcDbTextStyleTableRecord
  2
STANDARD
 70
     0
 40
0.0
 41
1.0
 50
0.0
 71
     0
 42
0.2
  3
TXT
  4
BIGFONT
  0
STYLE
  5
22
330
3
100
AcDbSymbolTableRecord
100
AcDbTextStyleTableRecord
  2
BIGFONT
 70
     0
 40
10.0
 41
1.0
 50
0.0
 71
     0
 42
10.0
  3

  4
bigfont
  0
STYLE
  5
2A
330
3
100
AcDbSymbolTableRecord
100
AcDbTextStyleTableRecord
  2
EXTFONT
 70
     0
 40
2.2
 41
1.5
 50
0.0
 71
     0
 42
2.2
  3

  4
extfont
  0
STYLE
  5
1F5
330
3
100
AcDbSymbolTableRecord
100
AcDbTextStyleTableRecord
  2

 70
     1
 40
0.0
 41
1.0
 50
0.0
 71
     0
 42
10.0
  3
ltypeshp.shx
  4

  0
ENDTAB
  0
TABLE
  2
VIEW
  5
6
330
0
100
AcDbSymbolTable
 70
     1
  0
VIEW
  5
2C
330
6
100
AcDbSymbolTableRecord
100
AcDbViewTableRecord
  2
ALL
 70
     0
 40
540.0
 10
441.9831932773108
 20
270.0
 41
0.0
 11
0.0
 21
0.0
 31
1.0
 12
0.0
 22
0.0
 32
0.0
 42
0.0
 43
0.0
 44
0.0
 50
0.0
 71
     0
281
     0
 72
     0
  0
ENDTAB
  0
TABLE
  2
UCS
  5
7
330
0
100
AcDbSymbolTable
 70
     0
  0
ENDTAB
  0
TABLE
  2
APPID
  5
9
330
0
100
AcDbSymbolTable
 70
    12
  0
APPID
  5
12
330
9
100
AcDbSymbolTableRecord
100
AcDbRegAppTableRecord
  2
ACAD
 70
     0
  0
APPID
  5
129
330
9
100
AcDbSymbolTableRecord
100
AcDbRegAppTableRecord
  2
GENIUS_GENDIM_13
 70
     0
  0
APPID
  5
12A
330
9
100
AcDbSymbolTableRecord
100
AcDbRegAppTableRecord
  2
GENIUS_GENDTOL_13
 70
     0
  0
APPID
  5
12B
330
9
100
AcDbSymbolTableRecord
100
AcDbRegAppTableRecord
  2
GENIUS_GE3DTOL_13
 70
     0
  0
APPID
  5
12D
330
9
100
AcDbSymbolTableRecord
100
AcDbRegAppTableRecord
  2
MCAD_NO_VIS
 70
     0
  0
APPID
  5
12E
330
9
100
AcDbSymbolTableRecord
100
AcDbRegAppTableRecord
  2
ACAD_TEMP_GRAPHIC
 70
     0
  0
APPID
  5
15F
330
9
100
AcDbSymbolTableRecord
100
AcDbRegAppTableRecord
  2
AD_DRAW
 70
     0
  0
APPID
  5
162
330
9
100
AcDbSymbolTableRecord
100
AcDbRegAppTableRecord
  2
ACATTRIBSERVICES
 70
     0
  0
APPID
  5
1AE
330
9
100
AcDbSymbolTableRecord
100
AcDbRegAppTableRecord
  2
ASURF_PCURVE_APPNAME
 70
     0
  0
APPID
  5
1DD
330
9
100
AcDbSymbolTableRecord
100
AcDbRegAppTableRecord
  2
DESIGNERASSEMBLIES
 70
     0
  0
APPID
  5
1E5
330
9
100
AcDbSymbolTableRecord
100
AcDbRegAppTableRecord
  2
ACADM_DIM_EDIT
 70
     0
  0
APPID
  5
1E6
330
9
100
AcDbSymbolTableRecord
100
AcDbRegAppTableRecord
  2
AMDT_DM_ADJ
 70
     0
  0
ENDTAB
  0
TABLE
  2
DIMSTYLE
  5
A
330
0
100
AcDbSymbolTable
 70
     1
100
AcDbDimStyleTable
 71
     1
340
2B
  0
DIMSTYLE
105
2B
330
A
100
AcDbSymbolTableRecord
100
AcDbDimStyleTableRecord
  2
STANDARD
 70
     0
279
     2
340
22
  0
ENDTAB
  0
TABLE
  2
BLOCK_RECORD
  5
1
330
0
100
AcDbSymbolTable
 70
     2
  0
BLOCK_RECORD
  5
1E
102
{ACAD_XDICTIONARY
360
224
102
}
330
1
100
AcDbSymbolTableRecord
100
AcDbBlockTableRecord
  2
*Model_Space
340
21
  0
BLOCK_RECORD
  5
1A
330
1
100
AcDbSymbolTableRecord
100
AcDbBlockTableRecord
  2
*Paper_Space
340
1D
  0
BLOCK_RECORD
  5
31
330
1
100
AcDbSymbolTableRecord
100
AcDbBlockTableRecord
  2
QQ
340
0
102
{BLKREFS
331
3D
102
}
  0
BLOCK_RECORD
  5
1D4
330
1
100
AcDbSymbolTableRecord
100
AcDbBlockTableRecord
  2
*U1
340
0
  0
ENDTAB
  0
ENDSEC
  0
SECTION
  2
BLOCKS
  0
BLOCK
  5
1F
330
1E
100
AcDbEntity
  8
0
100
AcDbBlockBegin
  2
*Model_Space
 70
     0
 10
0.0
 20
0.0
 30
0.0
  3
*Model_Space
  1

  0
ENDBLK
  5
20
330
1E
100
AcDbEntity
  8
0
100
AcDbBlockEnd
  0
BLOCK
  5
1B
330
1A
100
AcDbEntity
 67
     1
  8
0
100
AcDbBlockBegin
  2
*Paper_Space
 70
     0
 10
0.0
 20
0.0
 30
0.0
  3
*Paper_Space
  1

  0
ENDBLK
  5
1C
330
1A
100
AcDbEntity
 67
     1
  8
0
100
AcDbBlockEnd
  0
BLOCK
  5
32
330
31
100
AcDbEntity
  8
0
100
AcDbBlockBegin
  2
QQ
 70
     0
 10
270.0
 20
0.0
 30
0.0
  3
QQ
  1

  0
LINE
  5
33
330
31
100
AcDbEntity
  8
11
100
AcDbLine
 10
172.9999999999998
 20
36.0
 30
0.0
 11
270.0
 21
36.0
 31
0.0
  0
TEXT
  5
34
330
31
100
AcDbEntity
  8
11
100
AcDbText
 10
175.0
 20
32.5
 30
0.0
 40
2.5
  1
部品名称
100
AcDbText
  0
LINE
  5
35
330
31
100
AcDbEntity
  8
11
100
AcDbLine
 10
172.9999999999998
 20
36.0
 30
0.0
 11
172.9999999999998
 21
0.0
 31
0.0
  0
LINE
  5
36
330
31
100
AcDbEntity
  8
11
100
AcDbLine
 10
172.9999999999998
 20
24.0
 30
0.0
 11
270.0
 21
24.0
 31
0.0
  0
TEXT
  5
37
330
31
100
AcDbEntity
  8
11
100
AcDbText
 10
175.0
 20
20.5
 30
0.0
 40
2.5
  1
品番
100
AcDbText
  0
LINE
  5
38
330
31
100
AcDbEntity
  8
11
100
AcDbLine
 10
172.9999999999998
 20
12.0
 30
0.0
 11
270.0
 21
12.0
 31
0.0
  0
TEXT
  5
39
330
31
100
AcDbEntity
  8
11
100
AcDbText
 10
175.0
 20
8.5
 30
0.0
 40
2.5
  1
尺度
100
AcDbText
  0
TEXT
  5
3A
330
31
100
AcDbEntity
  8
11
100
AcDbText
 10
200.0
 20
8.5
 30
0.0
 40
2.5
  1
図番
100
AcDbText
  0
LINE
  5
3B
330
31
100
AcDbEntity
  8
11
100
AcDbLine
 10
198.0
 20
0.0
 30
0.0
 11
198.0
 21
12.0
 31
0.0
  0
ENDBLK
  5
3C
330
31
100
AcDbEntity
  8
0
100
AcDbBlockEnd
  0
BLOCK
  5
1D5
330
1D4
100
AcDbEntity
  8
0
100
AcDbBlockBegin
  2
*U1
 70
     1
 10
0.0
 20
0.0
 30
0.0
  3
*U1
  1

  0
ENDBLK
  5
1D6
330
1D4
100
AcDbEntity
  8
0
100
AcDbBlockEnd
  0
ENDSEC
  0
SECTION
  2
ENTITIES
  0
TEXT
  5
43
330
1E
100
AcDbEntity
  8
11
100
AcDbText
 10
562.7384362159244
 20
51.5371622568897
 30
0.0
 40
10.0
  1
ダイアル・インジケーター
  7
BIGFONT
100
AcDbText
  0
TEXT
  5
44
330
1E
100
AcDbEntity
  8
11
100
AcDbText
 10
561.8256410845967
 20
27.6790533570975
 30
0.0
 40
10.0
  1
ＭＤ－５３Ｒ
  7
BIGFONT
100
AcDbText
  0
LINE
  5
45
330
1E
100
AcDbEntity
  8
1
100
AcDbLine
 10
174.0
 20
274.0
 30
0.0
 11
237.0
 21
274.0
 31
0.0
  0
LINE
  5
46
330
1E
100
AcDbEntity
  8
1
100
AcDbLine
 10
206.0
 20
274.0
 30
0.0
 11
206.0
 21
305.5
 31
0.0
  0
LINE
  5
47
330
1E
100
AcDbEntity
  8
1
100
AcDbLine
 10
206.0
 20
274.0
 30
0.0
 11
206.0
 21
242.4999999999998
 31
0.0
  0
CIRCLE
  5
49
330
1E
100
AcDbEntity
  8
0
100
AcDbCircle
 10
206.0
 20
273.9999999999998
 30
0.0
 40
20.5
  0
LINE
  5
4A
330
1E
100
AcDbEntity
  8
1
100
AcDbLine
 10
200.0
 20
297.4999999999998
 30
0.0
 11
212.0
 21
297.5
 31
0.0
  0
CIRCLE
  5
4B
330
1E
100
AcDbEntity
  8
0
100
AcDbCircle
 10
206.0
 20
297.4999999999998
 30
0.0
 40
2.5
  0
LINE
  5
4C
330
1E
100
AcDbEntity
  8
0
100
AcDbLine
 10
206.4999999999999
 20
289.0
 30
0.0
 11
205.5
 21
289.0
 31
0.0
  0
LINE
  5
4D
330
1E
100
AcDbEntity
  8
0
100
AcDbLine
 10
205.5
 20
289.0
 30
0.0
 11
205.5
 21
276.9581745673982
 31
0.0
  0
LINE
  5
4E
330
1E
100
AcDbEntity
  8
0
100
AcDbLine
 10
205.5
 20
299.0
 30
0.0
 11
206.4999999999999
 21
299.0
 31
0.0
  0
LINE
  5
4F
330
1E
100
AcDbEntity
  8
0
100
AcDbLine
 10
206.4999999999999
 20
299.0
 30
0.0
 11
206.4999999999999
 21
298.0
 31
0.0
  0
LINE
  5
50
330
1E
100
AcDbEntity
  8
0
100
AcDbLine
 10
206.4999999999999
 20
298.0
 30
0.0
 11
207.5
 21
298.0
 31
0.0
  0
LINE
  5
51
330
1E
100
AcDbEntity
  8
0
100
AcDbLine
 10
207.5
 20
298.0
 30
0.0
 11
207.5
 21
297.0
 31
0.0
  0
LINE
  5
52
330
1E
100
AcDbEntity
  8
0
100
AcDbLine
 10
207.5
 20
297.0
 30
0.0
 11
206.4999999999999
 21
297.0
 31
0.0
  0
LINE
  5
53
330
1E
100
AcDbEntity
  8
0
100
AcDbLine
 10
206.4999999999999
 20
297.0
 30
0.0
 11
206.4999999999999
 21
295.9999999999999
 31
0.0
  0
LINE
  5
54
330
1E
100
AcDbEntity
  8
0
100
AcDbLine
 10
206.4999999999999
 20
295.9999999999999
 30
0.0
 11
205.5
 21
295.9999999999999
 31
0.0
  0
LINE
  5
55
330
1E
100
AcDbEntity
  8
0
100
AcDbLine
 10
205.5
 20
295.9999999999999
 30
0.0
 11
205.5
 21
297.0
 31
0.0
  0
LINE
  5
56
330
1E
100
AcDbEntity
  8
0
100
AcDbLine
 10
205.5
 20
297.0
 30
0.0
 11
204.4999999999999
 21
296.9999999999998
 31
0.0
  0
LINE
  5
57
330
1E
100
AcDbEntity
  8
0
100
AcDbLine
 10
204.4999999999999
 20
296.9999999999998
 30
0.0
 11
204.4999999999999
 21
298.0
 31
0.0
  0
LINE
  5
58
330
1E
100
AcDbEntity
  8
0
100
AcDbLine
 10
204.4999999999999
 20
298.0
 30
0.0
 11
205.5
 21
297.9999999999999
 31
0.0
  0
LINE
  5
59
330
1E
100
AcDbEntity
  8
0
100
AcDbLine
 10
205.5
 20
297.9999999999999
 30
0.0
 11
205.5
 21
299.0
 31
0.0
  0
LINE
  5
5A
330
1E
100
AcDbEntity
  8
0
100
AcDbLine
 10
206.4999999999999
 20
276.9581745673982
 30
0.0
 11
206.4999999999999
 21
289.0
 31
0.0
  0
LINE
  5
5B
330
1E
100
AcDbEntity
  8
0
100
AcDbLine
 10
205.5000196233468
 20
276.957402679067
 30
0.0
 11
205.5000196233468
 21
276.9582193454504
 31
0.0
  0
LINE
  5
5C
330
1E
100
AcDbEntity
  8
0
100
AcDbLine
 10
208.9575496338201
 20
274.4999938270254
 30
0.0
 11
208.9599343943322
 21
274.4999938270256
 31
0.0
  0
ARC
  5
5D
330
1E
100
AcDbEntity
  8
0
100
AcDbCircle
 10
206.0
 20
273.9999999999998
 30
0.0
 40
3.0
100
AcDbArc
 50
99.61656667476736
 51
80.42720011824645
  0
LINE
  5
5E
330
1E
100
AcDbEntity
  8
11
100
AcDbLine
 10
206.0
 20
290.5
 30
0.0
 11
206.0
 21
294.4999999999998
 31
0.0
  0
LINE
  5
5F
330
1E
100
AcDbEntity
  8
11
100
AcDbLine
 10
221.6859470731737
 20
279.228649024391
 30
0.0
 11
225.4999999999999
 21
280.5
 31
0.0
  0
LINE
  5
60
330
1E
100
AcDbEntity
  8
11
100
AcDbLine
 10
215.7189188100325
 20
260.636486636205
 30
0.0
 11
218.0
 21
257.4999999999998
 31
0.0
  0
LINE
  5
61
330
1E
100
AcDbEntity
  8
11
100
AcDbLine
 10
196.3101324254726
 20
260.6764320850249
 30
0.0
 11
193.9999999999998
 21
257.5
 31
0.0
  0
LINE
  5
62
330
1E
100
AcDbEntity
  8
11
100
AcDbLine
 10
190.3219340069579
 20
279.2260219976806
 30
0.0
 11
186.5
 21
280.5
 31
0.0
  0
LINE
  5
63
330
1E
100
AcDbEntity
  8
11
100
AcDbLine
 10
210.1642769270305
 20
289.9613916090531
 30
0.0
 11
211.1581118228675
 21
293.7706934987117
 31
0.0
  0
LINE
  5
64
330
1E
100
AcDbEntity
  8
11
100
AcDbLine
 10
214.0140680825483
 20
288.392977516495
 30
0.0
 11
215.9502862623388
 21
291.870355602344
 31
0.0
  0
LINE
  5
65
330
1E
100
AcDbEntity
  8
11
100
AcDbLine
 10
217.3403534608951
 20
285.9955295763942
 30
0.0
 11
220.0198348415988
 21
288.8298149681556
 31
0.0
  0
LINE
  5
66
330
1E
100
AcDbEntity
  8
11
100
AcDbLine
 10
219.8929337617999
 20
282.9206965733124
 30
0.0
 11
223.1765846707743
 21
285.0291391754203
 31
0.0
  0
LINE
  5
67
330
1E
100
AcDbEntity
  8
11
100
AcDbLine
 10
222.4543871701341
 20
274.9881611329117
 30
0.0
 11
226.3713712491782
 21
275.2233939243323
 31
0.0
  0
LINE
  5
68
330
1E
100
AcDbEntity
  8
11
100
AcDbLine
 10
223.2146178012463
 20
277.2377516680244
 30
0.0
 11
226.1051393358743
 21
277.7318412269106
 31
0.0
  0
LINE
  5
69
330
1E
100
AcDbEntity
  8
11
100
AcDbLine
 10
221.8073919737824
 20
281.5325170196461
 30
0.0
 11
224.4316779763499
 21
282.7107256624787
 31
0.0
  0
LINE
  5
6A
330
1E
100
AcDbEntity
  8
11
100
AcDbLine
 10
219.4873710149908
 20
285.1051531177325
 30
0.0
 11
221.7693588433105
 21
287.0054910141003
 31
0.0
  0
LINE
  5
6B
330
1E
100
AcDbEntity
  8
11
100
AcDbLine
 10
216.3686506975308
 20
288.0696798096085
 30
0.0
 11
218.1181746992425
 21
290.4260992275622
 31
0.0
  0
LINE
  5
6C
330
1E
100
AcDbEntity
  8
11
100
AcDbLine
 10
212.5273045198595
 20
290.2360654379254
 30
0.0
 11
213.6682984340192
 21
292.9725524351525
 31
0.0
  0
LINE
  5
6D
330
1E
100
AcDbEntity
  8
11
100
AcDbLine
 10
208.2675902882396
 20
291.3382601384459
 30
0.0
 11
208.5718553320156
 21
294.2647809253096
 31
0.0
  0
LINE
  5
6E
330
1E
100
AcDbEntity
  8
11
100
AcDbLine
 10
222.1871762730132
 20
270.8706678689608
 30
0.0
 11
226.0803508540728
 21
270.118032813731
 31
0.0
  0
LINE
  5
6F
330
1E
100
AcDbEntity
  8
11
100
AcDbLine
 10
220.9609222855953
 20
266.9467313338194
 30
0.0
 11
224.4705940834
 21
265.2921102050224
 31
0.0
  0
LINE
  5
70
330
1E
100
AcDbEntity
  8
11
100
AcDbLine
 10
218.6735853597579
 20
263.4646901483506
 30
0.0
 11
221.7614880479939
 21
260.8977755232593
 31
0.0
  0
LINE
  5
71
330
1E
100
AcDbEntity
  8
11
100
AcDbLine
 10
212.0246794077419
 20
258.6376374413245
 30
0.0
 11
213.4771267673614
 21
254.9340340749463
 31
0.0
  0
LINE
  5
72
330
1E
100
AcDbEntity
  8
11
100
AcDbLine
 10
208.0769842221652
 20
257.6043120111481
 30
0.0
 11
208.5693294400014
 21
253.7177448970142
 31
0.0
  0
LINE
  5
73
330
1E
100
AcDbEntity
  8
11
100
AcDbLine
 10
223.4497718340084
 20
272.8252584198854
 30
0.0
 11
226.3551881702561
 21
272.6290815079224
 31
0.0
  0
LINE
  5
74
330
1E
100
AcDbEntity
  8
11
100
AcDbLine
 10
222.6645233931292
 20
268.5486281794694
 30
0.0
 11
225.4128893174499
 21
267.6069841195393
 31
0.0
  0
LINE
  5
75
330
1E
100
AcDbEntity
  8
11
100
AcDbLine
 10
220.7406657986024
 20
264.5858792923633
 30
0.0
 11
223.2534579144104
 21
263.0164725258134
 31
0.0
  0
LINE
  5
76
330
1E
100
AcDbEntity
  8
11
100
AcDbLine
 10
217.9137764776965
 20
261.2116568765693
 30
0.0
 11
219.9554209764796
 21
259.0929598740152
 31
0.0
  0
LINE
  5
77
330
1E
100
AcDbEntity
  8
11
100
AcDbLine
 10
214.3801621124966
 20
258.6221378440502
 30
0.0
 11
215.7936085823279
 21
255.9933847085115
 31
0.0
  0
LINE
  5
78
330
1E
100
AcDbEntity
  8
11
100
AcDbLine
 10
210.2968731149302
 20
257.0527332097885
 30
0.0
 11
211.0428580481385
 21
254.1885669269791
 31
0.0
  0
LINE
  5
79
330
1E
100
AcDbEntity
  8
11
100
AcDbLine
 10
206.0
 20
256.4999999999999
 30
0.0
 11
206.0
 21
253.4999999999998
 31
0.0
  0
LINE
  5
7A
330
1E
100
AcDbEntity
  8
11
100
AcDbLine
 10
201.8257897256554
 20
289.9378542663686
 30
0.0
 11
200.8254873378731
 21
293.7571811883403
 31
0.0
  0
LINE
  5
7B
330
1E
100
AcDbEntity
  8
11
100
AcDbLine
 10
197.9577300275884
 20
288.4161127009963
 30
0.0
 11
196.0189428164698
 21
291.8914716524637
 31
0.0
  0
LINE
  5
7C
330
1E
100
AcDbEntity
  8
11
100
AcDbLine
 10
194.6507163597154
 20
285.9997982760797
 30
0.0
 11
192.0068673274246
 21
288.7951866076645
 31
0.0
  0
LINE
  5
7D
330
1E
100
AcDbEntity
  8
11
100
AcDbLine
 10
192.1469101417271
 20
282.8733808135196
 30
0.0
 11
188.7892608707375
 21
285.0240707263509
 31
0.0
  0
LINE
  5
7E
330
1E
100
AcDbEntity
  8
11
100
AcDbLine
 10
189.5816704251404
 20
275.2719326669228
 30
0.0
 11
185.6511042122912
 21
275.5764347505747
 31
0.0
  0
LINE
  5
7F
330
1E
100
AcDbEntity
  8
11
100
AcDbLine
 10
203.8047480185938
 20
291.3754237896159
 30
0.0
 11
203.4472365921569
 21
294.2732269188999
 31
0.0
  0
LINE
  5
80
330
1E
100
AcDbEntity
  8
11
100
AcDbLine
 10
199.4748878116106
 20
290.2242397675262
 30
0.0
 11
198.3626268238015
 21
292.9632620554321
 31
0.0
  0
LINE
  5
81
330
1E
100
AcDbEntity
  8
11
100
AcDbLine
 10
195.6614313900331
 20
288.1203557711501
 30
0.0
 11
193.9135937288352
 21
290.4624163603139
 31
0.0
  0
LINE
  5
82
330
1E
100
AcDbEntity
  8
11
100
AcDbLine
 10
192.5232711128304
 20
285.103462213184
 30
0.0
 11
190.2590332849831
 21
287.0485653681819
 31
0.0
  0
LINE
  5
83
330
1E
100
AcDbEntity
  8
11
100
AcDbLine
 10
190.219310195241
 20
281.491131437825
 30
0.0
 11
187.518111142716
 21
282.7217048144595
 31
0.0
  0
LINE
  5
84
330
1E
100
AcDbEntity
  8
11
100
AcDbLine
 10
188.8289875792363
 20
277.4421442864511
 30
0.0
 11
185.9291694592434
 21
277.9581921492991
 31
0.0
  0
LINE
  5
85
330
1E
100
AcDbEntity
  8
11
100
AcDbLine
 10
189.8073275825534
 20
270.917308301168
 30
0.0
 11
185.8723730764882
 21
270.16818849695
 31
0.0
  0
LINE
  5
86
330
1E
100
AcDbEntity
  8
11
100
AcDbLine
 10
191.0998155030681
 20
266.9070403900067
 30
0.0
 11
187.593435558584
 21
265.2378925127681
 31
0.0
  0
LINE
  5
87
330
1E
100
AcDbEntity
  8
11
100
AcDbLine
 10
193.3412471351051
 20
263.3594271813681
 30
0.0
 11
190.347139148694
 21
260.8426686668224
 31
0.0
  0
LINE
  5
88
330
1E
100
AcDbEntity
  8
11
100
AcDbLine
 10
200.0148520102239
 20
258.6292558922226
 30
0.0
 11
198.5700032819202
 21
254.9186709384105
 31
0.0
  0
LINE
  5
89
330
1E
100
AcDbEntity
  8
11
100
AcDbLine
 10
203.8601395853888
 20
257.6306488423329
 30
0.0
 11
203.3507388321982
 21
253.7338713927281
 31
0.0
  0
LINE
  5
8A
330
1E
100
AcDbEntity
  8
11
100
AcDbLine
 10
201.7061660055531
 20
257.0589552267783
 30
0.0
 11
200.979494375611
 21
254.2307243971314
 31
0.0
  0
LINE
  5
8B
330
1E
100
AcDbEntity
  8
11
100
AcDbLine
 10
197.652102085217
 20
258.5877291092444
 30
0.0
 11
196.3134951178874
 21
256.0652513502601
 31
0.0
  0
LINE
  5
8C
330
1E
100
AcDbEntity
  8
11
100
AcDbLine
 10
194.0569905726109
 20
261.1102047359403
 30
0.0
 11
192.1446949049972
 21
259.0463608475266
 31
0.0
  0
LINE
  5
8D
330
1E
100
AcDbEntity
  8
11
100
AcDbLine
 10
191.2650403453974
 20
264.5881651053219
 30
0.0
 11
188.9320425259137
 21
262.9065125552362
 31
0.0
  0
LINE
  5
8E
330
1E
100
AcDbEntity
  8
11
100
AcDbLine
 10
189.3527482965401
 20
268.601195480651
 30
0.0
 11
186.6372913435338
 21
267.6457107379657
 31
0.0
  0
LINE
  5
8F
330
1E
100
AcDbEntity
  8
11
100
AcDbLine
 10
188.4730901181839
 20
273.0346384604296
 30
0.0
 11
185.5664035984163
 21
272.8817619250983
 31
0.0
  0
TEXT
  5
90
330
1E
100
AcDbEntity
  8
0
100
AcDbText
 10
216.7986100096227
 20
276.5825516325829
 30
0.0
 40
2.2
  1
２
 41
1.5
  7
EXTFONT
100
AcDbText
  0
TEXT
  5
91
330
1E
100
AcDbEntity
  8
0
100
AcDbText
 10
219.2056873927496
 20
276.6486321999698
 30
0.0
 40
2.2
  1
０
 41
1.5
  7
EXTFONT
100
AcDbText
  0
TEXT
  5
92
330
1E
100
AcDbEntity
  8
0
100
AcDbText
 10
211.0818071051753
 20
260.9292403032635
 30
0.0
 40
2.2
  1
１
 41
1.5
  7
EXTFONT
100
AcDbText
  0
TEXT
  5
93
330
1E
100
AcDbEntity
  8
0
100
AcDbText
 10
213.4136577788587
 20
260.9201513144682
 30
0.0
 40
2.2
  1
５
 41
1.5
  7
EXTFONT
100
AcDbText
  0
TEXT
  5
94
330
1E
100
AcDbEntity
  8
0
100
AcDbText
 10
194.9844854738876
 20
260.8358949017792
 30
0.0
 40
2.2
  1
１
 41
1.5
  7
EXTFONT
100
AcDbText
  0
TEXT
  5
95
330
1E
100
AcDbEntity
  8
0
100
AcDbText
 10
196.7897926065439
 20
260.9019754691661
 30
0.0
 40
2.2
  1
０
 41
1.5
  7
EXTFONT
100
AcDbText
  0
TEXT
  5
96
330
1E
100
AcDbEntity
  8
0
100
AcDbText
 10
190.8473240487916
 20
277.354880685527
 30
0.0
 40
2.2
  1
５
 41
1.5
  7
EXTFONT
100
AcDbText
  0
TEXT
  5
97
330
1E
100
AcDbEntity
  8
0
100
AcDbText
 10
196.639350043926
 20
280.0518765286951
 30
0.0
 40
2.2
  1
Ｍ
 41
1.5
  7
EXTFONT
100
AcDbText
  0
TEXT
  5
98
330
1E
100
AcDbEntity
  8
0
100
AcDbText
 10
199.3473089335321
 20
279.9494442707039
 30
0.0
 40
2.2
  1
Ｉ
 41
1.5
  7
EXTFONT
100
AcDbText
  0
TEXT
  5
99
330
1E
100
AcDbEntity
  8
0
100
AcDbText
 10
201.7543863166592
 20
280.0906943942728
 30
0.0
 40
2.2
  1
Ｙ
 41
1.5
  7
EXTFONT
100
AcDbText
  0
TEXT
  5
9A
330
1E
100
AcDbEntity
  8
0
100
AcDbText
 10
207.4711892211066
 20
280.0725185489707
 30
0.0
 40
2.2
  1
Ｓ
 41
1.5
  7
EXTFONT
100
AcDbText
  0
TEXT
  5
9B
330
1E
100
AcDbEntity
  8
0
100
AcDbText
 10
210.4048137640174
 20
280.1245777776159
 30
0.0
 40
2.2
  1
Ｈ
 41
1.5
  7
EXTFONT
100
AcDbText
  0
TEXT
  5
9C
330
1E
100
AcDbEntity
  8
0
100
AcDbText
 10
212.6614485845267
 20
280.0312345084197
 30
0.0
 40
2.2
  1
Ｉ
 41
1.5
  7
EXTFONT
100
AcDbText
  0
TEXT
  5
9D
330
1E
100
AcDbEntity
  8
0
100
AcDbText
 10
195.2101511271924
 20
265.4666379948137
 30
0.0
 40
2.2
  1
Ｍ
 41
1.5
  7
EXTFONT
100
AcDbText
  0
TEXT
  5
9E
330
1E
100
AcDbEntity
  8
0
100
AcDbText
 10
198.218995142034
 20
265.4575490060185
 30
0.0
 40
2.2
  1
Ｄ
 41
1.5
  7
EXTFONT
100
AcDbText
  0
TEXT
  5
9F
330
1E
100
AcDbEntity
  8
0
100
AcDbText
 10
201.7543863166592
 20
265.4484621495114
 30
0.0
 40
2.2
  1
５
 41
1.5
  7
EXTFONT
100
AcDbText
  0
TEXT
  5
A0
330
1E
100
AcDbEntity
  8
0
100
AcDbText
 10
204.6127877688828
 20
265.4393752930044
 30
0.0
 40
2.2
  1
３
 41
1.5
  7
EXTFONT
100
AcDbText
  0
TEXT
  5
A1
330
1E
100
AcDbEntity
  8
0
100
AcDbText
 10
210.4800368547044
 20
265.4963690038844
 30
0.0
 40
2.2
  1
１
 41
1.5
  7
EXTFONT
100
AcDbText
  0
TEXT
  5
A2
330
1E
100
AcDbEntity
  8
0
100
AcDbText
 10
212.661452203283
 20
265.4872800150891
 30
0.0
 40
2.2
  1
／
 41
1.5
  7
EXTFONT
100
AcDbText
  0
TEXT
  5
A3
330
1E
100
AcDbEntity
  8
0
100
AcDbText
 10
215.4446305648196
 20
265.4781931585822
 30
0.0
 40
2.2
  1
２
 41
1.5
  7
EXTFONT
100
AcDbText
  0
TEXT
  5
A4
330
1E
100
AcDbEntity
  8
0
100
AcDbText
 10
218.077369982495
 20
265.4691041697869
 30
0.0
 40
2.2
  1
５
 41
1.5
  7
EXTFONT
100
AcDbText
  0
LINE
  5
A5
330
1E
100
AcDbEntity
  8
0
100
AcDbLine
 10
206.8999999999999
 20
289.6999999999998
 30
0.0
 11
206.8999999999999
 21
288.5
 31
0.0
  0
LINE
  5
A6
330
1E
100
AcDbEntity
  8
0
100
AcDbLine
 10
205.1
 20
288.5
 30
0.0
 11
205.1
 21
289.6999999999998
 31
0.0
  0
ARC
  5
A7
330
1E
100
AcDbEntity
  8
0
100
AcDbCircle
 10
206.0
 20
288.4999999999998
 30
0.0
 40
1.499999999999948
100
AcDbArc
 50
53.1301023541542
 51
126.8698976458447
  0
ARC
  5
A8
330
1E
100
AcDbEntity
  8
0
100
AcDbCircle
 10
206.0
 20
289.6999999999998
 30
0.0
 40
1.499999999999903
100
AcDbArc
 50
233.1301023541537
 51
250.3017793333133
  0
ARC
  5
A9
330
1E
100
AcDbEntity
  8
0
100
AcDbCircle
 10
206.0
 20
289.6999999999998
 30
0.0
 40
1.499999999999903
100
AcDbArc
 50
289.3361042212379
 51
306.869897645847
  0
LINE
  5
AA
330
1E
100
AcDbEntity
  8
0
100
AcDbLine
 10
206.8999999999999
 20
281.7999999999999
 30
0.0
 11
206.8999999999999
 21
280.6
 31
0.0
  0
LINE
  5
AB
330
1E
100
AcDbEntity
  8
0
100
AcDbLine
 10
205.1
 20
280.6
 30
0.0
 11
205.1
 21
281.7999999999999
 31
0.0
  0
ARC
  5
AC
330
1E
100
AcDbEntity
  8
0
100
AcDbCircle
 10
206.0
 20
280.6
 30
0.0
 40
1.499999999999886
100
AcDbArc
 50
53.13010235415378
 51
70.4936763127713
  0
ARC
  5
AD
330
1E
100
AcDbEntity
  8
0
100
AcDbCircle
 10
206.0
 20
281.7999999999999
 30
0.0
 40
1.49999999999993
100
AcDbArc
 50
233.130102354155
 51
250.4710960001137
  0
ARC
  5
AE
330
1E
100
AcDbEntity
  8
0
100
AcDbCircle
 10
206.0
 20
280.6
 30
0.0
 40
1.499999999999886
100
AcDbArc
 50
109.4016673413535
 51
126.8698976458469
  0
ARC
  5
AF
330
1E
100
AcDbEntity
  8
0
100
AcDbCircle
 10
206.0
 20
281.7999999999999
 30
0.0
 40
1.49999999999993
100
AcDbArc
 50
289.5790168239396
 51
306.8698976458458
  0
POLYLINE
  5
B0
330
1E
100
AcDbEntity
  8
0
100
AcDb2dPolyline
 66
     1
 10
0.0
 20
0.0
 30
0.0
 70
   129
  0
VERTEX
  5
B1
330
B0
100
AcDbEntity
  8
0
100
AcDbVertex
100
AcDb2dVertex
 10
483.1287862767998
 20
278.0
 30
0.0
  0
VERTEX
  5
B2
330
B0
100
AcDbEntity
  8
0
100
AcDbVertex
100
AcDb2dVertex
 10
479.6646846616621
 20
276.0
 30
0.0
  0
VERTEX
  5
B3
330
B0
100
AcDbEntity
  8
0
100
AcDbVertex
100
AcDb2dVertex
 10
479.6646846616621
 20
272.0
 30
0.0
  0
VERTEX
  5
B4
330
B0
100
AcDbEntity
  8
0
100
AcDbVertex
100
AcDb2dVertex
 10
483.1287862767998
 20
270.0
 30
0.0
  0
VERTEX
  5
B5
330
B0
100
AcDbEntity
  8
0
100
AcDbVertex
100
AcDb2dVertex
 10
486.5928878919374
 20
272.0
 30
0.0
  0
VERTEX
  5
B6
330
B0
100
AcDbEntity
  8
0
100
AcDbVertex
100
AcDb2dVertex
 10
486.5928878919374
 20
276.0
 30
0.0
  0
SEQEND
  5
B7
330
B0
100
AcDbEntity
  8
0
  0
CIRCLE
  5
B8
330
1E
100
AcDbEntity
  8
0
100
AcDbCircle
 10
483.1287862767998
 20
274.0
 30
0.0
 40
4.5
  0
CIRCLE
  5
B9
330
1E
100
AcDbEntity
  8
0
100
AcDbCircle
 10
483.1287862767998
 20
274.0
 30
0.0
 40
26.2
  0
LINE
  5
BB
330
1E
100
AcDbEntity
  8
1
100
AcDbLine
 10
483.1287862767998
 20
305.0
 30
0.0
 11
483.1287862767998
 21
243.0
 31
0.0
  0
LINE
  5
BC
330
1E
100
AcDbEntity
  8
1
100
AcDbLine
 10
451.1287862767998
 20
274.0
 30
0.0
 11
514.1287862767999
 21
274.0
 31
0.0
  0
CIRCLE
  5
BD
330
1E
100
AcDbEntity
  8
0
100
AcDbCircle
 10
483.1287862767998
 20
274.0
 30
0.0
 40
3.410447259576498
  0
CIRCLE
  5
BE
330
1E
100
AcDbEntity
  8
0
100
AcDbCircle
 10
483.1287862767998
 20
274.0
 30
0.0
 40
1.5
  0
CIRCLE
  5
BF
330
1E
100
AcDbEntity
  8
0
100
AcDbCircle
 10
483.1287862767998
 20
274.0
 30
0.0
 40
2.0
  0
LINE
  5
C0
330
1E
100
AcDbEntity
  8
1
100
AcDbLine
 10
336.0535791311608
 20
274.051663248889
 30
0.0
 11
375.0535791311607
 21
274.051663248889
 31
0.0
  0
LINE
  5
C1
330
1E
100
AcDbEntity
  8
0
100
AcDbLine
 10
345.0535791311608
 20
274.051663248889
 30
0.0
 11
345.0535791311608
 21
248.101663248889
 31
0.0
  0
LINE
  5
C2
330
1E
100
AcDbEntity
  8
0
100
AcDbLine
 10
346.0535791311606
 20
247.101663248889
 30
0.0
 11
365.0535791311607
 21
247.101663248889
 31
0.0
  0
LINE
  5
C3
330
1E
100
AcDbEntity
  8
0
100
AcDbLine
 10
345.0535791311608
 20
274.051663248889
 30
0.0
 11
345.0535791311608
 21
300.0016632488889
 31
0.0
  0
LINE
  5
C4
330
1E
100
AcDbEntity
  8
0
100
AcDbLine
 10
346.0535791311606
 20
301.0016632488889
 30
0.0
 11
365.0535791311607
 21
301.0016632488889
 31
0.0
  0
LINE
  5
C5
330
1E
100
AcDbEntity
  8
0
100
AcDbLine
 10
367.0535791311607
 20
274.051663248889
 30
0.0
 11
367.0535791311607
 21
297.5016632488889
 31
0.0
  0
LINE
  5
C6
330
1E
100
AcDbEntity
  8
0
100
AcDbLine
 10
367.0535791311607
 20
274.051663248889
 30
0.0
 11
367.0535791311607
 21
250.601663248889
 31
0.0
  0
LINE
  5
C7
330
1E
100
AcDbEntity
  8
0
100
AcDbLine
 10
367.0535791311607
 20
297.5016632488889
 30
0.0
 11
367.0535791311607
 21
298.0016632488889
 31
0.0
  0
LINE
  5
C8
330
1E
100
AcDbEntity
  8
0
100
AcDbLine
 10
367.0535791311607
 20
250.601663248889
 30
0.0
 11
367.0535791311607
 21
250.101663248889
 31
0.0
  0
ARC
  5
C9
330
1E
100
AcDbEntity
  8
0
100
AcDbCircle
 10
346.1921248422616
 20
299.8631175377882
 30
0.0
 40
1.146944310038823
100
AcDbArc
 50
96.93801533977005
 51
173.0619846602315
  0
ARC
  5
CA
330
1E
100
AcDbEntity
  8
0
100
AcDbCircle
 10
346.0415928819895
 20
248.0896769997176
 30
0.0
 40
0.988086454717308
100
AcDbArc
 50
179.3049410494325
 51
270.6950589505674
  0
ARC
  5
CB
330
1E
100
AcDbEntity
  8
0
100
AcDbCircle
 10
365.1973176040028
 20
298.1454017217311
 30
0.0
 40
1.861818360039842
100
AcDbArc
 50
355.5721722248311
 51
94.42782777516892
  0
LINE
  5
CC
330
1E
100
AcDbEntity
  8
0
100
AcDbLine
 10
365.0535791311607
 20
300.0016632488889
 30
0.0
 11
365.0535791311607
 21
301.0016632488889
 31
0.0
  0
LINE
  5
CD
330
1E
100
AcDbEntity
  8
0
100
AcDbLine
 10
365.0535791311607
 20
300.0016632488889
 30
0.0
 11
365.0535791311607
 21
247.101663248889
 31
0.0
  0
ARC
  5
CE
330
1E
100
AcDbEntity
  8
0
100
AcDbCircle
 10
364.9355251323017
 20
250.219717247748
 30
0.0
 40
2.121341436150544
100
AcDbArc
 50
273.1901946523993
 51
356.8098053475998
  0
LINE
  5
CF
330
1E
100
AcDbEntity
  8
1
100
AcDbLine
 10
339.0535791311608
 20
297.5516632488889
 30
0.0
 11
347.5535791311608
 21
297.5516632488889
 31
0.0
  0
LINE
  5
D0
330
1E
100
AcDbEntity
  8
2
100
AcDbLine
 10
346.5535791311608
 20
294.5516632488889
 30
0.0
 11
346.5535791311608
 21
253.551663248889
 31
0.0
  0
LINE
  5
D1
330
1E
100
AcDbEntity
  8
0
100
AcDbLine
 10
367.0535791311607
 20
278.551663248889
 30
0.0
 11
368.0535791311608
 21
278.551663248889
 31
0.0
  0
LINE
  5
D2
330
1E
100
AcDbEntity
  8
0
100
AcDbLine
 10
368.0535791311608
 20
278.551663248889
 30
0.0
 11
368.0535791311608
 21
269.5516632488889
 31
0.0
  0
LINE
  5
D3
330
1E
100
AcDbEntity
  8
0
100
AcDbLine
 10
368.0535791311608
 20
269.5516632488889
 30
0.0
 11
367.0535791311607
 21
269.5516632488889
 31
0.0
  0
LINE
  5
D4
330
1E
100
AcDbEntity
  8
0
100
AcDbLine
 10
368.0535791311608
 20
278.0516632488889
 30
0.0
 11
370.5535791311608
 21
278.0516632488889
 31
0.0
  0
LINE
  5
D5
330
1E
100
AcDbEntity
  8
0
100
AcDbLine
 10
370.5535791311608
 20
278.0516632488889
 30
0.0
 11
371.0535791311607
 21
277.5516632488889
 31
0.0
  0
LINE
  5
D6
330
1E
100
AcDbEntity
  8
0
100
AcDbLine
 10
371.0535791311607
 20
277.5516632488889
 30
0.0
 11
371.0535791311607
 21
270.5516632488889
 31
0.0
  0
LINE
  5
D7
330
1E
100
AcDbEntity
  8
0
100
AcDbLine
 10
371.0535791311607
 20
270.5516632488889
 30
0.0
 11
370.5535791311608
 21
270.051663248889
 31
0.0
  0
LINE
  5
D8
330
1E
100
AcDbEntity
  8
0
100
AcDbLine
 10
370.5535791311608
 20
270.051663248889
 30
0.0
 11
368.0535791311608
 21
270.051663248889
 31
0.0
  0
LINE
  5
D9
330
1E
100
AcDbEntity
  8
0
100
AcDbLine
 10
368.0535791311608
 20
276.051663248889
 30
0.0
 11
371.0535791311607
 21
276.051663248889
 31
0.0
  0
LINE
  5
DA
330
1E
100
AcDbEntity
  8
0
100
AcDbLine
 10
368.0535791311608
 20
272.051663248889
 30
0.0
 11
371.0535791311607
 21
272.051663248889
 31
0.0
  0
LINE
  5
DB
330
1E
100
AcDbEntity
  8
0
100
AcDbLine
 10
345.0535791311608
 20
300.0516632488889
 30
0.0
 11
344.0535791311606
 21
300.0516632488889
 31
0.0
  0
LINE
  5
DC
330
1E
100
AcDbEntity
  8
0
100
AcDbLine
 10
343.0535791311608
 20
299.0516632488889
 30
0.0
 11
343.0535791311608
 21
296.0516632488889
 31
0.0
  0
LINE
  5
DD
330
1E
100
AcDbEntity
  8
0
100
AcDbLine
 10
344.0535791311606
 20
295.0516632488889
 30
0.0
 11
345.0535791311608
 21
295.0516632488889
 31
0.0
  0
ARC
  5
DE
330
1E
100
AcDbEntity
  8
0
100
AcDbCircle
 10
344.0974040182457
 20
299.007838361804
 30
0.0
 40
1.044744473843147
100
AcDbArc
 50
92.40414581168485
 51
177.5958541883134
  0
ARC
  5
DF
330
1E
100
AcDbEntity
  8
0
100
AcDbCircle
 10
344.514821653492
 20
296.5129057712203
 30
0.0
 40
1.532310142717865
100
AcDbArc
 50
197.5183485505338
 51
252.4816514494673
  0
TEXT
  5
E0
330
1E
100
AcDbEntity
  8
11
100
AcDbText
 10
642.1516488290132
 20
26.90878354642177
 30
0.0
 40
10.0
  1
１／２５
  7
BIGFONT
100
AcDbText
  0
LINE
  5
E1
330
1E
100
AcDbEntity
  8
1
100
AcDbLine
 10
336.0535791311608
 20
405.0516632488889
 30
0.0
 11
375.0535791311607
 21
405.0516632488889
 31
0.0
  0
LINE
  5
E2
330
1E
100
AcDbEntity
  8
0
100
AcDbLine
 10
345.0535791311608
 20
405.0516632488889
 30
0.0
 11
345.0535791311608
 21
379.1016632488889
 31
0.0
  0
LINE
  5
E3
330
1E
100
AcDbEntity
  8
0
100
AcDbLine
 10
367.0535791311607
 20
405.0516632488889
 30
0.0
 11
367.0535791311607
 21
381.6016632488889
 31
0.0
  0
LINE
  5
E4
330
1E
100
AcDbEntity
  8
0
100
AcDbLine
 10
365.0535791311607
 20
431.0016632488888
 30
0.0
 11
365.0535791311607
 21
378.1016632488889
 31
0.0
  0
LINE
  5
E5
330
1E
100
AcDbEntity
  8
2
100
AcDbLine
 10
346.5535791311608
 20
425.5516632488889
 30
0.0
 11
346.5535791311608
 21
384.5516632488889
 31
0.0
  0
LINE
  5
E6
330
1E
100
AcDbEntity
  8
0
100
AcDbLine
 10
368.0535791311608
 20
409.5516632488889
 30
0.0
 11
368.0535791311608
 21
400.5516632488889
 31
0.0
  0
ARC
  5
E7
330
1E
100
AcDbEntity
  8
0
100
AcDbCircle
 10
346.0415928819895
 20
379.0896769997177
 30
0.0
 40
0.988086454717308
100
AcDbArc
 50
179.3049410494325
 51
270.6950589505674
  0
ARC
  5
E8
330
1E
100
AcDbEntity
  8
0
100
AcDbCircle
 10
364.9355251323017
 20
381.219717247748
 30
0.0
 40
2.121341436150544
100
AcDbArc
 50
273.1901946523993
 51
356.8098053475998
  0
LINE
  5
E9
330
1E
100
AcDbEntity
  8
0
100
AcDbLine
 10
346.0535791311606
 20
378.1016632488889
 30
0.0
 11
365.0535791311607
 21
378.1016632488889
 31
0.0
  0
LINE
  5
EA
330
1E
100
AcDbEntity
  8
0
100
AcDbLine
 10
367.0535791311607
 20
381.6016632488889
 30
0.0
 11
367.0535791311607
 21
381.1016632488889
 31
0.0
  0
LINE
  5
EB
330
1E
100
AcDbEntity
  8
0
100
AcDbLine
 10
368.0535791311608
 20
400.5516632488889
 30
0.0
 11
367.0535791311607
 21
400.5516632488889
 31
0.0
  0
ARC
  5
EC
330
1E
100
AcDbEntity
  8
0
100
AcDbCircle
 10
346.1921248422616
 20
430.8631175377881
 30
0.0
 40
1.146944310038823
100
AcDbArc
 50
96.93801533977005
 51
173.0619846602315
  0
LINE
  5
ED
330
1E
100
AcDbEntity
  8
0
100
AcDbLine
 10
345.0535791311608
 20
405.0516632488889
 30
0.0
 11
345.0535791311608
 21
431.0016632488888
 31
0.0
  0
LINE
  5
EE
330
1E
100
AcDbEntity
  8
0
100
AcDbLine
 10
367.0535791311607
 20
405.0516632488889
 30
0.0
 11
367.0535791311607
 21
428.5016632488889
 31
0.0
  0
LINE
  5
EF
330
1E
100
AcDbEntity
  8
0
100
AcDbLine
 10
367.0535791311607
 20
409.5516632488889
 30
0.0
 11
368.0535791311608
 21
409.5516632488889
 31
0.0
  0
LINE
  5
F0
330
1E
100
AcDbEntity
  8
0
100
AcDbLine
 10
370.5535791311608
 20
409.0516632488889
 30
0.0
 11
371.0535791311607
 21
408.5516632488888
 31
0.0
  0
LINE
  5
F1
330
1E
100
AcDbEntity
  8
0
100
AcDbLine
 10
371.0535791311607
 20
408.5516632488888
 30
0.0
 11
371.0535791311607
 21
401.5516632488889
 31
0.0
  0
LINE
  5
F2
330
1E
100
AcDbEntity
  8
0
100
AcDbLine
 10
368.0535791311608
 20
409.0516632488889
 30
0.0
 11
370.5535791311608
 21
409.0516632488889
 31
0.0
  0
LINE
  5
F3
330
1E
100
AcDbEntity
  8
0
100
AcDbLine
 10
368.0535791311608
 20
407.0516632488889
 30
0.0
 11
371.0535791311607
 21
407.0516632488889
 31
0.0
  0
LINE
  5
F4
330
1E
100
AcDbEntity
  8
0
100
AcDbLine
 10
368.0535791311608
 20
403.0516632488889
 30
0.0
 11
371.0535791311607
 21
403.0516632488889
 31
0.0
  0
LINE
  5
F5
330
1E
100
AcDbEntity
  8
0
100
AcDbLine
 10
370.5535791311608
 20
401.0516632488889
 30
0.0
 11
368.0535791311608
 21
401.0516632488889
 31
0.0
  0
LINE
  5
F6
330
1E
100
AcDbEntity
  8
0
100
AcDbLine
 10
371.0535791311607
 20
401.5516632488889
 30
0.0
 11
370.5535791311608
 21
401.0516632488889
 31
0.0
  0
LINE
  5
F7
330
1E
100
AcDbEntity
  8
0
100
AcDbLine
 10
346.0535791311606
 20
432.0016632488889
 30
0.0
 11
365.0535791311607
 21
432.0016632488889
 31
0.0
  0
LINE
  5
F8
330
1E
100
AcDbEntity
  8
0
100
AcDbLine
 10
367.0535791311607
 20
428.5016632488889
 30
0.0
 11
367.0535791311607
 21
429.0016632488889
 31
0.0
  0
ARC
  5
F9
330
1E
100
AcDbEntity
  8
0
100
AcDbCircle
 10
365.1973176040028
 20
429.1454017217311
 30
0.0
 40
1.861818360039842
100
AcDbArc
 50
355.5721722248311
 51
94.42782777516892
  0
LINE
  5
FA
330
1E
100
AcDbEntity
  8
0
100
AcDbLine
 10
365.0535791311607
 20
431.0016632488888
 30
0.0
 11
365.0535791311607
 21
432.0016632488889
 31
0.0
  0
LINE
  5
FB
330
1E
100
AcDbEntity
  8
0
100
AcDbLine
 10
345.0
 20
407.5
 30
0.0
 11
343.9999999999998
 21
407.5
 31
0.0
  0
LINE
  5
FC
330
1E
100
AcDbEntity
  8
0
100
AcDbLine
 10
344.5
 20
402.5
 30
0.0
 11
343.9999999999998
 21
402.5
 31
0.0
  0
LINE
  5
FD
330
1E
100
AcDbEntity
  8
0
100
AcDbLine
 10
344.5
 20
402.5
 30
0.0
 11
345.0
 21
402.5
 31
0.0
  0
LINE
  5
FE
330
1E
100
AcDbEntity
  8
0
100
AcDbLine
 10
343.0
 20
403.5
 30
0.0
 11
343.0
 21
406.5
 31
0.0
  0
ARC
  5
FF
330
1E
100
AcDbEntity
  8
0
100
AcDbCircle
 10
344.1852565627044
 20
406.3147434372956
 30
0.0
 40
1.199647078710619
100
AcDbArc
 50
98.88350103618634
 51
171.1164989638136
  0
ARC
  5
100
330
1E
100
AcDbEntity
  8
0
100
AcDbCircle
 10
344.0944061438891
 20
403.5944061438891
 30
0.0
 40
1.098470449209488
100
AcDbArc
 50
184.930268839272
 51
265.0697311607278
  0
LINE
  5
121
330
1E
100
AcDbEntity
  8
0
100
AcDbLine
 10
208.8008971739955
 20
275.1853164221859
 30
0.0
 11
216.3998485035135
 21
280.0077575769968
 31
0.0
  0
LINE
  5
122
330
1E
100
AcDbEntity
  8
0
100
AcDbLine
 10
208.2650703790164
 20
276.0296443476879
 30
0.0
 11
215.8640217085345
 21
280.8520855024988
 31
0.0
  0
LINE
  5
123
330
1E
100
AcDbEntity
  8
0
100
AcDbLine
 10
215.8640217085345
 20
280.8520855024988
 30
0.0
 11
216.3998485035135
 21
280.0077575769968
 31
0.0
  0
CIRCLE
  5
202
330
1E
100
AcDbEntity
  8
0
100
AcDbCircle
 10
206.0
 20
273.9999999999998
 30
0.0
 40
26.95
  0
CIRCLE
  5
203
330
1E
100
AcDbEntity
  8
0
100
AcDbCircle
 10
483.1287862767998
 20
274.0
 30
0.0
 40
26.95
  0
LINE
  5
204
330
1E
100
AcDbEntity
  8
1
100
AcDbLine
 10
336.0535791311608
 20
159.8713375307741
 30
0.0
 11
375.0535791311607
 21
159.8713375307741
 31
0.0
  0
LINE
  5
205
330
1E
100
AcDbEntity
  8
0
100
AcDbLine
 10
345.0535791311608
 20
159.8713375307741
 30
0.0
 11
345.0535791311608
 21
133.9213375307741
 31
0.0
  0
LINE
  5
206
330
1E
100
AcDbEntity
  8
0
100
AcDbLine
 10
365.0535791311607
 20
185.8213375307741
 30
0.0
 11
365.0535791311607
 21
132.9213375307741
 31
0.0
  0
LINE
  5
207
330
1E
100
AcDbEntity
  8
0
100
AcDbLine
 10
367.0535791311607
 20
159.8713375307741
 30
0.0
 11
367.0535791311607
 21
136.4213375307741
 31
0.0
  0
LINE
  5
208
330
1E
100
AcDbEntity
  8
2
100
AcDbLine
 10
346.5535791311608
 20
180.3713375307741
 30
0.0
 11
346.5535791311608
 21
139.3713375307741
 31
0.0
  0
ARC
  5
209
330
1E
100
AcDbEntity
  8
0
100
AcDbCircle
 10
346.0415928819895
 20
133.9093512816029
 30
0.0
 40
0.988086454717308
100
AcDbArc
 50
179.3049410494325
 51
270.6950589505674
  0
LINE
  5
20A
330
1E
100
AcDbEntity
  8
0
100
AcDbLine
 10
346.0535791311606
 20
132.9213375307741
 30
0.0
 11
365.0535791311607
 21
132.9213375307741
 31
0.0
  0
ARC
  5
20B
330
1E
100
AcDbEntity
  8
0
100
AcDbCircle
 10
364.9355251323017
 20
136.0393915296332
 30
0.0
 40
2.121341436150544
100
AcDbArc
 50
273.1901946523993
 51
356.8098053475998
  0
LINE
  5
20C
330
1E
100
AcDbEntity
  8
0
100
AcDbLine
 10
367.0535791311607
 20
136.4213375307741
 30
0.0
 11
367.0535791311607
 21
135.9213375307741
 31
0.0
  0
ARC
  5
20D
330
1E
100
AcDbEntity
  8
0
100
AcDbCircle
 10
346.1921248422616
 20
185.6827918196733
 30
0.0
 40
1.146944310038823
100
AcDbArc
 50
96.93801533977005
 51
173.0619846602315
  0
LINE
  5
20E
330
1E
100
AcDbEntity
  8
0
100
AcDbLine
 10
345.0535791311608
 20
159.8713375307741
 30
0.0
 11
345.0535791311608
 21
185.8213375307741
 31
0.0
  0
ARC
  5
20F
330
1E
100
AcDbEntity
  8
0
100
AcDbCircle
 10
344.1852565627044
 20
161.1344177191808
 30
0.0
 40
1.199647078710619
100
AcDbArc
 50
98.88350103618634
 51
171.1164989638136
  0
ARC
  5
210
330
1E
100
AcDbEntity
  8
0
100
AcDbCircle
 10
344.0944061438891
 20
158.4140804257743
 30
0.0
 40
1.098470449209488
100
AcDbArc
 50
184.930268839272
 51
265.0697311607278
  0
LINE
  5
211
330
1E
100
AcDbEntity
  8
0
100
AcDbLine
 10
343.0
 20
158.3196742818852
 30
0.0
 11
343.0
 21
161.3196742818852
 31
0.0
  0
LINE
  5
212
330
1E
100
AcDbEntity
  8
0
100
AcDbLine
 10
344.5
 20
157.3196742818852
 30
0.0
 11
345.0
 21
157.3196742818852
 31
0.0
  0
LINE
  5
213
330
1E
100
AcDbEntity
  8
0
100
AcDbLine
 10
344.5
 20
157.3196742818852
 30
0.0
 11
343.9999999999998
 21
157.3196742818852
 31
0.0
  0
LINE
  5
214
330
1E
100
AcDbEntity
  8
0
100
AcDbLine
 10
345.0
 20
162.3196742818852
 30
0.0
 11
343.9999999999998
 21
162.3196742818852
 31
0.0
  0
LINE
  5
215
330
1E
100
AcDbEntity
  8
0
100
AcDbLine
 10
367.0535791311607
 20
159.8713375307741
 30
0.0
 11
367.0535791311607
 21
183.3213375307741
 31
0.0
  0
LINE
  5
216
330
1E
100
AcDbEntity
  8
0
100
AcDbLine
 10
371.0535791311607
 20
163.3713375307741
 30
0.0
 11
371.0535791311607
 21
156.3713375307741
 31
0.0
  0
LINE
  5
217
330
1E
100
AcDbEntity
  8
0
100
AcDbLine
 10
368.0535791311608
 20
164.3713375307741
 30
0.0
 11
368.0535791311608
 21
155.3713375307741
 31
0.0
  0
LINE
  5
218
330
1E
100
AcDbEntity
  8
0
100
AcDbLine
 10
368.0535791311608
 20
155.3713375307741
 30
0.0
 11
367.0535791311607
 21
155.3713375307741
 31
0.0
  0
LINE
  5
219
330
1E
100
AcDbEntity
  8
0
100
AcDbLine
 10
371.0535791311607
 20
156.3713375307741
 30
0.0
 11
370.5535791311608
 21
155.8713375307741
 31
0.0
  0
LINE
  5
21A
330
1E
100
AcDbEntity
  8
0
100
AcDbLine
 10
370.5535791311608
 20
155.8713375307741
 30
0.0
 11
368.0535791311608
 21
155.8713375307741
 31
0.0
  0
LINE
  5
21B
330
1E
100
AcDbEntity
  8
0
100
AcDbLine
 10
368.0535791311608
 20
157.8713375307741
 30
0.0
 11
371.0535791311607
 21
157.8713375307741
 31
0.0
  0
LINE
  5
21C
330
1E
100
AcDbEntity
  8
0
100
AcDbLine
 10
368.0535791311608
 20
161.8713375307741
 30
0.0
 11
371.0535791311607
 21
161.8713375307741
 31
0.0
  0
LINE
  5
21D
330
1E
100
AcDbEntity
  8
0
100
AcDbLine
 10
367.0535791311607
 20
164.3713375307741
 30
0.0
 11
368.0535791311608
 21
164.3713375307741
 31
0.0
  0
LINE
  5
21E
330
1E
100
AcDbEntity
  8
0
100
AcDbLine
 10
368.0535791311608
 20
163.8713375307741
 30
0.0
 11
370.5535791311608
 21
163.8713375307741
 31
0.0
  0
LINE
  5
21F
330
1E
100
AcDbEntity
  8
0
100
AcDbLine
 10
370.5535791311608
 20
163.8713375307741
 30
0.0
 11
371.0535791311607
 21
163.3713375307741
 31
0.0
  0
LINE
  5
220
330
1E
100
AcDbEntity
  8
0
100
AcDbLine
 10
346.0535791311606
 20
186.8213375307741
 30
0.0
 11
365.0535791311607
 21
186.8213375307741
 31
0.0
  0
LINE
  5
221
330
1E
100
AcDbEntity
  8
0
100
AcDbLine
 10
367.0535791311607
 20
183.3213375307741
 30
0.0
 11
367.0535791311607
 21
183.8213375307741
 31
0.0
  0
ARC
  5
222
330
1E
100
AcDbEntity
  8
0
100
AcDbCircle
 10
365.1973176040028
 20
183.9650760036163
 30
0.0
 40
1.861818360039842
100
AcDbArc
 50
355.5721722248311
 51
94.42782777516892
  0
LINE
  5
223
330
1E
100
AcDbEntity
  8
0
100
AcDbLine
 10
365.0535791311607
 20
185.8213375307741
 30
0.0
 11
365.0535791311607
 21
186.8213375307741
 31
0.0
  0
ENDSEC
  0
SECTION
  2
OBJECTS
  0
DICTIONARY
  5
C
330
0
100
AcDbDictionary
281
     1
  3
ACAD_GROUP
350
D
  3
ACAD_LAYOUT
350
19
  3
ACAD_MLINESTYLE
350
16
  3
ACAD_PLOTSETTINGS
350
18
  3
ACAD_PLOTSTYLENAME
350
E
  3
AcDbVariableDictionary
350
22C
  3
AcmDictionary
350
1DE
  3
AMG
350
126
  3
AMGSNAPSETTINGS
350
1FB
  3
DWGPROPS
350
1E1
  3
MAPISURF_MODULE
350
1B1
  0
DICTIONARY
  5
224
330
1E
100
AcDbDictionary
280
     1
281
     1
  3
ACAD_INDEX
360
225
  0
DICTIONARY
  5
D
102
{ACAD_REACTORS
330
C
102
}
330
C
100
AcDbDictionary
281
     1
  0
DICTIONARY
  5
19
102
{ACAD_REACTORS
330
C
102
}
330
C
100
AcDbDictionary
281
     1
  3
Model
350
21
  3
ﾚｲｱｳﾄ1
350
1D
  0
DICTIONARY
  5
16
102
{ACAD_REACTORS
330
C
102
}
330
C
100
AcDbDictionary
281
     1
  3
Standard
350
17
  0
DICTIONARY
  5
18
102
{ACAD_REACTORS
330
C
102
}
330
C
100
AcDbDictionary
281
     1
  0
ACDBDICTIONARYWDFLT
  5
E
102
{ACAD_REACTORS
330
C
102
}
330
C
100
AcDbDictionary
281
     1
  3
Normal
350
F
100
AcDbDictionaryWithDefault
340
F
  0
DICTIONARY
  5
22C
102
{ACAD_REACTORS
330
C
102
}
330
C
100
AcDbDictionary
281
     1
  3
DIMASSOC
350
22E
  3
INDEXCTL
350
22D
  0
DICTIONARY
  5
1DE
102
{ACAD_REACTORS
330
C
102
}
330
C
100
AcDbDictionary
281
     1
  3
AcmBOMDATA
350
1DF
  0
DICTIONARY
  5
126
102
{ACAD_REACTORS
330
C
102
}
330
C
100
AcDbDictionary
281
     1
  3
AcMgSettings
350
127
  3
AMGLAYCFG
350
1EB
  0
DICTIONARY
  5
1FB
102
{ACAD_REACTORS
330
C
102
}
330
C
100
AcDbDictionary
281
     1
  3
DIMENSION
350
200
  3
FEA
350
1FF
  3
HATCH (1)
350
1FC
  3
HATCH (2)
350
1FD
  3
SIMPLE WELD
350
201
  3
SYMBOLS
350
1FE
  0
XRECORD
  5
1E1
102
{ACAD_REACTORS
330
C
102
}
330
C
100
AcDbXrecord
280
     1
  1
DWGPROPS COOKIE
  2

  3

  4

  6

  7

  8

  9

300
AmdtFileType=84
301
=
302
=
303
=
304
=
305
=
306
=
307
=
308
=
309
=
 40
0.0000048842592593
 41
2450686.812326388
 42
2450686.812326388
  1

 90
        1
  0
DICTIONARY
  5
225
102
{ACAD_REACTORS
330
224
102
}
330
224
100
AcDbDictionary
281
     1
  3
*A1
350
226
  0
LAYOUT
  5
21
102
{ACAD_REACTORS
330
19
102
}
330
19
100
AcDbPlotSettings
  1

  2
\\KONISHIDENXP\SHARP MX-2700FG
  4

  6

 40
0.0
 41
0.0
 42
0.0
 43
0.0
 44
0.0
 45
0.0
 46
0.0
 47
0.0
 48
0.0
 49
0.0
140
0.0
141
0.0
142
1.0
143
1.0
 70
  1712
 72
     0
 73
     0
 74
     0
  7

 75
     0
147
1.0
148
0.0
149
0.0
100
AcDbLayout
  1
Model
 70
     1
 71
     0
 10
0.0
 20
0.0
 11
12.0
 21
9.0
 12
0.0
 22
0.0
 32
0.0
 14
0.0
 24
0.0
 34
0.0
 15
0.0
 25
0.0
 35
0.0
146
0.0
 13
0.0
 23
0.0
 33
0.0
 16
1.0
 26
0.0
 36
0.0
 17
0.0
 27
1.0
 37
0.0
 76
     0
330
1E
  0
LAYOUT
  5
1D
102
{ACAD_REACTORS
330
19
102
}
330
19
100
AcDbPlotSettings
  1

  2
\\KONISHIDENXP\SHARP MX-2700FG
  4

  6

 40
0.0
 41
0.0
 42
0.0
 43
0.0
 44
0.0
 45
0.0
 46
0.0
 47
0.0
 48
0.0
 49
0.0
140
0.0
141
0.0
142
1.0
143
1.0
 70
   688
 72
     0
 73
     0
 74
     5
  7

 75
    16
147
1.0
148
0.0
149
0.0
100
AcDbLayout
  1
ﾚｲｱｳﾄ1
 70
     0
 71
     1
 10
0.0
 20
0.0
 11
12.0
 21
9.0
 12
0.0
 22
0.0
 32
0.0
 14
1.000000000000000E+20
 24
1.000000000000000E+20
 34
1.000000000000000E+20
 15
-1.000000000000000E+20
 25
-1.000000000000000E+20
 35
-1.000000000000000E+20
146
0.0
 13
0.0
 23
0.0
 33
0.0
 16
1.0
 26
0.0
 36
0.0
 17
0.0
 27
1.0
 37
0.0
 76
     0
330
1A
  0
MLINESTYLE
  5
17
102
{ACAD_REACTORS
330
16
102
}
330
16
100
AcDbMlineStyle
  2
STANDARD
 70
     0
  3

 62
   256
 51
90.0
 52
90.0
 71
     2
 49
0.5
 62
   256
  6
BYLAYER
 49
-0.5
 62
   256
  6
BYLAYER
  0
ACDBPLACEHOLDER
  5
F
102
{ACAD_REACTORS
330
E
102
}
330
E
  0
DICTIONARYVAR
  5
22E
102
{ACAD_REACTORS
330
22C
102
}
330
22C
100
DictionaryVariables
280
     0
  1
0
  0
DICTIONARYVAR
  5
22D
102
{ACAD_REACTORS
330
22C
102
}
330
22C
100
DictionaryVariables
280
     0
  1
1
  0
ACMDATADICTIONARY
  5
1DF
102
{ACAD_REACTORS
330
1DE
102
}
330
1DE
100
AcDbDictionary
281
     1
  3
*A1
350
1E0
100
AcmDataDictionary
  0
DICTIONARY
  5
127
102
{ACAD_REACTORS
330
126
102
}
330
126
100
AcDbDictionary
281
     1
  3
DWGSETTINGS
350
128
  0
ACAMGFILTERDAT
  5
200
102
{ACAD_REACTORS
330
1FB
102
}
330
1FB
100
AcAmgFilterDat
 70
    15
  1
DIMENSION,AMDT_*_DIM
  2
*
  3
*
  4
*
  5
*
290
     1
  0
ACAMGFILTERDAT
  5
1FF
102
{ACAD_REACTORS
330
1FB
102
}
330
1FB
100
AcAmgFilterDat
 70
    15
  1
*
  2
AM_FEA-AM_*
  3
*
  4
*
  5
*
290
     1
  0
ACAMGFILTERDAT
  5
1FC
102
{ACAD_REACTORS
330
1FB
102
}
330
1FB
100
AcAmgFilterDat
 70
    15
  1
HATCH
  2
*
  3
*
  4
*
  5
*
290
     1
  0
ACAMGFILTERDAT
  5
1FD
102
{ACAD_REACTORS
330
1FB
102
}
330
1FB
100
AcAmgFilterDat
 70
    15
  1
LINE
  2
8,8N,*-8,*-8N,AM_8,AM_8N,*-AM_8,*-AM_8N
  3
*
  4
*
  5
INSERT,STDPART2D
290
     1
  0
ACAMGFILTERDAT
  5
201
102
{ACAD_REACTORS
330
1FB
102
}
330
1FB
100
AcAmgFilterDat
 70
    15
  1
ARC
  2
AM_5
  3
*
  4
2
  5
INSERT
290
     0
  0
ACAMGFILTERDAT
  5
1FE
102
{ACAD_REACTORS
330
1FB
102
}
330
1FB
100
AcAmgFilterDat
 70
    15
  1
ACMFCFRAME,ACMDATUMTARGET,ACMDATUMID,ACMWELDSYM,ACMSURFSYM,ACMFEATID,ACMPARTREF,ACMBALLOON,AMDTEDGESYM,AMGSCREWCALCTABLE
  2
*
  3
*
  4
*
  5
*
290
     1
  0
LAYER_INDEX
  5
226
102
{ACAD_REACTORS
330
225
102
}
330
225
100
AcDbIndex
 40
2456526.368322662
100
AcDbLayerIndex
  8
0
360
227
 90
      152
  8
1
360
228
 90
       10
  8
10
360
229
 90
        0
  8
11
360
22A
 90
       53
  8
2
360
22B
 90
        3
  0
ACMDATAENTRYBLOCK
  5
1E0
102
{ACAD_REACTORS
330
1DF
102
}
330
1DF
100
AcmDataEntry
100
AcmDataEntryBlock
  0
IDBUFFER
  5
227
330
0
100
AcDbIdBuffer
330
FC
330
FD
330
FE
330
FF
330
100
330
121
330
122
330
123
330
202
330
203
330
205
330
206
330
207
330
209
330
20A
330
20B
330
20C
330
20D
330
20E
330
20F
330
210
330
211
330
212
330
213
330
214
330
215
330
216
330
217
330
218
330
219
330
21A
330
21B
330
21C
330
21D
330
21E
330
21F
330
220
330
221
330
222
330
223
330
49
330
4B
330
4C
330
4D
330
4E
330
4F
330
50
330
51
330
52
330
53
330
54
330
55
330
56
330
57
330
58
330
59
330
5A
330
5B
330
5C
330
5D
330
90
330
91
330
92
330
93
330
94
330
95
330
96
330
97
330
98
330
99
330
9A
330
9B
330
9C
330
9D
330
9E
330
9F
330
A0
330
A1
330
A2
330
A3
330
A4
330
A5
330
A6
330
A7
330
A8
330
A9
330
AA
330
AB
330
AC
330
AD
330
AE
330
AF
330
B0
330
B8
330
B9
330
BD
330
BE
330
BF
330
C1
330
C2
330
C3
330
C4
330
C5
330
C6
330
C7
330
C8
330
C9
330
CA
330
CB
330
CC
330
CD
330
CE
330
D1
330
D2
330
D3
330
D4
330
D5
330
D6
330
D7
330
D8
330
D9
330
DA
330
DB
330
DC
330
DD
330
DE
330
DF
330
E2
330
E3
330
E4
330
E6
330
E7
330
E8
330
E9
330
EA
330
EB
330
EC
330
ED
330
EE
330
EF
330
F0
330
F1
330
F2
330
F3
330
F4
330
F5
330
F6
330
F7
330
F8
330
F9
330
FA
330
FB
  0
IDBUFFER
  5
228
330
0
100
AcDbIdBuffer
330
45
330
46
330
47
330
4A
330
BB
330
BC
330
C0
330
CF
330
E1
330
204
  0
IDBUFFER
  5
229
330
0
100
AcDbIdBuffer
  0
IDBUFFER
  5
22A
330
0
100
AcDbIdBuffer
330
8C
330
8D
330
8E
330
8F
330
E0
330
43
330
44
330
5E
330
5F
330
60
330
61
330
62
330
63
330
64
330
65
330
66
330
67
330
68
330
69
330
6A
330
6B
330
6C
330
6D
330
6E
330
6F
330
70
330
71
330
72
330
73
330
74
330
75
330
76
330
77
330
78
330
79
330
7A
330
7B
330
7C
330
7D
330
7E
330
7F
330
80
330
81
330
82
330
83
330
84
330
85
330
86
330
87
330
88
330
89
330
8A
330
8B
  0
IDBUFFER
  5
22B
330
0
100
AcDbIdBuffer
330
D0
330
E5
330
208
  0
ENDSEC
  0
EOF
